  0
SECTION
  2
HEADER
  9
$ACADVER
  1
AC1018
  9
$ACADMAINTVER
 70
     0
  9
$DWGCODEPAGE
  3
ANSI_932
  9
$INSBASE
 10
0.0
 20
0.0
 30
0.0
  9
$EXTMIN
 10
1.000000000000000E+20
 20
1.000000000000000E+20
 30
1.000000000000000E+20
  9
$EXTMAX
 10
-1.000000000000000E+20
 20
-1.000000000000000E+20
 30
-1.000000000000000E+20
  9
$LIMMIN
 10
0.0
 20
0.0
  9
$LIMMAX
 10
12.0
 20
9.0
  9
$ORTHOMODE
 70
     0
  9
$REGENMODE
 70
     1
  9
$FILLMODE
 70
     1
  9
$QTEXTMODE
 70
     0
  9
$MIRRTEXT
 70
     1
  9
$LTSCALE
 40
1.0
  9
$ATTMODE
 70
     1
  9
$TEXTSIZE
 40
0.2
  9
$TRACEWID
 40
0.05
  9
$TEXTSTYLE
  7
Standard
  9
$CLAYER
  8
0
  9
$CELTYPE
  6
ByLayer
  9
$CECOLOR
 62
   256
  9
$CELTSCALE
 40
1.0
  9
$DISPSILH
 70
     0
  9
$DIMSCALE
 40
1.0
  9
$DIMASZ
 40
0.18
  9
$DIMEXO
 40
0.0625
  9
$DIMDLI
 40
0.38
  9
$DIMRND
 40
0.0
  9
$DIMDLE
 40
0.0
  9
$DIMEXE
 40
0.18
  9
$DIMTP
 40
0.0
  9
$DIMTM
 40
0.0
  9
$DIMTXT
 40
0.18
  9
$DIMCEN
 40
0.09
  9
$DIMTSZ
 40
0.0
  9
$DIMTOL
 70
     0
  9
$DIMLIM
 70
     0
  9
$DIMTIH
 70
     1
  9
$DIMTOH
 70
     1
  9
$DIMSE1
 70
     0
  9
$DIMSE2
 70
     0
  9
$DIMTAD
 70
     0
  9
$DIMZIN
 70
     0
  9
$DIMBLK
  1

  9
$DIMASO
 70
     1
  9
$DIMSHO
 70
     1
  9
$DIMPOST
  1

  9
$DIMAPOST
  1

  9
$DIMALT
 70
     0
  9
$DIMALTD
 70
     2
  9
$DIMALTF
 40
25.4
  9
$DIMLFAC
 40
1.0
  9
$DIMTOFL
 70
     0
  9
$DIMTVP
 40
0.0
  9
$DIMTIX
 70
     0
  9
$DIMSOXD
 70
     0
  9
$DIMSAH
 70
     0
  9
$DIMBLK1
  1

  9
$DIMBLK2
  1

  9
$DIMSTYLE
  2
Standard
  9
$DIMCLRD
 70
     0
  9
$DIMCLRE
 70
     0
  9
$DIMCLRT
 70
     0
  9
$DIMTFAC
 40
1.0
  9
$DIMGAP
 40
0.09
  9
$DIMJUST
 70
     0
  9
$DIMSD1
 70
     0
  9
$DIMSD2
 70
     0
  9
$DIMTOLJ
 70
     1
  9
$DIMTZIN
 70
     0
  9
$DIMALTZ
 70
     0
  9
$DIMALTTZ
 70
     0
  9
$DIMUPT
 70
     0
  9
$DIMDEC
 70
     4
  9
$DIMTDEC
 70
     4
  9
$DIMALTU
 70
     2
  9
$DIMALTTD
 70
     2
  9
$DIMTXSTY
  7
Standard
  9
$DIMAUNIT
 70
     0
  9
$DIMADEC
 70
     0
  9
$DIMALTRND
 40
0.0
  9
$DIMAZIN
 70
     0
  9
$DIMDSEP
 70
    46
  9
$DIMATFIT
 70
     3
  9
$DIMFRAC
 70
     0
  9
$DIMLDRBLK
  1

  9
$DIMLUNIT
 70
     2
  9
$DIMLWD
 70
    -2
  9
$DIMLWE
 70
    -2
  9
$DIMTMOVE
 70
     0
  9
$LUNITS
 70
     2
  9
$LUPREC
 70
     4
  9
$SKETCHINC
 40
0.1
  9
$FILLETRAD
 40
0.5
  9
$AUNITS
 70
     0
  9
$AUPREC
 70
     0
  9
$MENU
  1
.
  9
$ELEVATION
 40
0.0
  9
$PELEVATION
 40
0.0
  9
$THICKNESS
 40
0.0
  9
$LIMCHECK
 70
     0
  9
$CHAMFERA
 40
0.5
  9
$CHAMFERB
 40
0.5
  9
$CHAMFERC
 40
1.0
  9
$CHAMFERD
 40
0.0
  9
$SKPOLY
 70
     0
  9
$TDCREATE
 40
2457099.778854167
  9
$TDUCREATE
 40
2457099.7371875
  9
$TDUPDATE
 40
2457099.778854178
  9
$TDUUPDATE
 40
2457099.737187512
  9
$TDINDWG
 40
0.0000000116
  9
$TDUSRTIMER
 40
0.0000000116
  9
$USRTIMER
 70
     1
  9
$ANGBASE
 50
0.0
  9
$ANGDIR
 70
     0
  9
$PDMODE
 70
     0
  9
$PDSIZE
 40
0.0
  9
$PLINEWID
 40
0.0
  9
$SPLFRAME
 70
     0
  9
$SPLINETYPE
 70
     6
  9
$SPLINESEGS
 70
     8
  9
$HANDSEED
  5
4E6
  9
$SURFTAB1
 70
     6
  9
$SURFTAB2
 70
     6
  9
$SURFTYPE
 70
     6
  9
$SURFU
 70
     6
  9
$SURFV
 70
     6
  9
$UCSBASE
  2

  9
$UCSNAME
  2

  9
$UCSORG
 10
0.0
 20
0.0
 30
0.0
  9
$UCSXDIR
 10
1.0
 20
0.0
 30
0.0
  9
$UCSYDIR
 10
0.0
 20
1.0
 30
0.0
  9
$UCSORTHOREF
  2

  9
$UCSORTHOVIEW
 70
     0
  9
$UCSORGTOP
 10
0.0
 20
0.0
 30
0.0
  9
$UCSORGBOTTOM
 10
0.0
 20
0.0
 30
0.0
  9
$UCSORGLEFT
 10
0.0
 20
0.0
 30
0.0
  9
$UCSORGRIGHT
 10
0.0
 20
0.0
 30
0.0
  9
$UCSORGFRONT
 10
0.0
 20
0.0
 30
0.0
  9
$UCSORGBACK
 10
0.0
 20
0.0
 30
0.0
  9
$PUCSBASE
  2

  9
$PUCSNAME
  2

  9
$PUCSORG
 10
0.0
 20
0.0
 30
0.0
  9
$PUCSXDIR
 10
1.0
 20
0.0
 30
0.0
  9
$PUCSYDIR
 10
0.0
 20
1.0
 30
0.0
  9
$PUCSORTHOREF
  2

  9
$PUCSORTHOVIEW
 70
     0
  9
$PUCSORGTOP
 10
0.0
 20
0.0
 30
0.0
  9
$PUCSORGBOTTOM
 10
0.0
 20
0.0
 30
0.0
  9
$PUCSORGLEFT
 10
0.0
 20
0.0
 30
0.0
  9
$PUCSORGRIGHT
 10
0.0
 20
0.0
 30
0.0
  9
$PUCSORGFRONT
 10
0.0
 20
0.0
 30
0.0
  9
$PUCSORGBACK
 10
0.0
 20
0.0
 30
0.0
  9
$USERI1
 70
     0
  9
$USERI2
 70
     0
  9
$USERI3
 70
     0
  9
$USERI4
 70
     0
  9
$USERI5
 70
     0
  9
$USERR1
 40
0.0
  9
$USERR2
 40
0.0
  9
$USERR3
 40
0.0
  9
$USERR4
 40
0.0
  9
$USERR5
 40
0.0
  9
$WORLDVIEW
 70
     1
  9
$SHADEDGE
 70
     3
  9
$SHADEDIF
 70
    70
  9
$TILEMODE
 70
     1
  9
$MAXACTVP
 70
    64
  9
$PINSBASE
 10
0.0
 20
0.0
 30
0.0
  9
$PLIMCHECK
 70
     0
  9
$PEXTMIN
 10
1.000000000000000E+20
 20
1.000000000000000E+20
 30
1.000000000000000E+20
  9
$PEXTMAX
 10
-1.000000000000000E+20
 20
-1.000000000000000E+20
 30
-1.000000000000000E+20
  9
$PLIMMIN
 10
0.0
 20
0.0
  9
$PLIMMAX
 10
12.0
 20
9.0
  9
$UNITMODE
 70
     0
  9
$VISRETAIN
 70
     1
  9
$PLINEGEN
 70
     0
  9
$PSLTSCALE
 70
     1
  9
$TREEDEPTH
 70
  3020
  9
$CMLSTYLE
  2
Standard
  9
$CMLJUST
 70
     0
  9
$CMLSCALE
 40
1.0
  9
$PROXYGRAPHICS
 70
     1
  9
$MEASUREMENT
 70
     0
  9
$CELWEIGHT
370
    -1
  9
$ENDCAPS
280
     0
  9
$JOINSTYLE
280
     0
  9
$LWDISPLAY
290
     1
  9
$INSUNITS
 70
     1
  9
$HYPERLINKBASE
  1

  9
$STYLESHEET
  1

  9
$XEDIT
290
     1
  9
$CEPSNTYPE
380
     0
  9
$PSTYLEMODE
290
     1
  9
$FINGERPRINTGUID
  2
{8E182D4A-1DF6-31CF-A423-9528F4C7D685}
  9
$VERSIONGUID
  2
{FAEB1C32-E019-11D5-929B-00C0DF256EC4}
  9
$EXTNAMES
290
     1
  9
$PSVPSCALE
 40
0.0
  9
$OLESTARTUP
290
     0
  9
$SORTENTS
280
   127
  9
$INDEXCTL
280
     0
  9
$HIDETEXT
280
     1
  9
$XCLIPFRAME
290
     0
  9
$HALOGAP
280
     0
  9
$OBSCOLOR
 70
   257
  9
$OBSLTYPE
280
     0
  9
$INTERSECTIONDISPLAY
280
     0
  9
$INTERSECTIONCOLOR
 70
   257
  9
$DIMASSOC
280
     2
  9
$PROJECTNAME
  1

  0
ENDSEC
  0
SECTION
  2
CLASSES
  0
CLASS
  1
ACDBDICTIONARYWDFLT
  2
AcDbDictionaryWithDefault
  3
ObjectDBX Classes
 90
        0
 91
        3
280
     0
281
     0
  0
CLASS
  1
VISUALSTYLE
  2
AcDbVisualStyle
  3
ObjectDBX Classes
 90
     4095
 91
        3
280
     0
281
     0
  0
ENDSEC
  0
SECTION
  2
TABLES
  0
TABLE
  2
VPORT
  5
8
330
0
100
AcDbSymbolTable
 70
     1
  0
VPORT
  5
29
330
8
100
AcDbSymbolTableRecord
100
AcDbViewportTableRecord
  2
*Active
 70
     0
 10
0.0
 20
0.0
 11
1.0
 21
1.0
 12
0.0
 22
0.0
 13
0.0
 23
0.0
 14
0.5
 24
0.5
 15
0.5
 25
0.5
 16
0.0
 26
0.0
 36
1.0
 17
180.8320284921184
 27
172.2989576120902
 37
0.0
 40
117.4689710535321
 41
0.477478521121081
 42
50.0
 43
0.0
 44
0.0
 50
0.0
 51
0.0
 71
     0
 72
   100
 73
     1
 74
     3
 75
     0
 76
     0
 77
     0
 78
     0
281
     0
 65
     1
110
0.0
120
0.0
130
0.0
111
1.0
121
0.0
131
0.0
112
0.0
122
1.0
132
0.0
 79
     0
146
0.0
  0
ENDTAB
  0
TABLE
  2
LTYPE
  5
5
330
0
100
AcDbSymbolTable
 70
     1
  0
LTYPE
  5
14
330
5
100
AcDbSymbolTableRecord
100
AcDbLinetypeTableRecord
  2
ByBlock
 70
     0
  3

 72
    65
 73
     0
 40
0.0
  0
LTYPE
  5
15
330
5
100
AcDbSymbolTableRecord
100
AcDbLinetypeTableRecord
  2
ByLayer
 70
     0
  3

 72
    65
 73
     0
 40
0.0
  0
LTYPE
  5
16
330
5
100
AcDbSymbolTableRecord
100
AcDbLinetypeTableRecord
  2
Continuous
 70
     0
  3
Solid line
 72
    65
 73
     0
 40
0.0
  0
ENDTAB
  0
TABLE
  2
LAYER
  5
2
330
0
100
AcDbSymbolTable
 70
     2
  0
LAYER
  5
10
330
2
100
AcDbSymbolTableRecord
100
AcDbLayerTableRecord
  2
0
 70
     0
 62
     7
  6
Continuous
370
    -3
390
F
  0
LAYER
  5
3B
330
2
100
AcDbSymbolTableRecord
100
AcDbLayerTableRecord
  2
Livello 1
 70
     0
 62
     7
  6
Continuous
370
    -3
390
F
  0
ENDTAB
  0
TABLE
  2
STYLE
  5
3
330
0
100
AcDbSymbolTable
 70
     1
  0
STYLE
  5
11
330
3
100
AcDbSymbolTableRecord
100
AcDbTextStyleTableRecord
  2
Standard
 70
     0
 40
0.0
 41
1.0
 50
0.0
 71
     0
 42
0.2
  3
txt
  4

  0
ENDTAB
  0
TABLE
  2
VIEW
  5
6
330
0
100
AcDbSymbolTable
 70
     0
  0
ENDTAB
  0
TABLE
  2
UCS
  5
7
330
0
100
AcDbSymbolTable
 70
     0
  0
ENDTAB
  0
TABLE
  2
APPID
  5
9
330
0
100
AcDbSymbolTable
 70
     1
  0
APPID
  5
12
330
9
100
AcDbSymbolTableRecord
100
AcDbRegAppTableRecord
  2
ACAD
 70
     0
  0
ENDTAB
  0
TABLE
  2
DIMSTYLE
  5
A
330
0
100
AcDbSymbolTable
 70
     1
100
AcDbDimStyleTable
  0
DIMSTYLE
105
27
330
A
100
AcDbSymbolTableRecord
100
AcDbDimStyleTableRecord
  2
Standard
 70
     0
340
11
  0
ENDTAB
  0
TABLE
  2
BLOCK_RECORD
  5
1
330
0
100
AcDbSymbolTable
 70
   110
  0
BLOCK_RECORD
  5
1F
330
1
100
AcDbSymbolTableRecord
100
AcDbBlockTableRecord
  2
*Model_Space
340
22
  0
BLOCK_RECORD
  5
1B
330
1
100
AcDbSymbolTableRecord
100
AcDbBlockTableRecord
  2
*Paper_Space
340
1E
  0
BLOCK_RECORD
  5
23
330
1
100
AcDbSymbolTableRecord
100
AcDbBlockTableRecord
  2
*Paper_Space0
340
26
  0
BLOCK_RECORD
  5
3C
330
1
100
AcDbSymbolTableRecord
100
AcDbBlockTableRecord
  2
block 2
340
0
102
{BLKREFS
331
3D
102
}
  0
BLOCK_RECORD
  5
41
330
1
100
AcDbSymbolTableRecord
100
AcDbBlockTableRecord
  2
block 3
340
0
102
{BLKREFS
331
42
102
}
  0
BLOCK_RECORD
  5
46
330
1
100
AcDbSymbolTableRecord
100
AcDbBlockTableRecord
  2
block 4
340
0
102
{BLKREFS
331
47
102
}
  0
BLOCK_RECORD
  5
4B
330
1
100
AcDbSymbolTableRecord
100
AcDbBlockTableRecord
  2
block 5
340
0
102
{BLKREFS
331
4C
102
}
  0
BLOCK_RECORD
  5
50
330
1
100
AcDbSymbolTableRecord
100
AcDbBlockTableRecord
  2
block 6
340
0
102
{BLKREFS
331
51
102
}
  0
BLOCK_RECORD
  5
55
330
1
100
AcDbSymbolTableRecord
100
AcDbBlockTableRecord
  2
block 7
340
0
102
{BLKREFS
331
56
102
}
  0
BLOCK_RECORD
  5
5A
330
1
100
AcDbSymbolTableRecord
100
AcDbBlockTableRecord
  2
block 8
340
0
102
{BLKREFS
331
5B
102
}
  0
BLOCK_RECORD
  5
5F
330
1
100
AcDbSymbolTableRecord
100
AcDbBlockTableRecord
  2
block 9
340
0
102
{BLKREFS
331
60
102
}
  0
BLOCK_RECORD
  5
64
330
1
100
AcDbSymbolTableRecord
100
AcDbBlockTableRecord
  2
block 10
340
0
102
{BLKREFS
331
65
102
}
  0
BLOCK_RECORD
  5
69
330
1
100
AcDbSymbolTableRecord
100
AcDbBlockTableRecord
  2
block 11
340
0
102
{BLKREFS
331
6A
102
}
  0
BLOCK_RECORD
  5
6E
330
1
100
AcDbSymbolTableRecord
100
AcDbBlockTableRecord
  2
block 12
340
0
102
{BLKREFS
331
6F
102
}
  0
BLOCK_RECORD
  5
73
330
1
100
AcDbSymbolTableRecord
100
AcDbBlockTableRecord
  2
block 13
340
0
102
{BLKREFS
331
74
102
}
  0
BLOCK_RECORD
  5
78
330
1
100
AcDbSymbolTableRecord
100
AcDbBlockTableRecord
  2
block 14
340
0
102
{BLKREFS
331
79
102
}
  0
BLOCK_RECORD
  5
7D
330
1
100
AcDbSymbolTableRecord
100
AcDbBlockTableRecord
  2
block 15
340
0
102
{BLKREFS
331
7E
102
}
  0
BLOCK_RECORD
  5
82
330
1
100
AcDbSymbolTableRecord
100
AcDbBlockTableRecord
  2
block 16
340
0
102
{BLKREFS
331
83
102
}
  0
BLOCK_RECORD
  5
87
330
1
100
AcDbSymbolTableRecord
100
AcDbBlockTableRecord
  2
block 17
340
0
102
{BLKREFS
331
88
102
}
  0
BLOCK_RECORD
  5
8C
330
1
100
AcDbSymbolTableRecord
100
AcDbBlockTableRecord
  2
block 18
340
0
102
{BLKREFS
331
8D
102
}
  0
BLOCK_RECORD
  5
91
330
1
100
AcDbSymbolTableRecord
100
AcDbBlockTableRecord
  2
block 19
340
0
102
{BLKREFS
331
92
102
}
  0
BLOCK_RECORD
  5
B8
330
1
100
AcDbSymbolTableRecord
100
AcDbBlockTableRecord
  2
block 20
340
0
102
{BLKREFS
331
B9
102
}
  0
BLOCK_RECORD
  5
BF
330
1
100
AcDbSymbolTableRecord
100
AcDbBlockTableRecord
  2
block 21
340
0
102
{BLKREFS
331
C0
102
}
  0
BLOCK_RECORD
  5
C4
330
1
100
AcDbSymbolTableRecord
100
AcDbBlockTableRecord
  2
block 22
340
0
102
{BLKREFS
331
C5
102
}
  0
BLOCK_RECORD
  5
CF
330
1
100
AcDbSymbolTableRecord
100
AcDbBlockTableRecord
  2
block 23
340
0
102
{BLKREFS
331
D0
102
}
  0
BLOCK_RECORD
  5
DA
330
1
100
AcDbSymbolTableRecord
100
AcDbBlockTableRecord
  2
block 24
340
0
102
{BLKREFS
331
DB
102
}
  0
BLOCK_RECORD
  5
DF
330
1
100
AcDbSymbolTableRecord
100
AcDbBlockTableRecord
  2
block 25
340
0
102
{BLKREFS
331
E0
102
}
  0
BLOCK_RECORD
  5
EC
330
1
100
AcDbSymbolTableRecord
100
AcDbBlockTableRecord
  2
block 26
340
0
102
{BLKREFS
331
ED
102
}
  0
BLOCK_RECORD
  5
F1
330
1
100
AcDbSymbolTableRecord
100
AcDbBlockTableRecord
  2
block 27
340
0
102
{BLKREFS
331
F2
102
}
  0
BLOCK_RECORD
  5
F6
330
1
100
AcDbSymbolTableRecord
100
AcDbBlockTableRecord
  2
block 28
340
0
102
{BLKREFS
331
F7
102
}
  0
BLOCK_RECORD
  5
105
330
1
100
AcDbSymbolTableRecord
100
AcDbBlockTableRecord
  2
block 29
340
0
102
{BLKREFS
331
106
102
}
  0
BLOCK_RECORD
  5
123
330
1
100
AcDbSymbolTableRecord
100
AcDbBlockTableRecord
  2
block 30
340
0
102
{BLKREFS
331
124
102
}
  0
BLOCK_RECORD
  5
142
330
1
100
AcDbSymbolTableRecord
100
AcDbBlockTableRecord
  2
block 31
340
0
102
{BLKREFS
331
143
102
}
  0
BLOCK_RECORD
  5
14C
330
1
100
AcDbSymbolTableRecord
100
AcDbBlockTableRecord
  2
block 32
340
0
102
{BLKREFS
331
14D
102
}
  0
BLOCK_RECORD
  5
156
330
1
100
AcDbSymbolTableRecord
100
AcDbBlockTableRecord
  2
block 33
340
0
102
{BLKREFS
331
157
102
}
  0
BLOCK_RECORD
  5
15E
330
1
100
AcDbSymbolTableRecord
100
AcDbBlockTableRecord
  2
block 34
340
0
102
{BLKREFS
331
15F
102
}
  0
BLOCK_RECORD
  5
166
330
1
100
AcDbSymbolTableRecord
100
AcDbBlockTableRecord
  2
block 35
340
0
102
{BLKREFS
331
167
102
}
  0
BLOCK_RECORD
  5
16E
330
1
100
AcDbSymbolTableRecord
100
AcDbBlockTableRecord
  2
block 36
340
0
102
{BLKREFS
331
16F
102
}
  0
BLOCK_RECORD
  5
176
330
1
100
AcDbSymbolTableRecord
100
AcDbBlockTableRecord
  2
block 37
340
0
102
{BLKREFS
331
177
102
}
  0
BLOCK_RECORD
  5
17F
330
1
100
AcDbSymbolTableRecord
100
AcDbBlockTableRecord
  2
block 38
340
0
102
{BLKREFS
331
180
102
}
  0
BLOCK_RECORD
  5
1AE
330
1
100
AcDbSymbolTableRecord
100
AcDbBlockTableRecord
  2
block 39
340
0
102
{BLKREFS
331
1AF
102
}
  0
BLOCK_RECORD
  5
1B5
330
1
100
AcDbSymbolTableRecord
100
AcDbBlockTableRecord
  2
block 40
340
0
102
{BLKREFS
331
1B6
102
}
  0
BLOCK_RECORD
  5
1BD
330
1
100
AcDbSymbolTableRecord
100
AcDbBlockTableRecord
  2
block 41
340
0
102
{BLKREFS
331
1BE
102
}
  0
BLOCK_RECORD
  5
1C5
330
1
100
AcDbSymbolTableRecord
100
AcDbBlockTableRecord
  2
block 42
340
0
102
{BLKREFS
331
1C6
102
}
  0
BLOCK_RECORD
  5
1CD
330
1
100
AcDbSymbolTableRecord
100
AcDbBlockTableRecord
  2
block 43
340
0
102
{BLKREFS
331
1CE
102
}
  0
BLOCK_RECORD
  5
1D5
330
1
100
AcDbSymbolTableRecord
100
AcDbBlockTableRecord
  2
block 44
340
0
102
{BLKREFS
331
1D6
102
}
  0
BLOCK_RECORD
  5
1DD
330
1
100
AcDbSymbolTableRecord
100
AcDbBlockTableRecord
  2
block 45
340
0
102
{BLKREFS
331
1DE
102
}
  0
BLOCK_RECORD
  5
1E5
330
1
100
AcDbSymbolTableRecord
100
AcDbBlockTableRecord
  2
block 46
340
0
102
{BLKREFS
331
1E6
102
}
  0
BLOCK_RECORD
  5
1EE
330
1
100
AcDbSymbolTableRecord
100
AcDbBlockTableRecord
  2
block 47
340
0
102
{BLKREFS
331
1EF
102
}
  0
BLOCK_RECORD
  5
1F3
330
1
100
AcDbSymbolTableRecord
100
AcDbBlockTableRecord
  2
block 48
340
0
102
{BLKREFS
331
1F4
102
}
  0
BLOCK_RECORD
  5
1FE
330
1
100
AcDbSymbolTableRecord
100
AcDbBlockTableRecord
  2
block 49
340
0
102
{BLKREFS
331
1FF
102
}
  0
BLOCK_RECORD
  5
209
330
1
100
AcDbSymbolTableRecord
100
AcDbBlockTableRecord
  2
block 50
340
0
102
{BLKREFS
331
20A
102
}
  0
BLOCK_RECORD
  5
218
330
1
100
AcDbSymbolTableRecord
100
AcDbBlockTableRecord
  2
block 51
340
0
102
{BLKREFS
331
219
102
}
  0
BLOCK_RECORD
  5
221
330
1
100
AcDbSymbolTableRecord
100
AcDbBlockTableRecord
  2
block 52
340
0
102
{BLKREFS
331
222
102
}
  0
BLOCK_RECORD
  5
22A
330
1
100
AcDbSymbolTableRecord
100
AcDbBlockTableRecord
  2
block 53
340
0
102
{BLKREFS
331
22B
102
}
  0
BLOCK_RECORD
  5
233
330
1
100
AcDbSymbolTableRecord
100
AcDbBlockTableRecord
  2
block 54
340
0
102
{BLKREFS
331
234
102
}
  0
BLOCK_RECORD
  5
23A
330
1
100
AcDbSymbolTableRecord
100
AcDbBlockTableRecord
  2
block 55
340
0
102
{BLKREFS
331
23B
102
}
  0
BLOCK_RECORD
  5
241
330
1
100
AcDbSymbolTableRecord
100
AcDbBlockTableRecord
  2
block 56
340
0
102
{BLKREFS
331
242
102
}
  0
BLOCK_RECORD
  5
248
330
1
100
AcDbSymbolTableRecord
100
AcDbBlockTableRecord
  2
block 57
340
0
102
{BLKREFS
331
249
102
}
  0
BLOCK_RECORD
  5
250
330
1
100
AcDbSymbolTableRecord
100
AcDbBlockTableRecord
  2
block 58
340
0
102
{BLKREFS
331
251
102
}
  0
BLOCK_RECORD
  5
257
330
1
100
AcDbSymbolTableRecord
100
AcDbBlockTableRecord
  2
block 59
340
0
102
{BLKREFS
331
258
102
}
  0
BLOCK_RECORD
  5
25F
330
1
100
AcDbSymbolTableRecord
100
AcDbBlockTableRecord
  2
block 60
340
0
102
{BLKREFS
331
260
102
}
  0
BLOCK_RECORD
  5
267
330
1
100
AcDbSymbolTableRecord
100
AcDbBlockTableRecord
  2
block 61
340
0
102
{BLKREFS
331
268
102
}
  0
BLOCK_RECORD
  5
26F
330
1
100
AcDbSymbolTableRecord
100
AcDbBlockTableRecord
  2
block 62
340
0
102
{BLKREFS
331
270
102
}
  0
BLOCK_RECORD
  5
277
330
1
100
AcDbSymbolTableRecord
100
AcDbBlockTableRecord
  2
block 63
340
0
102
{BLKREFS
331
278
102
}
  0
BLOCK_RECORD
  5
27F
330
1
100
AcDbSymbolTableRecord
100
AcDbBlockTableRecord
  2
block 64
340
0
102
{BLKREFS
331
280
102
}
  0
BLOCK_RECORD
  5
287
330
1
100
AcDbSymbolTableRecord
100
AcDbBlockTableRecord
  2
block 65
340
0
102
{BLKREFS
331
288
102
}
  0
BLOCK_RECORD
  5
29D
330
1
100
AcDbSymbolTableRecord
100
AcDbBlockTableRecord
  2
block 66
340
0
102
{BLKREFS
331
29E
102
}
  0
BLOCK_RECORD
  5
2A2
330
1
100
AcDbSymbolTableRecord
100
AcDbBlockTableRecord
  2
block 67
340
0
102
{BLKREFS
331
2A3
102
}
  0
BLOCK_RECORD
  5
2AE
330
1
100
AcDbSymbolTableRecord
100
AcDbBlockTableRecord
  2
block 68
340
0
102
{BLKREFS
331
2AF
102
}
  0
BLOCK_RECORD
  5
2BA
330
1
100
AcDbSymbolTableRecord
100
AcDbBlockTableRecord
  2
block 69
340
0
102
{BLKREFS
331
2BB
102
}
  0
BLOCK_RECORD
  5
2C6
330
1
100
AcDbSymbolTableRecord
100
AcDbBlockTableRecord
  2
block 70
340
0
102
{BLKREFS
331
2C7
102
}
  0
BLOCK_RECORD
  5
2D2
330
1
100
AcDbSymbolTableRecord
100
AcDbBlockTableRecord
  2
block 71
340
0
102
{BLKREFS
331
2D3
102
}
  0
BLOCK_RECORD
  5
2E1
330
1
100
AcDbSymbolTableRecord
100
AcDbBlockTableRecord
  2
block 72
340
0
102
{BLKREFS
331
2E2
102
}
  0
BLOCK_RECORD
  5
2E8
330
1
100
AcDbSymbolTableRecord
100
AcDbBlockTableRecord
  2
block 73
340
0
102
{BLKREFS
331
2E9
102
}
  0
BLOCK_RECORD
  5
2F0
330
1
100
AcDbSymbolTableRecord
100
AcDbBlockTableRecord
  2
block 74
340
0
102
{BLKREFS
331
2F1
102
}
  0
BLOCK_RECORD
  5
2F8
330
1
100
AcDbSymbolTableRecord
100
AcDbBlockTableRecord
  2
block 75
340
0
102
{BLKREFS
331
2F9
102
}
  0
BLOCK_RECORD
  5
2FF
330
1
100
AcDbSymbolTableRecord
100
AcDbBlockTableRecord
  2
block 76
340
0
102
{BLKREFS
331
300
102
}
  0
BLOCK_RECORD
  5
307
330
1
100
AcDbSymbolTableRecord
100
AcDbBlockTableRecord
  2
block 77
340
0
102
{BLKREFS
331
308
102
}
  0
BLOCK_RECORD
  5
30F
330
1
100
AcDbSymbolTableRecord
100
AcDbBlockTableRecord
  2
block 78
340
0
102
{BLKREFS
331
310
102
}
  0
BLOCK_RECORD
  5
317
330
1
100
AcDbSymbolTableRecord
100
AcDbBlockTableRecord
  2
block 79
340
0
102
{BLKREFS
331
318
102
}
  0
BLOCK_RECORD
  5
31F
330
1
100
AcDbSymbolTableRecord
100
AcDbBlockTableRecord
  2
block 80
340
0
102
{BLKREFS
331
320
102
}
  0
BLOCK_RECORD
  5
327
330
1
100
AcDbSymbolTableRecord
100
AcDbBlockTableRecord
  2
block 81
340
0
102
{BLKREFS
331
328
102
}
  0
BLOCK_RECORD
  5
32F
330
1
100
AcDbSymbolTableRecord
100
AcDbBlockTableRecord
  2
block 82
340
0
102
{BLKREFS
331
330
102
}
  0
BLOCK_RECORD
  5
337
330
1
100
AcDbSymbolTableRecord
100
AcDbBlockTableRecord
  2
block 83
340
0
102
{BLKREFS
331
338
102
}
  0
BLOCK_RECORD
  5
33F
330
1
100
AcDbSymbolTableRecord
100
AcDbBlockTableRecord
  2
block 84
340
0
102
{BLKREFS
331
340
102
}
  0
BLOCK_RECORD
  5
347
330
1
100
AcDbSymbolTableRecord
100
AcDbBlockTableRecord
  2
block 85
340
0
102
{BLKREFS
331
348
102
}
  0
BLOCK_RECORD
  5
34F
330
1
100
AcDbSymbolTableRecord
100
AcDbBlockTableRecord
  2
block 86
340
0
102
{BLKREFS
331
350
102
}
  0
BLOCK_RECORD
  5
357
330
1
100
AcDbSymbolTableRecord
100
AcDbBlockTableRecord
  2
block 87
340
0
102
{BLKREFS
331
358
102
}
  0
BLOCK_RECORD
  5
35F
330
1
100
AcDbSymbolTableRecord
100
AcDbBlockTableRecord
  2
block 88
340
0
102
{BLKREFS
331
360
102
}
  0
BLOCK_RECORD
  5
367
330
1
100
AcDbSymbolTableRecord
100
AcDbBlockTableRecord
  2
block 89
340
0
102
{BLKREFS
331
368
102
}
  0
BLOCK_RECORD
  5
36F
330
1
100
AcDbSymbolTableRecord
100
AcDbBlockTableRecord
  2
block 90
340
0
102
{BLKREFS
331
370
102
}
  0
BLOCK_RECORD
  5
377
330
1
100
AcDbSymbolTableRecord
100
AcDbBlockTableRecord
  2
block 91
340
0
102
{BLKREFS
331
378
102
}
  0
BLOCK_RECORD
  5
37F
330
1
100
AcDbSymbolTableRecord
100
AcDbBlockTableRecord
  2
block 92
340
0
102
{BLKREFS
331
380
102
}
  0
BLOCK_RECORD
  5
387
330
1
100
AcDbSymbolTableRecord
100
AcDbBlockTableRecord
  2
block 93
340
0
102
{BLKREFS
331
388
102
}
  0
BLOCK_RECORD
  5
38F
330
1
100
AcDbSymbolTableRecord
100
AcDbBlockTableRecord
  2
block 94
340
0
102
{BLKREFS
331
390
102
}
  0
BLOCK_RECORD
  5
397
330
1
100
AcDbSymbolTableRecord
100
AcDbBlockTableRecord
  2
block 95
340
0
102
{BLKREFS
331
398
102
}
  0
BLOCK_RECORD
  5
39F
330
1
100
AcDbSymbolTableRecord
100
AcDbBlockTableRecord
  2
block 96
340
0
102
{BLKREFS
331
3A0
102
}
  0
BLOCK_RECORD
  5
3A7
330
1
100
AcDbSymbolTableRecord
100
AcDbBlockTableRecord
  2
block 97
340
0
102
{BLKREFS
331
3A8
102
}
  0
BLOCK_RECORD
  5
3AF
330
1
100
AcDbSymbolTableRecord
100
AcDbBlockTableRecord
  2
block 98
340
0
102
{BLKREFS
331
3B0
102
}
  0
BLOCK_RECORD
  5
3B7
330
1
100
AcDbSymbolTableRecord
100
AcDbBlockTableRecord
  2
block 99
340
0
102
{BLKREFS
331
3B8
102
}
  0
BLOCK_RECORD
  5
3BF
330
1
100
AcDbSymbolTableRecord
100
AcDbBlockTableRecord
  2
block 100
340
0
102
{BLKREFS
331
3C0
102
}
  0
BLOCK_RECORD
  5
40C
330
1
100
AcDbSymbolTableRecord
100
AcDbBlockTableRecord
  2
block 101
340
0
102
{BLKREFS
331
40D
102
}
  0
BLOCK_RECORD
  5
457
330
1
100
AcDbSymbolTableRecord
100
AcDbBlockTableRecord
  2
block 102
340
0
102
{BLKREFS
331
458
102
}
  0
BLOCK_RECORD
  5
45E
330
1
100
AcDbSymbolTableRecord
100
AcDbBlockTableRecord
  2
block 103
340
0
102
{BLKREFS
331
45F
102
}
  0
BLOCK_RECORD
  5
463
330
1
100
AcDbSymbolTableRecord
100
AcDbBlockTableRecord
  2
block 104
340
0
102
{BLKREFS
331
464
102
}
  0
BLOCK_RECORD
  5
474
330
1
100
AcDbSymbolTableRecord
100
AcDbBlockTableRecord
  2
block 105
340
0
102
{BLKREFS
331
475
102
}
  0
BLOCK_RECORD
  5
479
330
1
100
AcDbSymbolTableRecord
100
AcDbBlockTableRecord
  2
block 106
340
0
102
{BLKREFS
331
47A
102
}
  0
BLOCK_RECORD
  5
4A3
330
1
100
AcDbSymbolTableRecord
100
AcDbBlockTableRecord
  2
block 107
340
0
102
{BLKREFS
331
4A4
102
}
  0
BLOCK_RECORD
  5
4CD
330
1
100
AcDbSymbolTableRecord
100
AcDbBlockTableRecord
  2
block 108
340
0
102
{BLKREFS
331
4CE
102
}
  0
BLOCK_RECORD
  5
4D2
330
1
100
AcDbSymbolTableRecord
100
AcDbBlockTableRecord
  2
block 109
340
0
102
{BLKREFS
331
4D3
102
}
  0
BLOCK_RECORD
  5
4D7
330
1
100
AcDbSymbolTableRecord
100
AcDbBlockTableRecord
  2
block 110
340
0
102
{BLKREFS
331
4D8
102
}
  0
ENDTAB
  0
ENDSEC
  0
SECTION
  2
BLOCKS
  0
BLOCK
  5
20
330
1F
100
AcDbEntity
  8
0
100
AcDbBlockBegin
  2
*Model_Space
 70
     0
 71
     0
 10
0.0
 20
0.0
 30
0.0
  3
*Model_Space
  1

  0
ENDBLK
  5
21
330
1F
100
AcDbEntity
  8
0
100
AcDbBlockEnd
  0
BLOCK
  5
1C
330
1B
100
AcDbEntity
 67
     1
  8
0
100
AcDbBlockBegin
  2
*Paper_Space
 70
     0
 71
     0
 10
0.0
 20
0.0
 30
0.0
  3
*Paper_Space
  1

  0
ENDBLK
  5
1D
330
1B
100
AcDbEntity
 67
     1
  8
0
100
AcDbBlockEnd
  0
BLOCK
  5
24
330
23
100
AcDbEntity
  8
0
100
AcDbBlockBegin
  2
*Paper_Space0
 70
     0
 71
     0
 10
0.0
 20
0.0
 30
0.0
  3
*Paper_Space0
  1

  0
ENDBLK
  5
25
330
23
100
AcDbEntity
  8
0
100
AcDbBlockEnd
  0
BLOCK
  5
3E
330
3C
100
AcDbEntity
  8
0
100
AcDbBlockBegin
  2
block 2
 70
     0
 71
     0
 10
0.0
 20
0.0
 30
0.0
  3
block 2
  1

  0
SPLINE
  5
40
330
3C
100
AcDbEntity
  8
Livello 1
 62
     7
420
 16777215
370
     9
100
AcDbSpline
210
0.0
220
0.0
230
1.0
 70
     8
 71
     3
 72
     8
 73
     4
 74
     0
 42
0.0000000001
 43
0.0000000001
 40
0.0
 40
0.0
 40
0.0
 40
0.0
 40
1.0
 40
1.0
 40
1.0
 40
1.0
 10
182.8456868032469
 20
129.9286756402609
 30
0.0
 10
183.2510022870865
 20
128.3728705191221
 30
0.0
 10
184.6559122259714
 20
127.2859428935257
 30
0.0
 10
186.2652885819059
 20
127.2859428935257
 30
0.0
  0
ENDBLK
  5
3F
330
3C
100
AcDbEntity
  8
0
100
AcDbBlockEnd
  0
BLOCK
  5
43
330
41
100
AcDbEntity
  8
0
100
AcDbBlockBegin
  2
block 3
 70
     0
 71
     0
 10
0.0
 20
0.0
 30
0.0
  3
block 3
  1

  0
SPLINE
  5
45
330
41
100
AcDbEntity
  8
Livello 1
 62
     7
420
 16777215
370
     9
100
AcDbSpline
210
0.0
220
0.0
230
1.0
 70
     8
 71
     3
 72
     8
 73
     4
 74
     0
 42
0.0000000001
 43
0.0000000001
 40
0.0
 40
0.0
 40
0.0
 40
0.0
 40
1.0
 40
1.0
 40
1.0
 40
1.0
 10
182.7557698110819
 20
130.4109890081959
 30
0.0
 10
182.7617987281811
 20
130.3569010090775
 30
0.0
 10
182.7697224477972
 20
130.302123990862
 30
0.0
 10
182.7786796960588
 20
130.2483805012921
 30
0.0
  0
ENDBLK
  5
44
330
41
100
AcDbEntity
  8
0
100
AcDbBlockEnd
  0
BLOCK
  5
48
330
46
100
AcDbEntity
  8
0
100
AcDbBlockBegin
  2
block 4
 70
     0
 71
     0
 10
0.0
 20
0.0
 30
0.0
  3
block 4
  1

  0
SPLINE
  5
4A
330
46
100
AcDbEntity
  8
Livello 1
 62
     7
420
 16777215
370
     9
100
AcDbSpline
210
0.0
220
0.0
230
1.0
 70
     8
 71
     3
 72
    14
 73
    10
 74
     0
 42
0.0000000001
 43
0.0000000001
 40
0.0
 40
0.0
 40
0.0
 40
0.0
 40
1.0
 40
1.0
 40
1.0
 40
2.0
 40
2.0
 40
2.0
 40
3.0
 40
3.0
 40
3.0
 40
3.0
 10
186.2652885819059
 20
127.2859428935257
 30
0.0
 10
188.2152126265573
 20
127.2859428935257
 30
0.0
 10
189.7978894924811
 20
128.8679307403525
 30
0.0
 10
189.7978894924811
 20
130.8188883136494
 30
0.0
 10
189.7978894924811
 20
132.7705349060435
 30
0.0
 10
188.2152126265573
 20
134.3508002051276
 30
0.0
 10
186.2652885819059
 20
134.3508002051276
 30
0.0
 10
184.4717718722848
 20
134.3508002051276
 30
0.0
 10
182.9628200497454
 20
133.0085910040742
 30
0.0
 10
182.7557698110819
 20
131.2278211477486
 30
0.0
  0
ENDBLK
  5
49
330
46
100
AcDbEntity
  8
0
100
AcDbBlockEnd
  0
BLOCK
  5
4D
330
4B
100
AcDbEntity
  8
0
100
AcDbBlockBegin
  2
block 5
 70
     0
 71
     0
 10
0.0
 20
0.0
 30
0.0
  3
block 5
  1

  0
SPLINE
  5
4F
330
4B
100
AcDbEntity
  8
Livello 1
 62
     7
420
 16777215
370
     9
100
AcDbSpline
210
0.0
220
0.0
230
1.0
 70
    11
 71
     3
 72
    17
 73
    13
 74
     0
 42
0.0000000001
 43
0.0000000001
 40
0.0
 40
0.0
 40
0.0
 40
0.0
 40
1.0
 40
1.0
 40
1.0
 40
2.0
 40
2.0
 40
2.0
 40
3.0
 40
3.0
 40
3.0
 40
4.0
 40
4.0
 40
4.0
 40
4.0
 10
175.5854925776314
 20
130.5201985350783
 30
0.0
 10
175.7508571609234
 20
130.5201985350783
 30
0.0
 10
175.8857326491709
 20
130.6535237303574
 30
0.0
 10
175.8857326491709
 20
130.8188883136494
 30
0.0
 10
175.8857326491709
 20
130.985286425587
 30
0.0
 10
175.7508571609234
 20
131.1182671113177
 30
0.0
 10
175.5854925776314
 20
131.1182671113177
 30
0.0
 10
175.4194389752424
 20
131.1182671113177
 30
0.0
 10
175.2854247608662
 20
130.985286425587
 30
0.0
 10
175.2854247608662
 20
130.8188883136494
 30
0.0
 10
175.2854247608662
 20
130.6535237303574
 30
0.0
 10
175.4194389752424
 20
130.5201985350783
 30
0.0
 10
175.5854925776314
 20
130.5201985350783
 30
0.0
  0
ENDBLK
  5
4E
330
4B
100
AcDbEntity
  8
0
100
AcDbBlockEnd
  0
BLOCK
  5
52
330
50
100
AcDbEntity
  8
0
100
AcDbBlockBegin
  2
block 6
 70
     0
 71
     0
 10
0.0
 20
0.0
 30
0.0
  3
block 6
  1

  0
SPLINE
  5
54
330
50
100
AcDbEntity
  8
Livello 1
 62
     7
420
 16777215
370
     9
100
AcDbSpline
210
0.0
220
0.0
230
1.0
 70
    11
 71
     3
 72
    17
 73
    13
 74
     0
 42
0.0000000001
 43
0.0000000001
 40
0.0
 40
0.0
 40
0.0
 40
0.0
 40
1.0
 40
1.0
 40
1.0
 40
2.0
 40
2.0
 40
2.0
 40
3.0
 40
3.0
 40
3.0
 40
4.0
 40
4.0
 40
4.0
 40
4.0
 10
175.5854925776314
 20
131.2560709307276
 30
0.0
 10
175.3445081484382
 20
131.2560709307276
 30
0.0
 10
175.149515743973
 20
131.0603895071655
 30
0.0
 10
175.149515743973
 20
130.8188883136494
 30
0.0
 10
175.149515743973
 20
130.5780761392305
 30
0.0
 10
175.3445081484382
 20
130.3830837347653
 30
0.0
 10
175.5854925776314
 20
130.3830837347653
 30
0.0
 10
175.8259602425018
 20
130.3830837347653
 30
0.0
 10
176.0221584303868
 20
130.5780761392305
 30
0.0
 10
176.0221584303868
 20
130.8188883136494
 30
0.0
 10
176.0221584303868
 20
131.0603895071655
 30
0.0
 10
175.8259602425018
 20
131.2560709307276
 30
0.0
 10
175.5854925776314
 20
131.2560709307276
 30
0.0
  0
ENDBLK
  5
53
330
50
100
AcDbEntity
  8
0
100
AcDbBlockEnd
  0
BLOCK
  5
57
330
55
100
AcDbEntity
  8
0
100
AcDbBlockBegin
  2
block 7
 70
     0
 71
     0
 10
0.0
 20
0.0
 30
0.0
  3
block 7
  1

  0
SPLINE
  5
59
330
55
100
AcDbEntity
  8
Livello 1
 62
     7
420
 16777215
370
     9
100
AcDbSpline
210
0.0
220
0.0
230
1.0
 70
     8
 71
     3
 72
    14
 73
    10
 74
     0
 42
0.0000000001
 43
0.0000000001
 40
0.0
 40
0.0
 40
0.0
 40
0.0
 40
1.0
 40
1.0
 40
1.0
 40
2.0
 40
2.0
 40
2.0
 40
3.0
 40
3.0
 40
3.0
 40
3.0
 10
179.8794595904468
 20
137.9033826695172
 30
0.0
 10
175.9677259217199
 20
137.9033826695172
 30
0.0
 10
172.7966877823217
 20
134.7297607085051
 30
0.0
 10
172.7966877823217
 20
130.8188883136494
 30
0.0
 10
172.7966877823217
 20
126.9066378805997
 30
0.0
 10
175.9677259217199
 20
123.7364610150728
 30
0.0
 10
179.8794595904468
 20
123.7364610150728
 30
0.0
 10
182.4174614344304
 20
123.7364610150728
 30
0.0
 10
184.7611598930458
 20
125.0931396171642
 30
0.0
 10
186.025165426584
 20
127.2952446513359
 30
0.0
  0
ENDBLK
  5
58
330
55
100
AcDbEntity
  8
0
100
AcDbBlockEnd
  0
BLOCK
  5
5C
330
5A
100
AcDbEntity
  8
0
100
AcDbBlockBegin
  2
block 8
 70
     0
 71
     0
 10
0.0
 20
0.0
 30
0.0
  3
block 8
  1

  0
SPLINE
  5
5E
330
5A
100
AcDbEntity
  8
Livello 1
 62
     7
420
 16777215
370
     9
100
AcDbSpline
210
0.0
220
0.0
230
1.0
 70
     8
 71
     3
 72
     8
 73
     4
 74
     0
 42
0.0000000001
 43
0.0000000001
 40
0.0
 40
0.0
 40
0.0
 40
0.0
 40
1.0
 40
1.0
 40
1.0
 40
1.0
 10
186.025165426584
 20
134.3439100141571
 30
0.0
 10
184.7611598930458
 20
136.5436034814891
 30
0.0
 10
182.4174614344304
 20
137.9033826695172
 30
0.0
 10
179.8794595904468
 20
137.9033826695172
 30
0.0
  0
ENDBLK
  5
5D
330
5A
100
AcDbEntity
  8
0
100
AcDbBlockEnd
  0
BLOCK
  5
61
330
5F
100
AcDbEntity
  8
0
100
AcDbBlockBegin
  2
block 9
 70
     0
 71
     0
 10
0.0
 20
0.0
 30
0.0
  3
block 9
  1

  0
SPLINE
  5
63
330
5F
100
AcDbEntity
  8
Livello 1
 62
     7
420
 16777215
370
     9
100
AcDbSpline
210
0.0
220
0.0
230
1.0
 70
    11
 71
     3
 72
    17
 73
    13
 74
     0
 42
0.0000000001
 43
0.0000000001
 40
0.0
 40
0.0
 40
0.0
 40
0.0
 40
1.0
 40
1.0
 40
1.0
 40
2.0
 40
2.0
 40
2.0
 40
3.0
 40
3.0
 40
3.0
 40
4.0
 40
4.0
 40
4.0
 40
4.0
 10
175.5854925776314
 20
130.5260551974032
 30
0.0
 10
175.7489623584065
 20
130.5260551974032
 30
0.0
 10
175.879875986846
 20
130.6573133353912
 30
0.0
 10
175.879875986846
 20
130.8188883136494
 30
0.0
 10
175.879875986846
 20
130.9825303491988
 30
0.0
 10
175.7489623584065
 20
131.1134439776383
 30
0.0
 10
175.5854925776314
 20
131.1134439776383
 30
0.0
 10
175.4227118159534
 20
131.1134439776383
 30
0.0
 10
175.2912814231911
 20
130.9825303491988
 30
0.0
 10
175.2912814231911
 20
130.8188883136494
 30
0.0
 10
175.2912814231911
 20
130.6573133353912
 30
0.0
 10
175.4227118159534
 20
130.5260551974032
 30
0.0
 10
175.5854925776314
 20
130.5260551974032
 30
0.0
  0
ENDBLK
  5
62
330
5F
100
AcDbEntity
  8
0
100
AcDbBlockEnd
  0
BLOCK
  5
66
330
64
100
AcDbEntity
  8
0
100
AcDbBlockBegin
  2
block 10
 70
     0
 71
     0
 10
0.0
 20
0.0
 30
0.0
  3
block 10
  1

  0
SPLINE
  5
68
330
64
100
AcDbEntity
  8
Livello 1
 62
     7
420
 16777215
370
     9
100
AcDbSpline
210
0.0
220
0.0
230
1.0
 70
     8
 71
     3
 72
     8
 73
     4
 74
     0
 42
0.0000000001
 43
0.0000000001
 40
0.0
 40
0.0
 40
0.0
 40
0.0
 40
1.0
 40
1.0
 40
1.0
 40
1.0
 10
182.8477538605381
 20
129.930742697552
 30
0.0
 10
183.2522080705064
 20
128.3745930668647
 30
0.0
 10
184.6579792832626
 20
127.2880099508169
 30
0.0
 10
186.2652885819059
 20
127.2880099508169
 30
0.0
  0
ENDBLK
  5
67
330
64
100
AcDbEntity
  8
0
100
AcDbBlockEnd
  0
BLOCK
  5
6B
330
69
100
AcDbEntity
  8
0
100
AcDbBlockBegin
  2
block 11
 70
     0
 71
     0
 10
0.0
 20
0.0
 30
0.0
  3
block 11
  1

  0
SPLINE
  5
6D
330
69
100
AcDbEntity
  8
Livello 1
 62
     7
420
 16777215
370
     9
100
AcDbSpline
210
0.0
220
0.0
230
1.0
 70
     8
 71
     3
 72
     8
 73
     4
 74
     0
 42
0.0000000001
 43
0.0000000001
 40
0.0
 40
0.0
 40
0.0
 40
0.0
 40
1.0
 40
1.0
 40
1.0
 40
1.0
 10
182.7574923588245
 20
130.4109890081959
 30
0.0
 10
182.763693530698
 20
130.3569010090775
 30
0.0
 10
182.7716172503141
 20
130.302123990862
 30
0.0
 10
182.7797132247044
 20
130.2483805012921
 30
0.0
  0
ENDBLK
  5
6C
330
69
100
AcDbEntity
  8
0
100
AcDbBlockEnd
  0
BLOCK
  5
70
330
6E
100
AcDbEntity
  8
0
100
AcDbBlockBegin
  2
block 12
 70
     0
 71
     0
 10
0.0
 20
0.0
 30
0.0
  3
block 12
  1

  0
SPLINE
  5
72
330
6E
100
AcDbEntity
  8
Livello 1
 62
     7
420
 16777215
370
     9
100
AcDbSpline
210
0.0
220
0.0
230
1.0
 70
     8
 71
     3
 72
    14
 73
    10
 74
     0
 42
0.0000000001
 43
0.0000000001
 40
0.0
 40
0.0
 40
0.0
 40
0.0
 40
1.0
 40
1.0
 40
1.0
 40
2.0
 40
2.0
 40
2.0
 40
3.0
 40
3.0
 40
3.0
 40
3.0
 10
186.2652885819059
 20
127.2880099508169
 30
0.0
 10
188.2152126265573
 20
127.2880099508169
 30
0.0
 10
189.7959946899642
 20
128.8679307403525
 30
0.0
 10
189.7959946899642
 20
130.8188883136494
 30
0.0
 10
189.7959946899642
 20
132.7688123583009
 30
0.0
 10
188.2152126265573
 20
134.3508002051276
 30
0.0
 10
186.2652885819059
 20
134.3508002051276
 30
0.0
 10
184.4717718722848
 20
134.3508002051276
 30
0.0
 10
182.9648871070366
 20
133.0082464945257
 30
0.0
 10
182.7574923588245
 20
131.2278211477486
 30
0.0
  0
ENDBLK
  5
71
330
6E
100
AcDbEntity
  8
0
100
AcDbBlockEnd
  0
BLOCK
  5
75
330
73
100
AcDbEntity
  8
0
100
AcDbBlockBegin
  2
block 13
 70
     0
 71
     0
 10
0.0
 20
0.0
 30
0.0
  3
block 13
  1

  0
SPLINE
  5
77
330
73
100
AcDbEntity
  8
Livello 1
 62
     7
420
 16777215
370
     9
100
AcDbSpline
210
0.0
220
0.0
230
1.0
 70
     8
 71
     3
 72
     8
 73
     4
 74
     0
 42
0.0000000001
 43
0.0000000001
 40
0.0
 40
0.0
 40
0.0
 40
0.0
 40
1.0
 40
1.0
 40
1.0
 40
1.0
 10
186.6494167285113
 20
214.2818385966032
 30
0.0
 10
186.6478664355429
 20
214.2949299594471
 30
0.0
 10
186.6366698752158
 20
214.306643284097
 30
0.0
 10
186.621683709855
 20
214.306643284097
 30
0.0
  0
ENDBLK
  5
76
330
73
100
AcDbEntity
  8
0
100
AcDbBlockEnd
  0
BLOCK
  5
7A
330
78
100
AcDbEntity
  8
0
100
AcDbBlockBegin
  2
block 14
 70
     0
 71
     0
 10
0.0
 20
0.0
 30
0.0
  3
block 14
  1

  0
SPLINE
  5
7C
330
78
100
AcDbEntity
  8
Livello 1
 62
     7
420
 16777215
370
     9
100
AcDbSpline
210
0.0
220
0.0
230
1.0
 70
     8
 71
     3
 72
     8
 73
     4
 74
     0
 42
0.0000000001
 43
0.0000000001
 40
0.0
 40
0.0
 40
0.0
 40
0.0
 40
1.0
 40
1.0
 40
1.0
 40
1.0
 10
185.9080321800855
 20
214.306643284097
 30
0.0
 10
185.8932182694989
 20
214.306643284097
 30
0.0
 10
185.8821939639461
 20
214.2949299594471
 30
0.0
 10
185.8802991614292
 20
214.2818385966032
 30
0.0
  0
ENDBLK
  5
7B
330
78
100
AcDbEntity
  8
0
100
AcDbBlockEnd
  0
BLOCK
  5
7F
330
7D
100
AcDbEntity
  8
0
100
AcDbBlockBegin
  2
block 15
 70
     0
 71
     0
 10
0.0
 20
0.0
 30
0.0
  3
block 15
  1

  0
SPLINE
  5
81
330
7D
100
AcDbEntity
  8
Livello 1
 62
     7
420
 16777215
370
     9
100
AcDbSpline
210
0.0
220
0.0
230
1.0
 70
     8
 71
     3
 72
     8
 73
     4
 74
     0
 42
0.0000000001
 43
0.0000000001
 40
0.0
 40
0.0
 40
0.0
 40
0.0
 40
1.0
 40
1.0
 40
1.0
 40
1.0
 10
186.9729111945762
 20
211.2064018569206
 30
0.0
 10
186.9834187358062
 20
211.0935749797787
 30
0.0
 10
187.0073621494287
 20
210.9829874147022
 30
0.0
 10
187.0419853590555
 20
210.8751559260139
 30
0.0
  0
ENDBLK
  5
80
330
7D
100
AcDbEntity
  8
0
100
AcDbBlockEnd
  0
BLOCK
  5
84
330
82
100
AcDbEntity
  8
0
100
AcDbBlockBegin
  2
block 16
 70
     0
 71
     0
 10
0.0
 20
0.0
 30
0.0
  3
block 16
  1

  0
SPLINE
  5
86
330
82
100
AcDbEntity
  8
Livello 1
 62
     7
420
 16777215
370
     9
100
AcDbSpline
210
0.0
220
0.0
230
1.0
 70
     8
 71
     3
 72
     8
 73
     4
 74
     0
 42
0.0000000001
 43
0.0000000001
 40
0.0
 40
0.0
 40
0.0
 40
0.0
 40
1.0
 40
1.0
 40
1.0
 40
1.0
 10
185.4873860213365
 20
210.8751559260139
 30
0.0
 10
185.5216647214147
 20
210.9829874147022
 30
0.0
 10
185.5457803898115
 20
211.0935749797787
 30
0.0
 10
185.5568046953643
 20
211.2064018569206
 30
0.0
  0
ENDBLK
  5
85
330
82
100
AcDbEntity
  8
0
100
AcDbBlockEnd
  0
BLOCK
  5
89
330
87
100
AcDbEntity
  8
0
100
AcDbBlockBegin
  2
block 17
 70
     0
 71
     0
 10
0.0
 20
0.0
 30
0.0
  3
block 17
  1

  0
SPLINE
  5
8B
330
87
100
AcDbEntity
  8
Livello 1
 62
     7
420
 16777215
370
     9
100
AcDbSpline
210
0.0
220
0.0
230
1.0
 70
     8
 71
     3
 72
     8
 73
     4
 74
     0
 42
0.0000000001
 43
0.0000000001
 40
0.0
 40
0.0
 40
0.0
 40
0.0
 40
1.0
 40
1.0
 40
1.0
 40
1.0
 10
182.7344102190733
 20
202.3552625362167
 30
0.0
 10
182.7306206140396
 20
202.3406208804044
 30
0.0
 10
182.7376830597843
 20
202.3251179507208
 30
0.0
 10
182.7526692251452
 20
202.3201225622672
 30
0.0
  0
ENDBLK
  5
8A
330
87
100
AcDbEntity
  8
0
100
AcDbBlockEnd
  0
BLOCK
  5
8E
330
8C
100
AcDbEntity
  8
0
100
AcDbBlockBegin
  2
block 18
 70
     0
 71
     0
 10
0.0
 20
0.0
 30
0.0
  3
block 18
  1

  0
SPLINE
  5
90
330
8C
100
AcDbEntity
  8
Livello 1
 62
     7
420
 16777215
370
     9
100
AcDbSpline
210
0.0
220
0.0
230
1.0
 70
     8
 71
     3
 72
     8
 73
     4
 74
     0
 42
0.0000000001
 43
0.0000000001
 40
0.0
 40
0.0
 40
0.0
 40
0.0
 40
1.0
 40
1.0
 40
1.0
 40
1.0
 10
189.7699842190506
 20
202.3190890336216
 30
0.0
 10
189.7847981296372
 20
202.3190890336216
 30
0.0
 10
189.7959946899642
 20
202.3314913773685
 30
0.0
 10
189.7959946899642
 20
202.3466497975036
 30
0.0
  0
ENDBLK
  5
8F
330
8C
100
AcDbEntity
  8
0
100
AcDbBlockEnd
  0
BLOCK
  5
93
330
91
100
AcDbEntity
  8
0
100
AcDbBlockBegin
  2
block 19
 70
     0
 71
     0
 10
0.0
 20
0.0
 30
0.0
  3
block 19
  1

  0
POLYLINE
  5
95
330
91
100
AcDbEntity
  8
Livello 1
 62
     7
420
 16777215
370
     9
100
AcDb2dPolyline
 66
     1
 10
0.0
 20
0.0
 30
0.0
  0
VERTEX
  5
96
330
95
100
AcDbEntity
  8
Livello 1
 62
     7
420
 16777215
370
     9
100
AcDbVertex
100
AcDb2dVertex
 10
185.8730644609102
 20
140.4220919787834
 30
0.0
  0
VERTEX
  5
97
330
95
100
AcDbEntity
  8
Livello 1
 62
     7
420
 16777215
370
     9
100
AcDbVertex
100
AcDb2dVertex
 10
185.8449869327054
 20
140.4220919787834
 30
0.0
  0
VERTEX
  5
98
330
95
100
AcDbEntity
  8
Livello 1
 62
     7
420
 16777215
370
     9
100
AcDbVertex
100
AcDb2dVertex
 10
185.7578260169286
 20
140.4220919787834
 30
0.0
  0
VERTEX
  5
99
330
95
100
AcDbEntity
  8
Livello 1
 62
     7
420
 16777215
370
     9
100
AcDbVertex
100
AcDb2dVertex
 10
185.6153713186135
 20
140.4220919787834
 30
0.0
  0
VERTEX
  5
9A
330
95
100
AcDbEntity
  8
Livello 1
 62
     7
420
 16777215
370
     9
100
AcDbVertex
100
AcDb2dVertex
 10
185.4164170543403
 20
140.4220919787834
 30
0.0
  0
VERTEX
  5
9B
330
95
100
AcDbEntity
  8
Livello 1
 62
     7
420
 16777215
370
     9
100
AcDbVertex
100
AcDb2dVertex
 10
185.1645805743686
 20
140.4220919787834
 30
0.0
  0
VERTEX
  5
9C
330
95
100
AcDbEntity
  8
Livello 1
 62
     7
420
 16777215
370
     9
100
AcDbVertex
100
AcDb2dVertex
 10
184.8621011907636
 20
140.4220919787834
 30
0.0
  0
VERTEX
  5
9D
330
95
100
AcDbEntity
  8
Livello 1
 62
     7
420
 16777215
370
     9
100
AcDbVertex
100
AcDb2dVertex
 10
184.5141465467534
 20
140.4220919787834
 30
0.0
  0
VERTEX
  5
9E
330
95
100
AcDbEntity
  8
Livello 1
 62
     7
420
 16777215
370
     9
100
AcDbVertex
100
AcDb2dVertex
 10
184.1172715468526
 20
140.4220919787834
 30
0.0
  0
VERTEX
  5
9F
330
95
100
AcDbEntity
  8
Livello 1
 62
     7
420
 16777215
370
     9
100
AcDbVertex
100
AcDb2dVertex
 10
183.6816392227428
 20
140.4220919787834
 30
0.0
  0
VERTEX
  5
A0
330
95
100
AcDbEntity
  8
Livello 1
 62
     7
420
 16777215
370
     9
100
AcDbVertex
100
AcDb2dVertex
 10
183.208627612618
 20
140.4220919787834
 30
0.0
  0
VERTEX
  5
A1
330
95
100
AcDbEntity
  8
Livello 1
 62
     7
420
 16777215
370
     9
100
AcDbVertex
100
AcDb2dVertex
 10
182.7046101431259
 20
140.4220919787834
 30
0.0
  0
VERTEX
  5
A2
330
95
100
AcDbEntity
  8
Livello 1
 62
     7
420
 16777215
370
     9
100
AcDbVertex
100
AcDb2dVertex
 10
182.1723428906548
 20
140.4220919787834
 30
0.0
  0
VERTEX
  5
A3
330
95
100
AcDbEntity
  8
Livello 1
 62
     7
420
 16777215
370
     9
100
AcDbVertex
100
AcDb2dVertex
 10
181.6188883009495
 20
140.4220919787834
 30
0.0
  0
VERTEX
  5
A4
330
95
100
AcDbEntity
  8
Livello 1
 62
     7
420
 16777215
370
     9
100
AcDbVertex
100
AcDb2dVertex
 10
181.0494140172377
 20
140.4220919787834
 30
0.0
  0
VERTEX
  5
A5
330
95
100
AcDbEntity
  8
Livello 1
 62
     7
420
 16777215
370
     9
100
AcDbVertex
100
AcDb2dVertex
 10
180.4670206254562
 20
140.4220919787834
 30
0.0
  0
VERTEX
  5
A6
330
95
100
AcDbEntity
  8
Livello 1
 62
     7
420
 16777215
370
     9
100
AcDbVertex
100
AcDb2dVertex
 10
179.8794595904468
 20
140.4220919787834
 30
0.0
  0
VERTEX
  5
A7
330
95
100
AcDbEntity
  8
Livello 1
 62
     7
420
 16777215
370
     9
100
AcDbVertex
100
AcDb2dVertex
 10
179.292243064986
 20
140.4220919787834
 30
0.0
  0
VERTEX
  5
A8
330
95
100
AcDbEntity
  8
Livello 1
 62
     7
420
 16777215
370
     9
100
AcDbVertex
100
AcDb2dVertex
 10
178.7096774184302
 20
140.4220919787834
 30
0.0
  0
VERTEX
  5
A9
330
95
100
AcDbEntity
  8
Livello 1
 62
     7
420
 16777215
370
     9
100
AcDbVertex
100
AcDb2dVertex
 10
178.1393418608471
 20
140.4220919787834
 30
0.0
  0
VERTEX
  5
AA
330
95
100
AcDbEntity
  8
Livello 1
 62
     7
420
 16777215
370
     9
100
AcDbVertex
100
AcDb2dVertex
 10
177.586059525916
 20
140.4220919787834
 30
0.0
  0
VERTEX
  5
AB
330
95
100
AcDbEntity
  8
Livello 1
 62
     7
420
 16777215
370
     9
100
AcDbVertex
100
AcDb2dVertex
 10
177.0534477638964
 20
140.4220919787834
 30
0.0
  0
VERTEX
  5
AC
330
95
100
AcDbEntity
  8
Livello 1
 62
     7
420
 16777215
370
     9
100
AcDbVertex
100
AcDb2dVertex
 10
176.5502915682756
 20
140.4220919787834
 30
0.0
  0
VERTEX
  5
AD
330
95
100
AcDbEntity
  8
Livello 1
 62
     7
420
 16777215
370
     9
100
AcDbVertex
100
AcDb2dVertex
 10
176.0777967224736
 20
140.4220919787834
 30
0.0
  0
VERTEX
  5
AE
330
95
100
AcDbEntity
  8
Livello 1
 62
     7
420
 16777215
370
     9
100
AcDbVertex
100
AcDb2dVertex
 10
175.641647634041
 20
140.4220919787834
 30
0.0
  0
VERTEX
  5
AF
330
95
100
AcDbEntity
  8
Livello 1
 62
     7
420
 16777215
370
     9
100
AcDbVertex
100
AcDb2dVertex
 10
175.2463229271086
 20
140.4220919787834
 30
0.0
  0
VERTEX
  5
B0
330
95
100
AcDbEntity
  8
Livello 1
 62
     7
420
 16777215
370
     9
100
AcDbVertex
100
AcDb2dVertex
 10
174.8959567162587
 20
140.4220919787834
 30
0.0
  0
VERTEX
  5
B1
330
95
100
AcDbEntity
  8
Livello 1
 62
     7
420
 16777215
370
     9
100
AcDbVertex
100
AcDb2dVertex
 10
174.5938218422023
 20
140.4220919787834
 30
0.0
  0
VERTEX
  5
B2
330
95
100
AcDbEntity
  8
Livello 1
 62
     7
420
 16777215
370
     9
100
AcDbVertex
100
AcDb2dVertex
 10
174.3421576170047
 20
140.4220919787834
 30
0.0
  0
VERTEX
  5
B3
330
95
100
AcDbEntity
  8
Livello 1
 62
     7
420
 16777215
370
     9
100
AcDbVertex
100
AcDb2dVertex
 10
174.1444091361514
 20
140.4220919787834
 30
0.0
  0
VERTEX
  5
B4
330
95
100
AcDbEntity
  8
Livello 1
 62
     7
420
 16777215
370
     9
100
AcDbVertex
100
AcDb2dVertex
 10
174.0012654187393
 20
140.4220919787834
 30
0.0
  0
VERTEX
  5
B5
330
95
100
AcDbEntity
  8
Livello 1
 62
     7
420
 16777215
370
     9
100
AcDbVertex
100
AcDb2dVertex
 10
173.9153102863823
 20
140.4220919787834
 30
0.0
  0
VERTEX
  5
B6
330
95
100
AcDbEntity
  8
Livello 1
 62
     7
420
 16777215
370
     9
100
AcDbVertex
100
AcDb2dVertex
 10
173.8865437390805
 20
140.4220919787834
 30
0.0
  0
SEQEND
  5
B7
330
95
100
AcDbEntity
  8
Livello 1
370
     9
  0
ENDBLK
  5
94
330
91
100
AcDbEntity
  8
0
100
AcDbBlockEnd
  0
BLOCK
  5
BA
330
B8
100
AcDbEntity
  8
0
100
AcDbBlockBegin
  2
block 20
 70
     0
 71
     0
 10
0.0
 20
0.0
 30
0.0
  3
block 20
  1

  0
POLYLINE
  5
BC
330
B8
100
AcDbEntity
  8
Livello 1
 62
     7
420
 16777215
370
     9
100
AcDb2dPolyline
 66
     1
 10
0.0
 20
0.0
 30
0.0
  0
VERTEX
  5
BD
330
BC
100
AcDbEntity
  8
Livello 1
 62
     7
420
 16777215
370
     9
100
AcDbVertex
100
AcDb2dVertex
 10
176.0195746087729
 20
216.920437228756
 30
0.0
  0
VERTEX
  5
4DC
330
BC
100
AcDbEntity
  8
0
100
AcDbVertex
100
AcDb2dVertex
 10
176.0195746087729
 20
216.920437228756
 30
0.0
  0
SEQEND
  5
BE
330
BC
100
AcDbEntity
  8
Livello 1
370
     9
  0
ENDBLK
  5
BB
330
B8
100
AcDbEntity
  8
0
100
AcDbBlockEnd
  0
BLOCK
  5
C1
330
BF
100
AcDbEntity
  8
0
100
AcDbBlockBegin
  2
block 21
 70
     0
 71
     0
 10
0.0
 20
0.0
 30
0.0
  3
block 21
  1

  0
SPLINE
  5
C3
330
BF
100
AcDbEntity
  8
Livello 1
 62
     7
420
 16777215
370
     9
100
AcDbSpline
210
0.0
220
0.0
230
1.0
 70
     8
 71
     3
 72
    38
 73
    34
 74
     0
 42
0.0000000001
 43
0.0000000001
 40
0.0
 40
0.0
 40
0.0
 40
0.0
 40
1.0
 40
1.0
 40
1.0
 40
2.0
 40
2.0
 40
2.0
 40
3.0
 40
3.0
 40
3.0
 40
4.0
 40
4.0
 40
4.0
 40
5.0
 40
5.0
 40
5.0
 40
6.0
 40
6.0
 40
6.0
 40
7.0
 40
7.0
 40
7.0
 40
8.0
 40
8.0
 40
8.0
 40
9.0
 40
9.0
 40
9.0
 40
10.0
 40
10.0
 40
10.0
 40
11.0
 40
11.0
 40
11.0
 40
11.0
 10
176.0221584303868
 20
215.4810763350186
 30
0.0
 10
176.0178520610303
 20
215.4876220164406
 30
0.0
 10
176.0082057936716
 20
215.5120821943859
 30
0.0
 10
176.0082057936716
 20
215.5120821943859
 30
0.0
 10
176.0082057936716
 20
215.5120821943859
 30
0.0
 10
175.9928751187622
 20
215.554801378403
 30
0.0
 10
175.9928751187622
 20
215.554801378403
 30
0.0
 10
175.9928751187622
 20
215.554801378403
 30
0.0
 10
175.986846201663
 20
215.5808118493166
 30
0.0
 10
175.986846201663
 20
215.5808118493166
 30
0.0
 10
175.986846201663
 20
215.5808118493166
 30
0.0
 10
175.9806450297896
 20
215.6119899634581
 30
0.0
 10
175.9806450297896
 20
215.6119899634581
 30
0.0
 10
175.9806450297896
 20
215.6119899634581
 30
0.0
 10
175.9768554247558
 20
215.6429958228254
 30
0.0
 10
175.9768554247558
 20
215.6429958228254
 30
0.0
 10
175.9768554247558
 20
215.6429958228254
 30
0.0
 10
175.9758218961102
 20
215.6748629560639
 30
0.0
 10
175.9758218961102
 20
215.6748629560639
 30
0.0
 10
175.9758218961102
 20
215.6748629560639
 30
0.0
 10
175.9820230679837
 20
215.7310180124735
 30
0.0
 10
175.9820230679837
 20
215.7310180124735
 30
0.0
 10
175.9820230679837
 20
215.7310180124735
 30
0.0
 10
175.9928751187622
 20
215.7820054256552
 30
0.0
 10
175.9928751187622
 20
215.7820054256552
 30
0.0
 10
175.9928751187622
 20
215.7820054256552
 30
0.0
 10
176.0082057936716
 20
215.8240355905752
 30
0.0
 10
176.0082057936716
 20
215.8240355905752
 30
0.0
 10
176.0082057936716
 20
215.8240355905752
 30
0.0
 10
176.013717946448
 20
215.8400552845817
 30
0.0
 10
176.013717946448
 20
215.8400552845817
 30
0.0
 10
176.013717946448
 20
215.8400552845817
 30
0.0
 10
176.0188855896758
 20
215.8502183162632
 30
0.0
 10
176.0188855896758
 20
215.8502183162632
 30
0.0
  0
ENDBLK
  5
C2
330
BF
100
AcDbEntity
  8
0
100
AcDbBlockEnd
  0
BLOCK
  5
C6
330
C4
100
AcDbEntity
  8
0
100
AcDbBlockBegin
  2
block 22
 70
     0
 71
     0
 10
0.0
 20
0.0
 30
0.0
  3
block 22
  1

  0
POLYLINE
  5
C8
330
C4
100
AcDbEntity
  8
Livello 1
 62
     7
420
 16777215
370
     9
100
AcDb2dPolyline
 66
     1
 10
0.0
 20
0.0
 30
0.0
  0
VERTEX
  5
C9
330
C8
100
AcDbEntity
  8
Livello 1
 62
     7
420
 16777215
370
     9
100
AcDbVertex
100
AcDb2dVertex
 10
175.5854925776314
 20
219.209358669156
 30
0.0
  0
VERTEX
  5
CA
330
C8
100
AcDbEntity
  8
Livello 1
 62
     7
420
 16777215
370
     9
100
AcDbVertex
100
AcDb2dVertex
 10
175.7417276578875
 20
219.209358669156
 30
0.0
  0
VERTEX
  5
CB
330
C8
100
AcDbEntity
  8
Livello 1
 62
     7
420
 16777215
370
     9
100
AcDbVertex
100
AcDb2dVertex
 10
175.8736748149726
 20
219.209358669156
 30
0.0
  0
VERTEX
  5
CC
330
C8
100
AcDbEntity
  8
Livello 1
 62
     7
420
 16777215
370
     9
100
AcDbVertex
100
AcDb2dVertex
 10
175.9627305332663
 20
219.209358669156
 30
0.0
  0
VERTEX
  5
CD
330
C8
100
AcDbEntity
  8
Livello 1
 62
     7
420
 16777215
370
     9
100
AcDbVertex
100
AcDb2dVertex
 10
175.9937363926335
 20
219.209358669156
 30
0.0
  0
SEQEND
  5
CE
330
C8
100
AcDbEntity
  8
Livello 1
370
     9
  0
ENDBLK
  5
C7
330
C4
100
AcDbEntity
  8
0
100
AcDbBlockEnd
  0
BLOCK
  5
D1
330
CF
100
AcDbEntity
  8
0
100
AcDbBlockBegin
  2
block 23
 70
     0
 71
     0
 10
0.0
 20
0.0
 30
0.0
  3
block 23
  1

  0
POLYLINE
  5
D3
330
CF
100
AcDbEntity
  8
Livello 1
 62
     7
420
 16777215
370
     9
100
AcDb2dPolyline
 66
     1
 10
0.0
 20
0.0
 30
0.0
  0
VERTEX
  5
D4
330
D3
100
AcDbEntity
  8
Livello 1
 62
     7
420
 16777215
370
     9
100
AcDbVertex
100
AcDb2dVertex
 10
175.1765597435323
 20
219.209358669156
 30
0.0
  0
VERTEX
  5
D5
330
D3
100
AcDbEntity
  8
Livello 1
 62
     7
420
 16777215
370
     9
100
AcDbVertex
100
AcDb2dVertex
 10
175.2073933481252
 20
219.209358669156
 30
0.0
  0
VERTEX
  5
D6
330
D3
100
AcDbEntity
  8
Livello 1
 62
     7
420
 16777215
370
     9
100
AcDbVertex
100
AcDb2dVertex
 10
175.2974825950645
 20
219.209358669156
 30
0.0
  0
VERTEX
  5
D7
330
D3
100
AcDbEntity
  8
Livello 1
 62
     7
420
 16777215
370
     9
100
AcDbVertex
100
AcDb2dVertex
 10
175.4294297521496
 20
219.209358669156
 30
0.0
  0
VERTEX
  5
D8
330
D3
100
AcDbEntity
  8
Livello 1
 62
     7
420
 16777215
370
     9
100
AcDbVertex
100
AcDb2dVertex
 10
175.5854925776314
 20
219.209358669156
 30
0.0
  0
SEQEND
  5
D9
330
D3
100
AcDbEntity
  8
Livello 1
370
     9
  0
ENDBLK
  5
D2
330
CF
100
AcDbEntity
  8
0
100
AcDbBlockEnd
  0
BLOCK
  5
DC
330
DA
100
AcDbEntity
  8
0
100
AcDbBlockBegin
  2
block 24
 70
     0
 71
     0
 10
0.0
 20
0.0
 30
0.0
  3
block 24
  1

  0
SPLINE
  5
DE
330
DA
100
AcDbEntity
  8
Livello 1
 62
     7
420
 16777215
370
     9
100
AcDbSpline
210
0.0
220
0.0
230
1.0
 70
     8
 71
     3
 72
     8
 73
     4
 74
     0
 42
0.0000000001
 43
0.0000000001
 40
0.0
 40
0.0
 40
0.0
 40
0.0
 40
1.0
 40
1.0
 40
1.0
 40
1.0
 10
176.0361110671021
 20
216.8818521593212
 30
0.0
 10
176.0378336148447
 20
216.8835747070638
 30
0.0
 10
176.0481689013005
 20
216.892876464874
 30
0.0
 10
176.0481689013005
 20
216.892876464874
 30
0.0
  0
ENDBLK
  5
DD
330
DA
100
AcDbEntity
  8
0
100
AcDbBlockEnd
  0
BLOCK
  5
E1
330
DF
100
AcDbEntity
  8
0
100
AcDbBlockBegin
  2
block 25
 70
     0
 71
     0
 10
0.0
 20
0.0
 30
0.0
  3
block 25
  1

  0
POLYLINE
  5
E3
330
DF
100
AcDbEntity
  8
Livello 1
 62
     7
420
 16777215
370
     9
100
AcDb2dPolyline
 66
     1
 10
0.0
 20
0.0
 30
0.0
  0
VERTEX
  5
E4
330
E3
100
AcDbEntity
  8
Livello 1
 62
     7
420
 16777215
370
     9
100
AcDbVertex
100
AcDb2dVertex
 10
186.2652885819059
 20
216.8453341471776
 30
0.0
  0
VERTEX
  5
E5
330
E3
100
AcDbEntity
  8
Livello 1
 62
     7
420
 16777215
370
     9
100
AcDbVertex
100
AcDb2dVertex
 10
186.2137844044014
 20
216.8498127713084
 30
0.0
  0
VERTEX
  5
E6
330
E3
100
AcDbEntity
  8
Livello 1
 62
     7
420
 16777215
370
     9
100
AcDbVertex
100
AcDb2dVertex
 10
186.162969245994
 20
216.8601480577641
 30
0.0
  0
VERTEX
  5
E7
330
E3
100
AcDbEntity
  8
Livello 1
 62
     7
420
 16777215
370
     9
100
AcDbVertex
100
AcDb2dVertex
 10
186.1181830046857
 20
216.8763400065448
 30
0.0
  0
VERTEX
  5
E8
330
E3
100
AcDbEntity
  8
Livello 1
 62
     7
420
 16777215
370
     9
100
AcDbVertex
100
AcDb2dVertex
 10
186.0987182151941
 20
216.8835747070638
 30
0.0
  0
VERTEX
  5
E9
330
E3
100
AcDbEntity
  8
Livello 1
 62
     7
420
 16777215
370
     9
100
AcDbVertex
100
AcDb2dVertex
 10
186.0857991071244
 20
216.8892591146145
 30
0.0
  0
VERTEX
  5
EA
330
E3
100
AcDbEntity
  8
Livello 1
 62
     7
420
 16777215
370
     9
100
AcDbVertex
100
AcDb2dVertex
 10
186.0771863684113
 20
216.8939099935196
 30
0.0
  0
SEQEND
  5
EB
330
E3
100
AcDbEntity
  8
Livello 1
370
     9
  0
ENDBLK
  5
E2
330
DF
100
AcDbEntity
  8
0
100
AcDbBlockEnd
  0
BLOCK
  5
EE
330
EC
100
AcDbEntity
  8
0
100
AcDbBlockBegin
  2
block 26
 70
     0
 71
     0
 10
0.0
 20
0.0
 30
0.0
  3
block 26
  1

  0
SPLINE
  5
F0
330
EC
100
AcDbEntity
  8
Livello 1
 62
     7
420
 16777215
370
     9
100
AcDbSpline
210
0.0
220
0.0
230
1.0
 70
     8
 71
     3
 72
    23
 73
    19
 74
     0
 42
0.0000000001
 43
0.0000000001
 40
0.0
 40
0.0
 40
0.0
 40
0.0
 40
1.0
 40
1.0
 40
1.0
 40
2.0
 40
2.0
 40
2.0
 40
3.0
 40
3.0
 40
3.0
 40
4.0
 40
4.0
 40
4.0
 40
5.0
 40
5.0
 40
5.0
 40
6.0
 40
6.0
 40
6.0
 40
6.0
 10
186.4499456999153
 20
216.892876464874
 30
0.0
 10
186.4492566808183
 20
216.8925319553255
 30
0.0
 10
186.4284138531325
 20
216.8827134331925
 30
0.0
 10
186.4284138531325
 20
216.8827134331925
 30
0.0
 10
186.4284138531325
 20
216.8827134331925
 30
0.0
 10
186.390001038472
 20
216.8678995226059
 30
0.0
 10
186.390001038472
 20
216.8678995226059
 30
0.0
 10
186.390001038472
 20
216.8678995226059
 30
0.0
 10
186.3641628223326
 20
216.8601480577641
 30
0.0
 10
186.3641628223326
 20
216.8601480577641
 30
0.0
 10
186.3641628223326
 20
216.8601480577641
 30
0.0
 10
186.3341904916109
 20
216.8527411024708
 30
0.0
 10
186.3341904916109
 20
216.8527411024708
 30
0.0
 10
186.3341904916109
 20
216.8527411024708
 30
0.0
 10
186.2801024924925
 20
216.8461954210489
 30
0.0
 10
186.2801024924925
 20
216.8461954210489
 30
0.0
 10
186.2725232824249
 20
216.8461954210489
 30
0.0
 10
186.2652885819059
 20
216.8453341471776
 30
0.0
 10
186.2652885819059
 20
216.8453341471776
 30
0.0
  0
ENDBLK
  5
EF
330
EC
100
AcDbEntity
  8
0
100
AcDbBlockEnd
  0
BLOCK
  5
F3
330
F1
100
AcDbEntity
  8
0
100
AcDbBlockBegin
  2
block 27
 70
     0
 71
     0
 10
0.0
 20
0.0
 30
0.0
  3
block 27
  1

  0
SPLINE
  5
F5
330
F1
100
AcDbEntity
  8
Livello 1
 62
     7
420
 16777215
370
     9
100
AcDbSpline
210
0.0
220
0.0
230
1.0
 70
     8
 71
     3
 72
    32
 73
    28
 74
     0
 42
0.0000000001
 43
0.0000000001
 40
0.0
 40
0.0
 40
0.0
 40
0.0
 40
1.0
 40
1.0
 40
1.0
 40
2.0
 40
2.0
 40
2.0
 40
3.0
 40
3.0
 40
3.0
 40
4.0
 40
4.0
 40
4.0
 40
5.0
 40
5.0
 40
5.0
 40
6.0
 40
6.0
 40
6.0
 40
7.0
 40
7.0
 40
7.0
 40
8.0
 40
8.0
 40
8.0
 40
9.0
 40
9.0
 40
9.0
 40
9.0
 10
186.0771863684113
 20
216.0770778539668
 30
0.0
 10
186.0790811709282
 20
216.0770778539668
 30
0.0
 10
186.0961343935801
 20
216.0858628474543
 30
0.0
 10
186.0961343935801
 20
216.0858628474543
 30
0.0
 10
186.0961343935801
 20
216.0858628474543
 30
0.0
 10
186.1298963293356
 20
216.100159993718
 30
0.0
 10
186.1298963293356
 20
216.100159993718
 30
0.0
 10
186.1298963293356
 20
216.100159993718
 30
0.0
 10
186.1819172711629
 20
216.1149739043046
 30
0.0
 10
186.1819172711629
 20
216.1149739043046
 30
0.0
 10
186.1819172711629
 20
216.1149739043046
 30
0.0
 10
186.2444457542202
 20
216.1242756621148
 30
0.0
 10
186.2444457542202
 20
216.1242756621148
 30
0.0
 10
186.2444457542202
 20
216.1242756621148
 30
0.0
 10
186.3042181608892
 20
216.1232421334692
 30
0.0
 10
186.3042181608892
 20
216.1232421334692
 30
0.0
 10
186.3042181608892
 20
216.1232421334692
 30
0.0
 10
186.3550333192967
 20
216.113251356562
 30
0.0
 10
186.3550333192967
 20
216.113251356562
 30
0.0
 10
186.3550333192967
 20
216.113251356562
 30
0.0
 10
186.4025756369931
 20
216.0992987198467
 30
0.0
 10
186.4025756369931
 20
216.0992987198467
 30
0.0
 10
186.4025756369931
 20
216.0992987198467
 30
0.0
 10
186.4368543370713
 20
216.0843125544859
 30
0.0
 10
186.4368543370713
 20
216.0843125544859
 30
0.0
 10
186.4368543370713
 20
216.0843125544859
 30
0.0
 10
186.4473618783014
 20
216.0794894208065
 30
0.0
 10
186.4473618783014
 20
216.0794894208065
 30
0.0
  0
ENDBLK
  5
F4
330
F1
100
AcDbEntity
  8
0
100
AcDbBlockEnd
  0
BLOCK
  5
F8
330
F6
100
AcDbEntity
  8
0
100
AcDbBlockBegin
  2
block 28
 70
     0
 71
     0
 10
0.0
 20
0.0
 30
0.0
  3
block 28
  1

  0
POLYLINE
  5
FA
330
F6
100
AcDbEntity
  8
Livello 1
 62
     7
420
 16777215
370
     9
100
AcDb2dPolyline
 66
     1
 10
0.0
 20
0.0
 30
0.0
  0
VERTEX
  5
FB
330
FA
100
AcDbEntity
  8
Livello 1
 62
     7
420
 16777215
370
     9
100
AcDbVertex
100
AcDb2dVertex
 10
186.8096136685754
 20
216.8666937391861
 30
0.0
  0
VERTEX
  5
FC
330
FA
100
AcDbEntity
  8
Livello 1
 62
     7
420
 16777215
370
     9
100
AcDbVertex
100
AcDb2dVertex
 10
186.8096136685754
 20
216.83775493711
 30
0.0
  0
VERTEX
  5
FD
330
FA
100
AcDbEntity
  8
Livello 1
 62
     7
420
 16777215
370
     9
100
AcDbVertex
100
AcDb2dVertex
 10
186.8096136685754
 20
216.7552449002383
 30
0.0
  0
VERTEX
  5
FE
330
FA
100
AcDbEntity
  8
Livello 1
 62
     7
420
 16777215
370
     9
100
AcDbVertex
100
AcDb2dVertex
 10
186.8096136685754
 20
216.631049207995
 30
0.0
  0
VERTEX
  5
FF
330
FA
100
AcDbEntity
  8
Livello 1
 62
     7
420
 16777215
370
     9
100
AcDbVertex
100
AcDb2dVertex
 10
186.8096136685754
 20
216.4856661785175
 30
0.0
  0
VERTEX
  5
100
330
FA
100
AcDbEntity
  8
Livello 1
 62
     7
420
 16777215
370
     9
100
AcDbVertex
100
AcDb2dVertex
 10
186.8096136685754
 20
216.3395941299429
 30
0.0
  0
VERTEX
  5
101
330
FA
100
AcDbEntity
  8
Livello 1
 62
     7
420
 16777215
370
     9
100
AcDbVertex
100
AcDb2dVertex
 10
186.8096136685754
 20
216.2153984376996
 30
0.0
  0
VERTEX
  5
102
330
FA
100
AcDbEntity
  8
Livello 1
 62
     7
420
 16777215
370
     9
100
AcDbVertex
100
AcDb2dVertex
 10
186.8096136685754
 20
216.1328884008279
 30
0.0
  0
VERTEX
  5
103
330
FA
100
AcDbEntity
  8
Livello 1
 62
     7
420
 16777215
370
     9
100
AcDbVertex
100
AcDb2dVertex
 10
186.8096136685754
 20
216.1037773439775
 30
0.0
  0
SEQEND
  5
104
330
FA
100
AcDbEntity
  8
Livello 1
370
     9
  0
ENDBLK
  5
F9
330
F6
100
AcDbEntity
  8
0
100
AcDbBlockEnd
  0
BLOCK
  5
107
330
105
100
AcDbEntity
  8
0
100
AcDbBlockBegin
  2
block 29
 70
     0
 71
     0
 10
0.0
 20
0.0
 30
0.0
  3
block 29
  1

  0
POLYLINE
  5
109
330
105
100
AcDbEntity
  8
Livello 1
 62
     7
420
 16777215
370
     9
100
AcDb2dPolyline
 66
     1
 10
0.0
 20
0.0
 30
0.0
  0
VERTEX
  5
10A
330
109
100
AcDbEntity
  8
Livello 1
 62
     7
420
 16777215
370
     9
100
AcDbVertex
100
AcDb2dVertex
 10
189.4575140585384
 20
203.4091172451547
 30
0.0
  0
VERTEX
  5
10B
330
109
100
AcDbEntity
  8
Livello 1
 62
     7
420
 16777215
370
     9
100
AcDbVertex
100
AcDb2dVertex
 10
189.4289197660108
 20
203.4091172451547
 30
0.0
  0
VERTEX
  5
10C
330
109
100
AcDbEntity
  8
Livello 1
 62
     7
420
 16777215
370
     9
100
AcDbVertex
100
AcDb2dVertex
 10
189.3489935507531
 20
203.4091172451547
 30
0.0
  0
VERTEX
  5
10D
330
109
100
AcDbEntity
  8
Livello 1
 62
     7
420
 16777215
370
     9
100
AcDbVertex
100
AcDb2dVertex
 10
189.2130845338599
 20
203.4091172451547
 30
0.0
  0
VERTEX
  5
10E
330
109
100
AcDbEntity
  8
Livello 1
 62
     7
420
 16777215
370
     9
100
AcDbVertex
100
AcDb2dVertex
 10
189.0301499635932
 20
203.4091172451547
 30
0.0
  0
VERTEX
  5
10F
330
109
100
AcDbEntity
  8
Livello 1
 62
     7
420
 16777215
370
     9
100
AcDbVertex
100
AcDb2dVertex
 10
188.7967447444675
 20
203.4091172451547
 30
0.0
  0
VERTEX
  5
110
330
109
100
AcDbEntity
  8
Livello 1
 62
     7
420
 16777215
370
     9
100
AcDbVertex
100
AcDb2dVertex
 10
188.5230319081644
 20
203.4091172451547
 30
0.0
  0
VERTEX
  5
111
330
109
100
AcDbEntity
  8
Livello 1
 62
     7
420
 16777215
370
     9
100
AcDbVertex
100
AcDb2dVertex
 10
188.2074611617155
 20
203.4091172451547
 30
0.0
  0
VERTEX
  5
112
330
109
100
AcDbEntity
  8
Livello 1
 62
     7
420
 16777215
370
     9
100
AcDbVertex
100
AcDb2dVertex
 10
187.8600232820281
 20
203.4091172451547
 30
0.0
  0
VERTEX
  5
113
330
109
100
AcDbEntity
  8
Livello 1
 62
     7
420
 16777215
370
     9
100
AcDbVertex
100
AcDb2dVertex
 10
187.4867471862012
 20
203.4091172451547
 30
0.0
  0
VERTEX
  5
114
330
109
100
AcDbEntity
  8
Livello 1
 62
     7
420
 16777215
370
     9
100
AcDbVertex
100
AcDb2dVertex
 10
187.0905612053975
 20
203.4091172451547
 30
0.0
  0
VERTEX
  5
115
330
109
100
AcDbEntity
  8
Livello 1
 62
     7
420
 16777215
370
     9
100
AcDbVertex
100
AcDb2dVertex
 10
186.6814561165241
 20
203.4091172451547
 30
0.0
  0
VERTEX
  5
116
330
109
100
AcDbEntity
  8
Livello 1
 62
     7
420
 16777215
370
     9
100
AcDbVertex
100
AcDb2dVertex
 10
186.2652885819059
 20
203.4091172451547
 30
0.0
  0
VERTEX
  5
117
330
109
100
AcDbEntity
  8
Livello 1
 62
     7
420
 16777215
370
     9
100
AcDbVertex
100
AcDb2dVertex
 10
185.8475707543194
 20
203.4091172451547
 30
0.0
  0
VERTEX
  5
118
330
109
100
AcDbEntity
  8
Livello 1
 62
     7
420
 16777215
370
     9
100
AcDbVertex
100
AcDb2dVertex
 10
185.438465665446
 20
203.4091172451547
 30
0.0
  0
VERTEX
  5
119
330
109
100
AcDbEntity
  8
Livello 1
 62
     7
420
 16777215
370
     9
100
AcDbVertex
100
AcDb2dVertex
 10
185.0422796846422
 20
203.4091172451547
 30
0.0
  0
VERTEX
  5
11A
330
109
100
AcDbEntity
  8
Livello 1
 62
     7
420
 16777215
370
     9
100
AcDbVertex
100
AcDb2dVertex
 10
184.6690035888154
 20
203.4091172451547
 30
0.0
  0
VERTEX
  5
11B
330
109
100
AcDbEntity
  8
Livello 1
 62
     7
420
 16777215
370
     9
100
AcDbVertex
100
AcDb2dVertex
 10
184.321565709128
 20
203.4091172451547
 30
0.0
  0
VERTEX
  5
11C
330
109
100
AcDbEntity
  8
Livello 1
 62
     7
420
 16777215
370
     9
100
AcDbVertex
100
AcDb2dVertex
 10
184.0066839817761
 20
203.4091172451547
 30
0.0
  0
VERTEX
  5
11D
330
109
100
AcDbEntity
  8
Livello 1
 62
     7
420
 16777215
370
     9
100
AcDbVertex
100
AcDb2dVertex
 10
183.732282126376
 20
203.4091172451547
 30
0.0
  0
VERTEX
  5
11E
330
109
100
AcDbEntity
  8
Livello 1
 62
     7
420
 16777215
370
     9
100
AcDbVertex
100
AcDb2dVertex
 10
183.5000826906701
 20
203.4091172451547
 30
0.0
  0
VERTEX
  5
11F
330
109
100
AcDbEntity
  8
Livello 1
 62
     7
420
 16777215
370
     9
100
AcDbVertex
100
AcDb2dVertex
 10
183.3161145917578
 20
203.4091172451547
 30
0.0
  0
VERTEX
  5
120
330
109
100
AcDbEntity
  8
Livello 1
 62
     7
420
 16777215
370
     9
100
AcDbVertex
100
AcDb2dVertex
 10
183.1808945939617
 20
203.4091172451547
 30
0.0
  0
VERTEX
  5
121
330
109
100
AcDbEntity
  8
Livello 1
 62
     7
420
 16777215
370
     9
100
AcDbVertex
100
AcDb2dVertex
 10
183.0716850670793
 20
203.4091172451547
 30
0.0
  0
SEQEND
  5
122
330
109
100
AcDbEntity
  8
Livello 1
370
     9
  0
ENDBLK
  5
108
330
105
100
AcDbEntity
  8
0
100
AcDbBlockEnd
  0
BLOCK
  5
125
330
123
100
AcDbEntity
  8
0
100
AcDbBlockBegin
  2
block 30
 70
     0
 71
     0
 10
0.0
 20
0.0
 30
0.0
  3
block 30
  1

  0
POLYLINE
  5
127
330
123
100
AcDbEntity
  8
Livello 1
 62
     7
420
 16777215
370
     9
100
AcDb2dPolyline
 66
     1
 10
0.0
 20
0.0
 30
0.0
  0
VERTEX
  5
128
330
127
100
AcDbEntity
  8
Livello 1
 62
     7
420
 16777215
370
     9
100
AcDbVertex
100
AcDb2dVertex
 10
189.7699842190506
 20
202.3190890336216
 30
0.0
  0
VERTEX
  5
129
330
127
100
AcDbEntity
  8
Livello 1
 62
     7
420
 16777215
370
     9
100
AcDbVertex
100
AcDb2dVertex
 10
189.7393228692318
 20
202.3190890336216
 30
0.0
  0
VERTEX
  5
12A
330
127
100
AcDbEntity
  8
Livello 1
 62
     7
420
 16777215
370
     9
100
AcDbVertex
100
AcDb2dVertex
 10
189.6495781318411
 20
202.3190890336216
 30
0.0
  0
VERTEX
  5
12B
330
127
100
AcDbEntity
  8
Livello 1
 62
     7
420
 16777215
370
     9
100
AcDbVertex
100
AcDb2dVertex
 10
189.5026448093952
 20
202.3190890336216
 30
0.0
  0
VERTEX
  5
12C
330
127
100
AcDbEntity
  8
Livello 1
 62
     7
420
 16777215
370
     9
100
AcDbVertex
100
AcDb2dVertex
 10
189.3002454496367
 20
202.3190890336216
 30
0.0
  0
VERTEX
  5
12D
330
127
100
AcDbEntity
  8
Livello 1
 62
     7
420
 16777215
370
     9
100
AcDbVertex
100
AcDb2dVertex
 10
189.0454806385025
 20
202.3190890336216
 30
0.0
  0
VERTEX
  5
12E
330
127
100
AcDbEntity
  8
Livello 1
 62
     7
420
 16777215
370
     9
100
AcDbVertex
100
AcDb2dVertex
 10
188.7426567453491
 20
202.3190890336216
 30
0.0
  0
VERTEX
  5
12F
330
127
100
AcDbEntity
  8
Livello 1
 62
     7
420
 16777215
370
     9
100
AcDbVertex
100
AcDb2dVertex
 10
188.39676915863
 20
202.3190890336216
 30
0.0
  0
VERTEX
  5
130
330
127
100
AcDbEntity
  8
Livello 1
 62
     7
420
 16777215
370
     9
100
AcDbVertex
100
AcDb2dVertex
 10
188.0162583622841
 20
202.3190890336216
 30
0.0
  0
VERTEX
  5
131
330
127
100
AcDbEntity
  8
Livello 1
 62
     7
420
 16777215
370
     9
100
AcDbVertex
100
AcDb2dVertex
 10
187.6050862161196
 20
202.3190890336216
 30
0.0
  0
VERTEX
  5
132
330
127
100
AcDbEntity
  8
Livello 1
 62
     7
420
 16777215
370
     9
100
AcDbVertex
100
AcDb2dVertex
 10
187.1718654588494
 20
202.3190890336216
 30
0.0
  0
VERTEX
  5
133
330
127
100
AcDbEntity
  8
Livello 1
 62
     7
420
 16777215
370
     9
100
AcDbVertex
100
AcDb2dVertex
 10
186.7226250075728
 20
202.3190890336216
 30
0.0
  0
VERTEX
  5
134
330
127
100
AcDbEntity
  8
Livello 1
 62
     7
420
 16777215
370
     9
100
AcDbVertex
100
AcDb2dVertex
 10
186.2652885819059
 20
202.3190890336216
 30
0.0
  0
VERTEX
  5
135
330
127
100
AcDbEntity
  8
Livello 1
 62
     7
420
 16777215
370
     9
100
AcDbVertex
100
AcDb2dVertex
 10
185.8067463728192
 20
202.3190890336216
 30
0.0
  0
VERTEX
  5
136
330
127
100
AcDbEntity
  8
Livello 1
 62
     7
420
 16777215
370
     9
100
AcDbVertex
100
AcDb2dVertex
 10
185.3583671954139
 20
202.3190890336216
 30
0.0
  0
VERTEX
  5
137
330
127
100
AcDbEntity
  8
Livello 1
 62
     7
420
 16777215
370
     9
100
AcDbVertex
100
AcDb2dVertex
 10
184.9239406547239
 20
202.3190890336216
 30
0.0
  0
VERTEX
  5
138
330
127
100
AcDbEntity
  8
Livello 1
 62
     7
420
 16777215
370
     9
100
AcDbVertex
100
AcDb2dVertex
 10
184.5141465467534
 20
202.3190890336216
 30
0.0
  0
VERTEX
  5
139
330
127
100
AcDbEntity
  8
Livello 1
 62
     7
420
 16777215
370
     9
100
AcDbVertex
100
AcDb2dVertex
 10
184.1324299669877
 20
202.3190890336216
 30
0.0
  0
VERTEX
  5
13A
330
127
100
AcDbEntity
  8
Livello 1
 62
     7
420
 16777215
370
     9
100
AcDbVertex
100
AcDb2dVertex
 10
183.7877481636885
 20
202.3190890336216
 30
0.0
  0
VERTEX
  5
13B
330
127
100
AcDbEntity
  8
Livello 1
 62
     7
420
 16777215
370
     9
100
AcDbVertex
100
AcDb2dVertex
 10
183.4850965253093
 20
202.3190890336216
 30
0.0
  0
VERTEX
  5
13C
330
127
100
AcDbEntity
  8
Livello 1
 62
     7
420
 16777215
370
     9
100
AcDbVertex
100
AcDb2dVertex
 10
183.2301594594008
 20
202.3190890336216
 30
0.0
  0
VERTEX
  5
13D
330
127
100
AcDbEntity
  8
Livello 1
 62
     7
420
 16777215
370
     9
100
AcDbVertex
100
AcDb2dVertex
 10
183.0279323544166
 20
202.3190890336216
 30
0.0
  0
VERTEX
  5
13E
330
127
100
AcDbEntity
  8
Livello 1
 62
     7
420
 16777215
370
     9
100
AcDbVertex
100
AcDb2dVertex
 10
182.8808267771965
 20
202.3190890336216
 30
0.0
  0
VERTEX
  5
13F
330
127
100
AcDbEntity
  8
Livello 1
 62
     7
420
 16777215
370
     9
100
AcDbVertex
100
AcDb2dVertex
 10
182.7907375302572
 20
202.3190890336216
 30
0.0
  0
VERTEX
  5
140
330
127
100
AcDbEntity
  8
Livello 1
 62
     7
420
 16777215
370
     9
100
AcDbVertex
100
AcDb2dVertex
 10
182.7605929447612
 20
202.3190890336216
 30
0.0
  0
SEQEND
  5
141
330
127
100
AcDbEntity
  8
Livello 1
370
     9
  0
ENDBLK
  5
126
330
123
100
AcDbEntity
  8
0
100
AcDbBlockEnd
  0
BLOCK
  5
144
330
142
100
AcDbEntity
  8
0
100
AcDbBlockBegin
  2
block 31
 70
     0
 71
     0
 10
0.0
 20
0.0
 30
0.0
  3
block 31
  1

  0
POLYLINE
  5
146
330
142
100
AcDbEntity
  8
Livello 1
 62
     7
420
 16777215
370
     9
100
AcDb2dPolyline
 66
     1
 10
0.0
 20
0.0
 30
0.0
  0
VERTEX
  5
147
330
146
100
AcDbEntity
  8
Livello 1
 62
     7
420
 16777215
370
     9
100
AcDbVertex
100
AcDb2dVertex
 10
186.2652885819059
 20
214.306643284097
 30
0.0
  0
VERTEX
  5
148
330
146
100
AcDbEntity
  8
Livello 1
 62
     7
420
 16777215
370
     9
100
AcDbVertex
100
AcDb2dVertex
 10
186.4434000184933
 20
214.306643284097
 30
0.0
  0
VERTEX
  5
149
330
146
100
AcDbEntity
  8
Livello 1
 62
     7
420
 16777215
370
     9
100
AcDbVertex
100
AcDb2dVertex
 10
186.5739691373843
 20
214.306643284097
 30
0.0
  0
VERTEX
  5
14A
330
146
100
AcDbEntity
  8
Livello 1
 62
     7
420
 16777215
370
     9
100
AcDbVertex
100
AcDb2dVertex
 10
186.621683709855
 20
214.306643284097
 30
0.0
  0
SEQEND
  5
14B
330
146
100
AcDbEntity
  8
Livello 1
370
     9
  0
ENDBLK
  5
145
330
142
100
AcDbEntity
  8
0
100
AcDbBlockEnd
  0
BLOCK
  5
14E
330
14C
100
AcDbEntity
  8
0
100
AcDbBlockBegin
  2
block 32
 70
     0
 71
     0
 10
0.0
 20
0.0
 30
0.0
  3
block 32
  1

  0
POLYLINE
  5
150
330
14C
100
AcDbEntity
  8
Livello 1
 62
     7
420
 16777215
370
     9
100
AcDb2dPolyline
 66
     1
 10
0.0
 20
0.0
 30
0.0
  0
VERTEX
  5
151
330
150
100
AcDbEntity
  8
Livello 1
 62
     7
420
 16777215
370
     9
100
AcDbVertex
100
AcDb2dVertex
 10
185.9080321800855
 20
214.306643284097
 30
0.0
  0
VERTEX
  5
152
330
150
100
AcDbEntity
  8
Livello 1
 62
     7
420
 16777215
370
     9
100
AcDbVertex
100
AcDb2dVertex
 10
185.9550577334592
 20
214.306643284097
 30
0.0
  0
VERTEX
  5
153
330
150
100
AcDbEntity
  8
Livello 1
 62
     7
420
 16777215
370
     9
100
AcDbVertex
100
AcDb2dVertex
 10
186.0857991071244
 20
214.306643284097
 30
0.0
  0
VERTEX
  5
154
330
150
100
AcDbEntity
  8
Livello 1
 62
     7
420
 16777215
370
     9
100
AcDbVertex
100
AcDb2dVertex
 10
186.2652885819059
 20
214.306643284097
 30
0.0
  0
SEQEND
  5
155
330
150
100
AcDbEntity
  8
Livello 1
370
     9
  0
ENDBLK
  5
14F
330
14C
100
AcDbEntity
  8
0
100
AcDbBlockEnd
  0
BLOCK
  5
158
330
156
100
AcDbEntity
  8
0
100
AcDbBlockBegin
  2
block 33
 70
     0
 71
     0
 10
0.0
 20
0.0
 30
0.0
  3
block 33
  1

  0
POLYLINE
  5
15A
330
156
100
AcDbEntity
  8
Livello 1
 62
     7
420
 16777215
370
     9
100
AcDb2dPolyline
 66
     1
 10
0.0
 20
0.0
 30
0.0
  0
VERTEX
  5
15B
330
15A
100
AcDbEntity
  8
Livello 1
 62
     7
420
 16777215
370
     9
100
AcDbVertex
100
AcDb2dVertex
 10
175.7425889317588
 20
130.4109890081959
 30
0.0
  0
VERTEX
  5
15C
330
15A
100
AcDbEntity
  8
Livello 1
 62
     7
420
 16777215
370
     9
100
AcDbVertex
100
AcDb2dVertex
 10
183.5650227405671
 20
130.4109890081959
 30
0.0
  0
SEQEND
  5
15D
330
15A
100
AcDbEntity
  8
Livello 1
370
     9
  0
ENDBLK
  5
159
330
156
100
AcDbEntity
  8
0
100
AcDbBlockEnd
  0
BLOCK
  5
160
330
15E
100
AcDbEntity
  8
0
100
AcDbBlockBegin
  2
block 34
 70
     0
 71
     0
 10
0.0
 20
0.0
 30
0.0
  3
block 34
  1

  0
POLYLINE
  5
162
330
15E
100
AcDbEntity
  8
Livello 1
 62
     7
420
 16777215
370
     9
100
AcDb2dPolyline
 66
     1
 10
0.0
 20
0.0
 30
0.0
  0
VERTEX
  5
163
330
162
100
AcDbEntity
  8
Livello 1
 62
     7
420
 16777215
370
     9
100
AcDbVertex
100
AcDb2dVertex
 10
184.5940727620112
 20
130.4109890081959
 30
0.0
  0
VERTEX
  5
164
330
162
100
AcDbEntity
  8
Livello 1
 62
     7
420
 16777215
370
     9
100
AcDbVertex
100
AcDb2dVertex
 10
186.7823974142419
 20
130.4109890081959
 30
0.0
  0
SEQEND
  5
165
330
162
100
AcDbEntity
  8
Livello 1
370
     9
  0
ENDBLK
  5
161
330
15E
100
AcDbEntity
  8
0
100
AcDbBlockEnd
  0
BLOCK
  5
168
330
166
100
AcDbEntity
  8
0
100
AcDbBlockBegin
  2
block 35
 70
     0
 71
     0
 10
0.0
 20
0.0
 30
0.0
  3
block 35
  1

  0
POLYLINE
  5
16A
330
166
100
AcDbEntity
  8
Livello 1
 62
     7
420
 16777215
370
     9
100
AcDb2dPolyline
 66
     1
 10
0.0
 20
0.0
 30
0.0
  0
VERTEX
  5
16B
330
16A
100
AcDbEntity
  8
Livello 1
 62
     7
420
 16777215
370
     9
100
AcDbVertex
100
AcDb2dVertex
 10
186.7823974142419
 20
131.2278211477486
 30
0.0
  0
VERTEX
  5
16C
330
16A
100
AcDbEntity
  8
Livello 1
 62
     7
420
 16777215
370
     9
100
AcDbVertex
100
AcDb2dVertex
 10
175.7436224604044
 20
131.2278211477486
 30
0.0
  0
SEQEND
  5
16D
330
16A
100
AcDbEntity
  8
Livello 1
370
     9
  0
ENDBLK
  5
169
330
166
100
AcDbEntity
  8
0
100
AcDbBlockEnd
  0
BLOCK
  5
170
330
16E
100
AcDbEntity
  8
0
100
AcDbBlockBegin
  2
block 36
 70
     0
 71
     0
 10
0.0
 20
0.0
 30
0.0
  3
block 36
  1

  0
POLYLINE
  5
172
330
16E
100
AcDbEntity
  8
Livello 1
 62
     7
420
 16777215
370
     9
100
AcDb2dPolyline
 66
     1
 10
0.0
 20
0.0
 30
0.0
  0
VERTEX
  5
173
330
172
100
AcDbEntity
  8
Livello 1
 62
     7
420
 16777215
370
     9
100
AcDbVertex
100
AcDb2dVertex
 10
186.7823974142419
 20
130.4109890081959
 30
0.0
  0
VERTEX
  5
174
330
172
100
AcDbEntity
  8
Livello 1
 62
     7
420
 16777215
370
     9
100
AcDbVertex
100
AcDb2dVertex
 10
186.8096136685754
 20
130.4378607529808
 30
0.0
  0
SEQEND
  5
175
330
172
100
AcDbEntity
  8
Livello 1
370
     9
  0
ENDBLK
  5
171
330
16E
100
AcDbEntity
  8
0
100
AcDbBlockEnd
  0
BLOCK
  5
178
330
176
100
AcDbEntity
  8
0
100
AcDbBlockBegin
  2
block 37
 70
     0
 71
     0
 10
0.0
 20
0.0
 30
0.0
  3
block 37
  1

  0
POLYLINE
  5
17A
330
176
100
AcDbEntity
  8
Livello 1
 62
     7
420
 16777215
370
     9
100
AcDb2dPolyline
 66
     1
 10
0.0
 20
0.0
 30
0.0
  0
VERTEX
  5
17B
330
17A
100
AcDbEntity
  8
Livello 1
 62
     7
420
 16777215
370
     9
100
AcDbVertex
100
AcDb2dVertex
 10
186.8096136685754
 20
131.2019829316092
 30
0.0
  0
VERTEX
  5
17C
330
17A
100
AcDbEntity
  8
Livello 1
 62
     7
420
 16777215
370
     9
100
AcDbVertex
100
AcDb2dVertex
 10
186.7823974142419
 20
131.2278211477486
 30
0.0
  0
SEQEND
  5
17D
330
17A
100
AcDbEntity
  8
Livello 1
370
     9
  0
ENDBLK
  5
179
330
176
100
AcDbEntity
  8
0
100
AcDbBlockEnd
  0
BLOCK
  5
181
330
17F
100
AcDbEntity
  8
0
100
AcDbBlockBegin
  2
block 38
 70
     0
 71
     0
 10
0.0
 20
0.0
 30
0.0
  3
block 38
  1

  0
POLYLINE
  5
183
330
17F
100
AcDbEntity
  8
Livello 1
 62
     7
420
 16777215
370
     9
100
AcDb2dPolyline
 66
     1
 10
0.0
 20
0.0
 30
0.0
  0
VERTEX
  5
184
330
183
100
AcDbEntity
  8
Livello 1
 62
     7
420
 16777215
370
     9
100
AcDbVertex
100
AcDb2dVertex
 10
179.8007391586088
 20
130.4127115559385
 30
0.0
  0
VERTEX
  5
185
330
183
100
AcDbEntity
  8
Livello 1
 62
     7
420
 16777215
370
     9
100
AcDbVertex
100
AcDb2dVertex
 10
179.8496595144994
 20
130.3996201930945
 30
0.0
  0
VERTEX
  5
186
330
183
100
AcDbEntity
  8
Livello 1
 62
     7
420
 16777215
370
     9
100
AcDbVertex
100
AcDb2dVertex
 10
180.1299180322245
 20
130.3207275064823
 30
0.0
  0
VERTEX
  5
187
330
183
100
AcDbEntity
  8
Livello 1
 62
     7
420
 16777215
370
     9
100
AcDbVertex
100
AcDb2dVertex
 10
180.4019083207849
 20
130.2373561957393
 30
0.0
  0
VERTEX
  5
188
330
183
100
AcDbEntity
  8
Livello 1
 62
     7
420
 16777215
370
     9
100
AcDbVertex
100
AcDb2dVertex
 10
180.6751043927653
 20
130.1467501844772
 30
0.0
  0
VERTEX
  5
189
330
183
100
AcDbEntity
  8
Livello 1
 62
     7
420
 16777215
370
     9
100
AcDbVertex
100
AcDb2dVertex
 10
180.9464056622287
 20
130.0640678928312
 30
0.0
  0
VERTEX
  5
18A
330
183
100
AcDbEntity
  8
Livello 1
 62
     7
420
 16777215
370
     9
100
AcDbVertex
100
AcDb2dVertex
 10
181.2306260397618
 20
129.9927544162865
 30
0.0
  0
VERTEX
  5
18B
330
183
100
AcDbEntity
  8
Livello 1
 62
     7
420
 16777215
370
     9
100
AcDbVertex
100
AcDb2dVertex
 10
181.5177747484574
 20
129.9386664171681
 30
0.0
  0
VERTEX
  5
18C
330
183
100
AcDbEntity
  8
Livello 1
 62
     7
420
 16777215
370
     9
100
AcDbVertex
100
AcDb2dVertex
 10
181.8109523742521
 20
129.9007703668304
 30
0.0
  0
VERTEX
  5
18D
330
183
100
AcDbEntity
  8
Livello 1
 62
     7
420
 16777215
370
     9
100
AcDbVertex
100
AcDb2dVertex
 10
182.1079196050807
 20
129.8842339085012
 30
0.0
  0
VERTEX
  5
18E
330
183
100
AcDbEntity
  8
Livello 1
 62
     7
420
 16777215
370
     9
100
AcDbVertex
100
AcDb2dVertex
 10
182.3942070399049
 20
129.8859564562438
 30
0.0
  0
VERTEX
  5
18F
330
183
100
AcDbEntity
  8
Livello 1
 62
     7
420
 16777215
370
     9
100
AcDbVertex
100
AcDb2dVertex
 10
182.6825615320203
 20
129.9066270291553
 30
0.0
  0
VERTEX
  5
190
330
183
100
AcDbEntity
  8
Livello 1
 62
     7
420
 16777215
370
     9
100
AcDbVertex
100
AcDb2dVertex
 10
182.9588581899374
 20
129.9396999458137
 30
0.0
  0
VERTEX
  5
191
330
183
100
AcDbEntity
  8
Livello 1
 62
     7
420
 16777215
370
     9
100
AcDbVertex
100
AcDb2dVertex
 10
183.2339490644346
 20
129.9906873589954
 30
0.0
  0
VERTEX
  5
192
330
183
100
AcDbEntity
  8
Livello 1
 62
     7
420
 16777215
370
     9
100
AcDbVertex
100
AcDb2dVertex
 10
183.3777818009438
 20
130.0210041992656
 30
0.0
  0
VERTEX
  5
193
330
183
100
AcDbEntity
  8
Livello 1
 62
     7
420
 16777215
370
     9
100
AcDbVertex
100
AcDb2dVertex
 10
183.5202364992588
 20
130.0568331923122
 30
0.0
  0
VERTEX
  5
194
330
183
100
AcDbEntity
  8
Livello 1
 62
     7
420
 16777215
370
     9
100
AcDbVertex
100
AcDb2dVertex
 10
183.6685478598988
 20
130.0978298285867
 30
0.0
  0
VERTEX
  5
195
330
183
100
AcDbEntity
  8
Livello 1
 62
     7
420
 16777215
370
     9
100
AcDbVertex
100
AcDb2dVertex
 10
183.8175482396359
 20
130.1405490126038
 30
0.0
  0
VERTEX
  5
196
330
183
100
AcDbEntity
  8
Livello 1
 62
     7
420
 16777215
370
     9
100
AcDbVertex
100
AcDb2dVertex
 10
183.9677544027928
 20
130.1922254448825
 30
0.0
  0
VERTEX
  5
197
330
183
100
AcDbEntity
  8
Livello 1
 62
     7
420
 16777215
370
     9
100
AcDbVertex
100
AcDb2dVertex
 10
184.1212334066607
 20
130.2442463867098
 30
0.0
  0
VERTEX
  5
198
330
183
100
AcDbEntity
  8
Livello 1
 62
     7
420
 16777215
370
     9
100
AcDbVertex
100
AcDb2dVertex
 10
184.2917656331805
 20
130.3041910481531
 30
0.0
  0
VERTEX
  5
199
330
183
100
AcDbEntity
  8
Livello 1
 62
     7
420
 16777215
370
     9
100
AcDbVertex
100
AcDb2dVertex
 10
184.4647094265401
 20
130.3658582573391
 30
0.0
  0
VERTEX
  5
19A
330
183
100
AcDbEntity
  8
Livello 1
 62
     7
420
 16777215
370
     9
100
AcDbVertex
100
AcDb2dVertex
 10
184.5659952338064
 20
130.4023762694827
 30
0.0
  0
VERTEX
  5
19B
330
183
100
AcDbEntity
  8
Livello 1
 62
     7
420
 16777215
370
     9
100
AcDbVertex
100
AcDb2dVertex
 10
184.6669365315242
 20
130.4357936956897
 30
0.0
  0
VERTEX
  5
19C
330
183
100
AcDbEntity
  8
Livello 1
 62
     7
420
 16777215
370
     9
100
AcDbVertex
100
AcDb2dVertex
 10
184.7782131156978
 20
130.4716226887363
 30
0.0
  0
VERTEX
  5
19D
330
183
100
AcDbEntity
  8
Livello 1
 62
     7
420
 16777215
370
     9
100
AcDbVertex
100
AcDb2dVertex
 10
184.8886284260001
 20
130.502973057652
 30
0.0
  0
VERTEX
  5
19E
330
183
100
AcDbEntity
  8
Livello 1
 62
     7
420
 16777215
370
     9
100
AcDbVertex
100
AcDb2dVertex
 10
185.0109293157264
 20
130.5367349934075
 30
0.0
  0
VERTEX
  5
19F
330
183
100
AcDbEntity
  8
Livello 1
 62
     7
420
 16777215
370
     9
100
AcDbVertex
100
AcDb2dVertex
 10
185.1321966768072
 20
130.5649847763865
 30
0.0
  0
VERTEX
  5
1A0
330
183
100
AcDbEntity
  8
Livello 1
 62
     7
420
 16777215
370
     9
100
AcDbVertex
100
AcDb2dVertex
 10
185.2687947127974
 20
130.5911675020744
 30
0.0
  0
VERTEX
  5
1A1
330
183
100
AcDbEntity
  8
Livello 1
 62
     7
420
 16777215
370
     9
100
AcDbVertex
100
AcDb2dVertex
 10
185.4033256914964
 20
130.6142496418256
 30
0.0
  0
VERTEX
  5
1A2
330
183
100
AcDbEntity
  8
Livello 1
 62
     7
420
 16777215
370
     9
100
AcDbVertex
100
AcDb2dVertex
 10
185.5476751923284
 20
130.6311306097033
 30
0.0
  0
VERTEX
  5
1A3
330
183
100
AcDbEntity
  8
Livello 1
 62
     7
420
 16777215
370
     9
100
AcDbVertex
100
AcDb2dVertex
 10
185.6909911645148
 20
130.6421549152561
 30
0.0
  0
VERTEX
  5
1A4
330
183
100
AcDbEntity
  8
Livello 1
 62
     7
420
 16777215
370
     9
100
AcDbVertex
100
AcDb2dVertex
 10
185.8305175316674
 20
130.6511121635178
 30
0.0
  0
VERTEX
  5
1A5
330
183
100
AcDbEntity
  8
Livello 1
 62
     7
420
 16777215
370
     9
100
AcDbVertex
100
AcDb2dVertex
 10
185.9609143957841
 20
130.6555907876486
 30
0.0
  0
VERTEX
  5
1A6
330
183
100
AcDbEntity
  8
Livello 1
 62
     7
420
 16777215
370
     9
100
AcDbVertex
100
AcDb2dVertex
 10
186.0206868024532
 20
130.6573133353912
 30
0.0
  0
VERTEX
  5
1A7
330
183
100
AcDbEntity
  8
Livello 1
 62
     7
420
 16777215
370
     9
100
AcDbVertex
100
AcDb2dVertex
 10
186.0771863684113
 20
130.6573133353912
 30
0.0
  0
VERTEX
  5
1A8
330
183
100
AcDbEntity
  8
Livello 1
 62
     7
420
 16777215
370
     9
100
AcDbVertex
100
AcDb2dVertex
 10
186.1259344695276
 20
130.6590358831339
 30
0.0
  0
VERTEX
  5
1A9
330
183
100
AcDbEntity
  8
Livello 1
 62
     7
420
 16777215
370
     9
100
AcDbVertex
100
AcDb2dVertex
 10
186.1689981630932
 20
130.6573133353912
 30
0.0
  0
VERTEX
  5
1AA
330
183
100
AcDbEntity
  8
Livello 1
 62
     7
420
 16777215
370
     9
100
AcDbVertex
100
AcDb2dVertex
 10
186.2029323536229
 20
130.6573133353912
 30
0.0
  0
VERTEX
  5
1AB
330
183
100
AcDbEntity
  8
Livello 1
 62
     7
420
 16777215
370
     9
100
AcDbVertex
100
AcDb2dVertex
 10
186.228598314988
 20
130.6573133353912
 30
0.0
  0
VERTEX
  5
1AC
330
183
100
AcDbEntity
  8
Livello 1
 62
     7
420
 16777215
370
     9
100
AcDbVertex
100
AcDb2dVertex
 10
186.2503024165451
 20
130.6573133353912
 30
0.0
  0
SEQEND
  5
1AD
330
183
100
AcDbEntity
  8
Livello 1
370
     9
  0
ENDBLK
  5
182
330
17F
100
AcDbEntity
  8
0
100
AcDbBlockEnd
  0
BLOCK
  5
1B0
330
1AE
100
AcDbEntity
  8
0
100
AcDbBlockBegin
  2
block 39
 70
     0
 71
     0
 10
0.0
 20
0.0
 30
0.0
  3
block 39
  1

  0
POLYLINE
  5
1B2
330
1AE
100
AcDbEntity
  8
Livello 1
 62
     7
420
 16777215
370
     9
100
AcDb2dPolyline
 66
     1
 10
0.0
 20
0.0
 30
0.0
  0
VERTEX
  5
1B3
330
1B2
100
AcDbEntity
  8
Livello 1
 62
     7
420
 16777215
370
     9
100
AcDbVertex
100
AcDb2dVertex
 10
175.7369045242081
 20
130.4089219509047
 30
0.0
  0
VERTEX
  5
4DD
330
1B2
100
AcDbEntity
  8
0
100
AcDbVertex
100
AcDb2dVertex
 10
175.7369045242081
 20
130.4089219509047
 30
0.0
  0
SEQEND
  5
1B4
330
1B2
100
AcDbEntity
  8
Livello 1
370
     9
  0
ENDBLK
  5
1B1
330
1AE
100
AcDbEntity
  8
0
100
AcDbBlockEnd
  0
BLOCK
  5
1B7
330
1B5
100
AcDbEntity
  8
0
100
AcDbBlockBegin
  2
block 40
 70
     0
 71
     0
 10
0.0
 20
0.0
 30
0.0
  3
block 40
  1

  0
POLYLINE
  5
1B9
330
1B5
100
AcDbEntity
  8
Livello 1
 62
     7
420
 16777215
370
     9
100
AcDb2dPolyline
 66
     1
 10
0.0
 20
0.0
 30
0.0
  0
VERTEX
  5
1BA
330
1B9
100
AcDbEntity
  8
Livello 1
 62
     7
420
 16777215
370
     9
100
AcDbVertex
100
AcDb2dVertex
 10
175.6506048823026
 20
130.9274088214348
 30
0.0
  0
VERTEX
  5
1BB
330
1B9
100
AcDbEntity
  8
Livello 1
 62
     7
420
 16777215
370
     9
100
AcDbVertex
100
AcDb2dVertex
 10
175.5245143875425
 20
130.929475878726
 30
0.0
  0
SEQEND
  5
1BC
330
1B9
100
AcDbEntity
  8
Livello 1
370
     9
  0
ENDBLK
  5
1B8
330
1B5
100
AcDbEntity
  8
0
100
AcDbBlockEnd
  0
BLOCK
  5
1BF
330
1BD
100
AcDbEntity
  8
0
100
AcDbBlockBegin
  2
block 41
 70
     0
 71
     0
 10
0.0
 20
0.0
 30
0.0
  3
block 41
  1

  0
POLYLINE
  5
1C1
330
1BD
100
AcDbEntity
  8
Livello 1
 62
     7
420
 16777215
370
     9
100
AcDb2dPolyline
 66
     1
 10
0.0
 20
0.0
 30
0.0
  0
VERTEX
  5
1C2
330
1C1
100
AcDbEntity
  8
Livello 1
 62
     7
420
 16777215
370
     9
100
AcDbVertex
100
AcDb2dVertex
 10
175.7117553271658
 20
130.8161322372613
 30
0.0
  0
VERTEX
  5
1C3
330
1C1
100
AcDbEntity
  8
Livello 1
 62
     7
420
 16777215
370
     9
100
AcDbVertex
100
AcDb2dVertex
 10
175.6506048823026
 20
130.9274088214348
 30
0.0
  0
SEQEND
  5
1C4
330
1C1
100
AcDbEntity
  8
Livello 1
370
     9
  0
ENDBLK
  5
1C0
330
1BD
100
AcDbEntity
  8
0
100
AcDbBlockEnd
  0
BLOCK
  5
1C7
330
1C5
100
AcDbEntity
  8
0
100
AcDbBlockBegin
  2
block 42
 70
     0
 71
     0
 10
0.0
 20
0.0
 30
0.0
  3
block 42
  1

  0
POLYLINE
  5
1C9
330
1C5
100
AcDbEntity
  8
Livello 1
 62
     7
420
 16777215
370
     9
100
AcDb2dPolyline
 66
     1
 10
0.0
 20
0.0
 30
0.0
  0
VERTEX
  5
1CA
330
1C9
100
AcDbEntity
  8
Livello 1
 62
     7
420
 16777215
370
     9
100
AcDbVertex
100
AcDb2dVertex
 10
175.6457817486233
 20
130.7100232963156
 30
0.0
  0
VERTEX
  5
1CB
330
1C9
100
AcDbEntity
  8
Livello 1
 62
     7
420
 16777215
370
     9
100
AcDbVertex
100
AcDb2dVertex
 10
175.7117553271658
 20
130.8161322372613
 30
0.0
  0
SEQEND
  5
1CC
330
1C9
100
AcDbEntity
  8
Livello 1
370
     9
  0
ENDBLK
  5
1C8
330
1C5
100
AcDbEntity
  8
0
100
AcDbBlockEnd
  0
BLOCK
  5
1CF
330
1CD
100
AcDbEntity
  8
0
100
AcDbBlockBegin
  2
block 43
 70
     0
 71
     0
 10
0.0
 20
0.0
 30
0.0
  3
block 43
  1

  0
POLYLINE
  5
1D1
330
1CD
100
AcDbEntity
  8
Livello 1
 62
     7
420
 16777215
370
     9
100
AcDb2dPolyline
 66
     1
 10
0.0
 20
0.0
 30
0.0
  0
VERTEX
  5
1D2
330
1D1
100
AcDbEntity
  8
Livello 1
 62
     7
420
 16777215
370
     9
100
AcDbVertex
100
AcDb2dVertex
 10
175.5205525277345
 20
130.7110568249611
 30
0.0
  0
VERTEX
  5
1D3
330
1D1
100
AcDbEntity
  8
Livello 1
 62
     7
420
 16777215
370
     9
100
AcDbVertex
100
AcDb2dVertex
 10
175.6457817486233
 20
130.7100232963156
 30
0.0
  0
SEQEND
  5
1D4
330
1D1
100
AcDbEntity
  8
Livello 1
370
     9
  0
ENDBLK
  5
1D0
330
1CD
100
AcDbEntity
  8
0
100
AcDbBlockEnd
  0
BLOCK
  5
1D7
330
1D5
100
AcDbEntity
  8
0
100
AcDbBlockBegin
  2
block 44
 70
     0
 71
     0
 10
0.0
 20
0.0
 30
0.0
  3
block 44
  1

  0
POLYLINE
  5
1D9
330
1D5
100
AcDbEntity
  8
Livello 1
 62
     7
420
 16777215
370
     9
100
AcDb2dPolyline
 66
     1
 10
0.0
 20
0.0
 30
0.0
  0
VERTEX
  5
1DA
330
1D9
100
AcDbEntity
  8
Livello 1
 62
     7
420
 16777215
370
     9
100
AcDbVertex
100
AcDb2dVertex
 10
175.4595743376455
 20
130.8226779186832
 30
0.0
  0
VERTEX
  5
1DB
330
1D9
100
AcDbEntity
  8
Livello 1
 62
     7
420
 16777215
370
     9
100
AcDbVertex
100
AcDb2dVertex
 10
175.5205525277345
 20
130.7110568249611
 30
0.0
  0
SEQEND
  5
1DC
330
1D9
100
AcDbEntity
  8
Livello 1
370
     9
  0
ENDBLK
  5
1D8
330
1D5
100
AcDbEntity
  8
0
100
AcDbBlockEnd
  0
BLOCK
  5
1DF
330
1DD
100
AcDbEntity
  8
0
100
AcDbBlockBegin
  2
block 45
 70
     0
 71
     0
 10
0.0
 20
0.0
 30
0.0
  3
block 45
  1

  0
POLYLINE
  5
1E1
330
1DD
100
AcDbEntity
  8
Livello 1
 62
     7
420
 16777215
370
     9
100
AcDb2dPolyline
 66
     1
 10
0.0
 20
0.0
 30
0.0
  0
VERTEX
  5
1E2
330
1E1
100
AcDbEntity
  8
Livello 1
 62
     7
420
 16777215
370
     9
100
AcDbVertex
100
AcDb2dVertex
 10
175.5245143875425
 20
130.929475878726
 30
0.0
  0
VERTEX
  5
1E3
330
1E1
100
AcDbEntity
  8
Livello 1
 62
     7
420
 16777215
370
     9
100
AcDbVertex
100
AcDb2dVertex
 10
175.4595743376455
 20
130.8226779186832
 30
0.0
  0
SEQEND
  5
1E4
330
1E1
100
AcDbEntity
  8
Livello 1
370
     9
  0
ENDBLK
  5
1E0
330
1DD
100
AcDbEntity
  8
0
100
AcDbBlockEnd
  0
BLOCK
  5
1E7
330
1E5
100
AcDbEntity
  8
0
100
AcDbBlockBegin
  2
block 46
 70
     0
 71
     0
 10
0.0
 20
0.0
 30
0.0
  3
block 46
  1

  0
POLYLINE
  5
1E9
330
1E5
100
AcDbEntity
  8
Livello 1
 62
     7
420
 16777215
370
     9
100
AcDb2dPolyline
 66
     1
 10
0.0
 20
0.0
 30
0.0
  0
VERTEX
  5
1EA
330
1E9
100
AcDbEntity
  8
Livello 1
 62
     7
420
 16777215
370
     9
100
AcDbVertex
100
AcDb2dVertex
 10
186.2652885819059
 20
130.6256184569269
 30
0.0
  0
VERTEX
  5
1EB
330
1E9
100
AcDbEntity
  8
Livello 1
 62
     7
420
 16777215
370
     9
100
AcDbVertex
100
AcDb2dVertex
 10
186.2137844044014
 20
130.6331976669945
 30
0.0
  0
VERTEX
  5
1EC
330
1E9
100
AcDbEntity
  8
Livello 1
 62
     7
420
 16777215
370
     9
100
AcDbVertex
100
AcDb2dVertex
 10
186.1612466982514
 20
130.6573133353912
 30
0.0
  0
SEQEND
  5
1ED
330
1E9
100
AcDbEntity
  8
Livello 1
370
     9
  0
ENDBLK
  5
1E8
330
1E5
100
AcDbEntity
  8
0
100
AcDbBlockEnd
  0
BLOCK
  5
1F0
330
1EE
100
AcDbEntity
  8
0
100
AcDbBlockBegin
  2
block 47
 70
     0
 71
     0
 10
0.0
 20
0.0
 30
0.0
  3
block 47
  1

  0
SPLINE
  5
1F2
330
1EE
100
AcDbEntity
  8
Livello 1
 62
     7
420
 16777215
370
     9
100
AcDbSpline
210
0.0
220
0.0
230
1.0
 70
     8
 71
     3
 72
    62
 73
    58
 74
     0
 42
0.0000000001
 43
0.0000000001
 40
0.0
 40
0.0
 40
0.0
 40
0.0
 40
1.0
 40
1.0
 40
1.0
 40
2.0
 40
2.0
 40
2.0
 40
3.0
 40
3.0
 40
3.0
 40
4.0
 40
4.0
 40
4.0
 40
5.0
 40
5.0
 40
5.0
 40
6.0
 40
6.0
 40
6.0
 40
7.0
 40
7.0
 40
7.0
 40
8.0
 40
8.0
 40
8.0
 40
9.0
 40
9.0
 40
9.0
 40
10.0
 40
10.0
 40
10.0
 40
11.0
 40
11.0
 40
11.0
 40
12.0
 40
12.0
 40
12.0
 40
13.0
 40
13.0
 40
13.0
 40
14.0
 40
14.0
 40
14.0
 40
15.0
 40
15.0
 40
15.0
 40
16.0
 40
16.0
 40
16.0
 40
17.0
 40
17.0
 40
17.0
 40
18.0
 40
18.0
 40
18.0
 40
19.0
 40
19.0
 40
19.0
 40
19.0
 10
186.1612466982514
 20
130.9804632919077
 30
0.0
 10
186.1612466982514
 20
130.9804632919077
 30
0.0
 10
186.1819172711629
 20
130.9935546547516
 30
0.0
 10
186.1819172711629
 20
130.9935546547516
 30
0.0
 10
186.1819172711629
 20
130.9935546547516
 30
0.0
 10
186.2137844044014
 20
131.0045789603044
 30
0.0
 10
186.2137844044014
 20
131.0045789603044
 30
0.0
 10
186.2137844044014
 20
131.0045789603044
 30
0.0
 10
186.2444457542202
 20
131.0125026799205
 30
0.0
 10
186.2444457542202
 20
131.0125026799205
 30
0.0
 10
186.2444457542202
 20
131.0125026799205
 30
0.0
 10
186.2782076899756
 20
131.0125026799205
 30
0.0
 10
186.2782076899756
 20
131.0125026799205
 30
0.0
 10
186.2782076899756
 20
131.0125026799205
 30
0.0
 10
186.2914713075938
 20
131.0104356226293
 30
0.0
 10
186.2914713075938
 20
131.0104356226293
 30
0.0
 10
186.2914713075938
 20
131.0104356226293
 30
0.0
 10
186.3210991287669
 20
131.0045789603044
 30
0.0
 10
186.3210991287669
 20
131.0045789603044
 30
0.0
 10
186.3210991287669
 20
131.0045789603044
 30
0.0
 10
186.3490044021975
 20
130.9914875974605
 30
0.0
 10
186.3490044021975
 20
130.9914875974605
 30
0.0
 10
186.3490044021975
 20
130.9914875974605
 30
0.0
 10
186.397924758088
 20
130.9553140948653
 30
0.0
 10
186.397924758088
 20
130.9553140948653
 30
0.0
 10
186.397924758088
 20
130.9553140948653
 30
0.0
 10
186.4192843500966
 20
130.9311984264686
 30
0.0
 10
186.4192843500966
 20
130.9311984264686
 30
0.0
 10
186.4192843500966
 20
130.9311984264686
 30
0.0
 10
186.4351317893287
 20
130.9012260957469
 30
0.0
 10
186.4351317893287
 20
130.9012260957469
 30
0.0
 10
186.4351317893287
 20
130.9012260957469
 30
0.0
 10
186.4452948210102
 20
130.8712537650252
 30
0.0
 10
186.4452948210102
 20
130.8712537650252
 30
0.0
 10
186.4452948210102
 20
130.8712537650252
 30
0.0
 10
186.4527017763035
 20
130.8374918292698
 30
0.0
 10
186.4527017763035
 20
130.8374918292698
 30
0.0
 10
186.4527017763035
 20
130.8374918292698
 30
0.0
 10
186.4492566808183
 20
130.7751356009868
 30
0.0
 10
186.4492566808183
 20
130.7751356009868
 30
0.0
 10
186.4492566808183
 20
130.7751356009868
 30
0.0
 10
186.4284138531325
 20
130.7231146591595
 30
0.0
 10
186.4284138531325
 20
130.7231146591595
 30
0.0
 10
186.4284138531325
 20
130.7231146591595
 30
0.0
 10
186.390001038472
 20
130.674194303269
 30
0.0
 10
186.390001038472
 20
130.674194303269
 30
0.0
 10
186.390001038472
 20
130.674194303269
 30
0.0
 10
186.3641628223326
 20
130.6555907876486
 30
0.0
 10
186.3641628223326
 20
130.6555907876486
 30
0.0
 10
186.3641628223326
 20
130.6555907876486
 30
0.0
 10
186.3341904916109
 20
130.640087857965
 30
0.0
 10
186.3341904916109
 20
130.640087857965
 30
0.0
 10
186.3341904916109
 20
130.640087857965
 30
0.0
 10
186.2801024924925
 20
130.6276855142181
 30
0.0
 10
186.2801024924925
 20
130.6276855142181
 30
0.0
 10
186.2725232824249
 20
130.6276855142181
 30
0.0
 10
186.2652885819059
 20
130.6256184569269
 30
0.0
 10
186.2652885819059
 20
130.6256184569269
 30
0.0
  0
ENDBLK
  5
1F1
330
1EE
100
AcDbEntity
  8
0
100
AcDbBlockEnd
  0
BLOCK
  5
1F5
330
1F3
100
AcDbEntity
  8
0
100
AcDbBlockBegin
  2
block 48
 70
     0
 71
     0
 10
0.0
 20
0.0
 30
0.0
  3
block 48
  1

  0
POLYLINE
  5
1F7
330
1F3
100
AcDbEntity
  8
Livello 1
 62
     7
420
 16777215
370
     9
100
AcDb2dPolyline
 66
     1
 10
0.0
 20
0.0
 30
0.0
  0
VERTEX
  5
1F8
330
1F7
100
AcDbEntity
  8
Livello 1
 62
     7
420
 16777215
370
     9
100
AcDbVertex
100
AcDb2dVertex
 10
186.7823974142419
 20
130.8188883136494
 30
0.0
  0
VERTEX
  5
1F9
330
1F7
100
AcDbEntity
  8
Livello 1
 62
     7
420
 16777215
370
     9
100
AcDbVertex
100
AcDb2dVertex
 10
186.7823974142419
 20
130.9766736868739
 30
0.0
  0
VERTEX
  5
1FA
330
1F7
100
AcDbEntity
  8
Livello 1
 62
     7
420
 16777215
370
     9
100
AcDbVertex
100
AcDb2dVertex
 10
186.7823974142419
 20
131.1072428057649
 30
0.0
  0
VERTEX
  5
1FB
330
1F7
100
AcDbEntity
  8
Livello 1
 62
     7
420
 16777215
370
     9
100
AcDbVertex
100
AcDb2dVertex
 10
186.7823974142419
 20
131.1978488170269
 30
0.0
  0
VERTEX
  5
1FC
330
1F7
100
AcDbEntity
  8
Livello 1
 62
     7
420
 16777215
370
     9
100
AcDbVertex
100
AcDb2dVertex
 10
186.7823974142419
 20
131.2278211477486
 30
0.0
  0
SEQEND
  5
1FD
330
1F7
100
AcDbEntity
  8
Livello 1
370
     9
  0
ENDBLK
  5
1F6
330
1F3
100
AcDbEntity
  8
0
100
AcDbBlockEnd
  0
BLOCK
  5
200
330
1FE
100
AcDbEntity
  8
0
100
AcDbBlockBegin
  2
block 49
 70
     0
 71
     0
 10
0.0
 20
0.0
 30
0.0
  3
block 49
  1

  0
POLYLINE
  5
202
330
1FE
100
AcDbEntity
  8
Livello 1
 62
     7
420
 16777215
370
     9
100
AcDb2dPolyline
 66
     1
 10
0.0
 20
0.0
 30
0.0
  0
VERTEX
  5
203
330
202
100
AcDbEntity
  8
Livello 1
 62
     7
420
 16777215
370
     9
100
AcDbVertex
100
AcDb2dVertex
 10
186.7823974142419
 20
130.4109890081959
 30
0.0
  0
VERTEX
  5
204
330
202
100
AcDbEntity
  8
Livello 1
 62
     7
420
 16777215
370
     9
100
AcDbVertex
100
AcDb2dVertex
 10
186.7823974142419
 20
130.4413058484661
 30
0.0
  0
VERTEX
  5
205
330
202
100
AcDbEntity
  8
Livello 1
 62
     7
420
 16777215
370
     9
100
AcDbVertex
100
AcDb2dVertex
 10
186.7823974142419
 20
130.5291557833399
 30
0.0
  0
VERTEX
  5
206
330
202
100
AcDbEntity
  8
Livello 1
 62
     7
420
 16777215
370
     9
100
AcDbVertex
100
AcDb2dVertex
 10
186.7823974142419
 20
130.6631699977162
 30
0.0
  0
VERTEX
  5
207
330
202
100
AcDbEntity
  8
Livello 1
 62
     7
420
 16777215
370
     9
100
AcDbVertex
100
AcDb2dVertex
 10
186.7823974142419
 20
130.8188883136494
 30
0.0
  0
SEQEND
  5
208
330
202
100
AcDbEntity
  8
Livello 1
370
     9
  0
ENDBLK
  5
201
330
1FE
100
AcDbEntity
  8
0
100
AcDbBlockEnd
  0
BLOCK
  5
20B
330
209
100
AcDbEntity
  8
0
100
AcDbBlockBegin
  2
block 50
 70
     0
 71
     0
 10
0.0
 20
0.0
 30
0.0
  3
block 50
  1

  0
POLYLINE
  5
20D
330
209
100
AcDbEntity
  8
Livello 1
 62
     7
420
 16777215
370
     9
100
AcDb2dPolyline
 66
     1
 10
0.0
 20
0.0
 30
0.0
  0
VERTEX
  5
20E
330
20D
100
AcDbEntity
  8
Livello 1
 62
     7
420
 16777215
370
     9
100
AcDbVertex
100
AcDb2dVertex
 10
186.8096136685754
 20
131.2019829316092
 30
0.0
  0
VERTEX
  5
20F
330
20D
100
AcDbEntity
  8
Livello 1
 62
     7
420
 16777215
370
     9
100
AcDbVertex
100
AcDb2dVertex
 10
186.8096136685754
 20
131.1720106008875
 30
0.0
  0
VERTEX
  5
210
330
20D
100
AcDbEntity
  8
Livello 1
 62
     7
420
 16777215
370
     9
100
AcDbVertex
100
AcDb2dVertex
 10
186.8096136685754
 20
131.0886392901445
 30
0.0
  0
VERTEX
  5
211
330
20D
100
AcDbEntity
  8
Livello 1
 62
     7
420
 16777215
370
     9
100
AcDbVertex
100
AcDb2dVertex
 10
186.8096136685754
 20
130.9656493813211
 30
0.0
  0
VERTEX
  5
212
330
20D
100
AcDbEntity
  8
Livello 1
 62
     7
420
 16777215
370
     9
100
AcDbVertex
100
AcDb2dVertex
 10
186.8096136685754
 20
130.8188883136494
 30
0.0
  0
VERTEX
  5
213
330
20D
100
AcDbEntity
  8
Livello 1
 62
     7
420
 16777215
370
     9
100
AcDbVertex
100
AcDb2dVertex
 10
186.8096136685754
 20
130.674194303269
 30
0.0
  0
VERTEX
  5
214
330
20D
100
AcDbEntity
  8
Livello 1
 62
     7
420
 16777215
370
     9
100
AcDbVertex
100
AcDb2dVertex
 10
186.8096136685754
 20
130.5498263562514
 30
0.0
  0
VERTEX
  5
215
330
20D
100
AcDbEntity
  8
Livello 1
 62
     7
420
 16777215
370
     9
100
AcDbVertex
100
AcDb2dVertex
 10
186.8096136685754
 20
130.4678330837025
 30
0.0
  0
VERTEX
  5
216
330
20D
100
AcDbEntity
  8
Livello 1
 62
     7
420
 16777215
370
     9
100
AcDbVertex
100
AcDb2dVertex
 10
186.8096136685754
 20
130.4378607529808
 30
0.0
  0
SEQEND
  5
217
330
20D
100
AcDbEntity
  8
Livello 1
370
     9
  0
ENDBLK
  5
20C
330
209
100
AcDbEntity
  8
0
100
AcDbBlockEnd
  0
BLOCK
  5
21A
330
218
100
AcDbEntity
  8
0
100
AcDbBlockBegin
  2
block 51
 70
     0
 71
     0
 10
0.0
 20
0.0
 30
0.0
  3
block 51
  1

  0
POLYLINE
  5
21C
330
218
100
AcDbEntity
  8
Livello 1
 62
     7
420
 16777215
370
     9
100
AcDb2dPolyline
 66
     1
 10
0.0
 20
0.0
 30
0.0
  0
VERTEX
  5
21D
330
21C
100
AcDbEntity
  8
Livello 1
 62
     7
420
 16777215
370
     9
100
AcDbVertex
100
AcDb2dVertex
 10
186.2508191808679
 20
130.6442219725473
 30
0.0
  0
VERTEX
  5
21E
330
21C
100
AcDbEntity
  8
Livello 1
 62
     7
420
 16777215
370
     9
100
AcDbVertex
100
AcDb2dVertex
 10
186.2914713075938
 20
130.6442219725473
 30
0.0
  0
VERTEX
  5
21F
330
21C
100
AcDbEntity
  8
Livello 1
 62
     7
420
 16777215
370
     9
100
AcDbVertex
100
AcDb2dVertex
 10
186.3231661860581
 20
130.6535237303574
 30
0.0
  0
SEQEND
  5
220
330
21C
100
AcDbEntity
  8
Livello 1
370
     9
  0
ENDBLK
  5
21B
330
218
100
AcDbEntity
  8
0
100
AcDbBlockEnd
  0
BLOCK
  5
223
330
221
100
AcDbEntity
  8
0
100
AcDbBlockBegin
  2
block 52
 70
     0
 71
     0
 10
0.0
 20
0.0
 30
0.0
  3
block 52
  1

  0
POLYLINE
  5
225
330
221
100
AcDbEntity
  8
Livello 1
 62
     7
420
 16777215
370
     9
100
AcDb2dPolyline
 66
     1
 10
0.0
 20
0.0
 30
0.0
  0
VERTEX
  5
226
330
225
100
AcDbEntity
  8
Livello 1
 62
     7
420
 16777215
370
     9
100
AcDbVertex
100
AcDb2dVertex
 10
186.1898409907789
 20
130.661102940425
 30
0.0
  0
VERTEX
  5
227
330
225
100
AcDbEntity
  8
Livello 1
 62
     7
420
 16777215
370
     9
100
AcDbVertex
100
AcDb2dVertex
 10
186.2184352833065
 20
130.6483560871296
 30
0.0
  0
VERTEX
  5
228
330
225
100
AcDbEntity
  8
Livello 1
 62
     7
420
 16777215
370
     9
100
AcDbVertex
100
AcDb2dVertex
 10
186.2652885819059
 20
130.6421549152561
 30
0.0
  0
SEQEND
  5
229
330
225
100
AcDbEntity
  8
Livello 1
370
     9
  0
ENDBLK
  5
224
330
221
100
AcDbEntity
  8
0
100
AcDbBlockEnd
  0
BLOCK
  5
22C
330
22A
100
AcDbEntity
  8
0
100
AcDbBlockBegin
  2
block 53
 70
     0
 71
     0
 10
0.0
 20
0.0
 30
0.0
  3
block 53
  1

  0
POLYLINE
  5
22E
330
22A
100
AcDbEntity
  8
Livello 1
 62
     7
420
 16777215
370
     9
100
AcDb2dPolyline
 66
     1
 10
0.0
 20
0.0
 30
0.0
  0
VERTEX
  5
22F
330
22E
100
AcDbEntity
  8
Livello 1
 62
     7
420
 16777215
370
     9
100
AcDbVertex
100
AcDb2dVertex
 10
186.2871649382373
 20
130.6462890298384
 30
0.0
  0
VERTEX
  5
230
330
22E
100
AcDbEntity
  8
Livello 1
 62
     7
420
 16777215
370
     9
100
AcDbVertex
100
AcDb2dVertex
 10
186.246340556737
 20
130.6442219725473
 30
0.0
  0
VERTEX
  5
231
330
22E
100
AcDbEntity
  8
Livello 1
 62
     7
420
 16777215
370
     9
100
AcDbVertex
100
AcDb2dVertex
 10
186.1898409907789
 20
130.6590358831339
 30
0.0
  0
SEQEND
  5
232
330
22E
100
AcDbEntity
  8
Livello 1
370
     9
  0
ENDBLK
  5
22D
330
22A
100
AcDbEntity
  8
0
100
AcDbBlockEnd
  0
BLOCK
  5
235
330
233
100
AcDbEntity
  8
0
100
AcDbBlockBegin
  2
block 54
 70
     0
 71
     0
 10
0.0
 20
0.0
 30
0.0
  3
block 54
  1

  0
POLYLINE
  5
237
330
233
100
AcDbEntity
  8
Livello 1
 62
     7
420
 16777215
370
     9
100
AcDb2dPolyline
 66
     1
 10
0.0
 20
0.0
 30
0.0
  0
VERTEX
  5
238
330
237
100
AcDbEntity
  8
Livello 1
 62
     7
420
 16777215
370
     9
100
AcDbVertex
100
AcDb2dVertex
 10
186.4192843500966
 20
130.7710014864045
 30
0.0
  0
VERTEX
  5
4DE
330
237
100
AcDbEntity
  8
0
100
AcDbVertex
100
AcDb2dVertex
 10
186.4192843500966
 20
130.7710014864045
 30
0.0
  0
SEQEND
  5
239
330
237
100
AcDbEntity
  8
Livello 1
370
     9
  0
ENDBLK
  5
236
330
233
100
AcDbEntity
  8
0
100
AcDbBlockEnd
  0
BLOCK
  5
23C
330
23A
100
AcDbEntity
  8
0
100
AcDbBlockBegin
  2
block 55
 70
     0
 71
     0
 10
0.0
 20
0.0
 30
0.0
  3
block 55
  1

  0
POLYLINE
  5
23E
330
23A
100
AcDbEntity
  8
Livello 1
 62
     7
420
 16777215
370
     9
100
AcDb2dPolyline
 66
     1
 10
0.0
 20
0.0
 30
0.0
  0
VERTEX
  5
23F
330
23E
100
AcDbEntity
  8
Livello 1
 62
     7
420
 16777215
370
     9
100
AcDbVertex
100
AcDb2dVertex
 10
186.2074109777537
 20
130.9832193682959
 30
0.0
  0
VERTEX
  5
4DF
330
23E
100
AcDbEntity
  8
0
100
AcDbVertex
100
AcDb2dVertex
 10
186.2074109777537
 20
130.9832193682959
 30
0.0
  0
SEQEND
  5
240
330
23E
100
AcDbEntity
  8
Livello 1
370
     9
  0
ENDBLK
  5
23D
330
23A
100
AcDbEntity
  8
0
100
AcDbBlockEnd
  0
BLOCK
  5
243
330
241
100
AcDbEntity
  8
0
100
AcDbBlockBegin
  2
block 56
 70
     0
 71
     0
 10
0.0
 20
0.0
 30
0.0
  3
block 56
  1

  0
POLYLINE
  5
245
330
241
100
AcDbEntity
  8
Livello 1
 62
     7
420
 16777215
370
     9
100
AcDb2dPolyline
 66
     1
 10
0.0
 20
0.0
 30
0.0
  0
VERTEX
  5
246
330
245
100
AcDbEntity
  8
Livello 1
 62
     7
420
 16777215
370
     9
100
AcDbVertex
100
AcDb2dVertex
 10
186.2210191049205
 20
130.9914875974605
 30
0.0
  0
VERTEX
  5
4E0
330
245
100
AcDbEntity
  8
0
100
AcDbVertex
100
AcDb2dVertex
 10
186.2210191049205
 20
130.9914875974605
 30
0.0
  0
SEQEND
  5
247
330
245
100
AcDbEntity
  8
Livello 1
370
     9
  0
ENDBLK
  5
244
330
241
100
AcDbEntity
  8
0
100
AcDbBlockEnd
  0
BLOCK
  5
24A
330
248
100
AcDbEntity
  8
0
100
AcDbBlockBegin
  2
block 57
 70
     0
 71
     0
 10
0.0
 20
0.0
 30
0.0
  3
block 57
  1

  0
POLYLINE
  5
24C
330
248
100
AcDbEntity
  8
Livello 1
 62
     7
420
 16777215
370
     9
100
AcDb2dPolyline
 66
     1
 10
0.0
 20
0.0
 30
0.0
  0
VERTEX
  5
24D
330
24C
100
AcDbEntity
  8
Livello 1
 62
     7
420
 16777215
370
     9
100
AcDbVertex
100
AcDb2dVertex
 10
186.3810437902103
 20
130.8915798283882
 30
0.0
  0
VERTEX
  5
24E
330
24C
100
AcDbEntity
  8
Livello 1
 62
     7
420
 16777215
370
     9
100
AcDbVertex
100
AcDb2dVertex
 10
186.4351317893287
 20
130.8585069117298
 30
0.0
  0
SEQEND
  5
24F
330
24C
100
AcDbEntity
  8
Livello 1
370
     9
  0
ENDBLK
  5
24B
330
248
100
AcDbEntity
  8
0
100
AcDbBlockEnd
  0
BLOCK
  5
252
330
250
100
AcDbEntity
  8
0
100
AcDbBlockBegin
  2
block 58
 70
     0
 71
     0
 10
0.0
 20
0.0
 30
0.0
  3
block 58
  1

  0
POLYLINE
  5
254
330
250
100
AcDbEntity
  8
Livello 1
 62
     7
420
 16777215
370
     9
100
AcDb2dPolyline
 66
     1
 10
0.0
 20
0.0
 30
0.0
  0
VERTEX
  5
255
330
254
100
AcDbEntity
  8
Livello 1
 62
     7
420
 16777215
370
     9
100
AcDbVertex
100
AcDb2dVertex
 10
186.4192843500966
 20
130.7710014864045
 30
0.0
  0
VERTEX
  5
4E1
330
254
100
AcDbEntity
  8
0
100
AcDbVertex
100
AcDb2dVertex
 10
186.4192843500966
 20
130.7710014864045
 30
0.0
  0
SEQEND
  5
256
330
254
100
AcDbEntity
  8
Livello 1
370
     9
  0
ENDBLK
  5
253
330
250
100
AcDbEntity
  8
0
100
AcDbBlockEnd
  0
BLOCK
  5
259
330
257
100
AcDbEntity
  8
0
100
AcDbBlockBegin
  2
block 59
 70
     0
 71
     0
 10
0.0
 20
0.0
 30
0.0
  3
block 59
  1

  0
POLYLINE
  5
25B
330
257
100
AcDbEntity
  8
Livello 1
 62
     7
420
 16777215
370
     9
100
AcDb2dPolyline
 66
     1
 10
0.0
 20
0.0
 30
0.0
  0
VERTEX
  5
25C
330
25B
100
AcDbEntity
  8
Livello 1
 62
     7
420
 16777215
370
     9
100
AcDbVertex
100
AcDb2dVertex
 10
186.4089490636408
 20
130.7837483396999
 30
0.0
  0
VERTEX
  5
25D
330
25B
100
AcDbEntity
  8
Livello 1
 62
     7
420
 16777215
370
     9
100
AcDbVertex
100
AcDb2dVertex
 10
186.4218681717105
 20
130.7816812824088
 30
0.0
  0
SEQEND
  5
25E
330
25B
100
AcDbEntity
  8
Livello 1
370
     9
  0
ENDBLK
  5
25A
330
257
100
AcDbEntity
  8
0
100
AcDbBlockEnd
  0
BLOCK
  5
261
330
25F
100
AcDbEntity
  8
0
100
AcDbBlockBegin
  2
block 60
 70
     0
 71
     0
 10
0.0
 20
0.0
 30
0.0
  3
block 60
  1

  0
POLYLINE
  5
263
330
25F
100
AcDbEntity
  8
Livello 1
 62
     7
420
 16777215
370
     9
100
AcDb2dPolyline
 66
     1
 10
0.0
 20
0.0
 30
0.0
  0
VERTEX
  5
264
330
263
100
AcDbEntity
  8
Livello 1
 62
     7
420
 16777215
370
     9
100
AcDbVertex
100
AcDb2dVertex
 10
186.397924758088
 20
130.8316351669449
 30
0.0
  0
VERTEX
  5
265
330
263
100
AcDbEntity
  8
Livello 1
 62
     7
420
 16777215
370
     9
100
AcDbVertex
100
AcDb2dVertex
 10
186.4394381586853
 20
130.8078640080967
 30
0.0
  0
SEQEND
  5
266
330
263
100
AcDbEntity
  8
Livello 1
370
     9
  0
ENDBLK
  5
262
330
25F
100
AcDbEntity
  8
0
100
AcDbBlockEnd
  0
BLOCK
  5
269
330
267
100
AcDbEntity
  8
0
100
AcDbBlockBegin
  2
block 61
 70
     0
 71
     0
 10
0.0
 20
0.0
 30
0.0
  3
block 61
  1

  0
POLYLINE
  5
26B
330
267
100
AcDbEntity
  8
Livello 1
 62
     7
420
 16777215
370
     9
100
AcDb2dPolyline
 66
     1
 10
0.0
 20
0.0
 30
0.0
  0
VERTEX
  5
26C
330
26B
100
AcDbEntity
  8
Livello 1
 62
     7
420
 16777215
370
     9
100
AcDbVertex
100
AcDb2dVertex
 10
186.4089490636408
 20
130.7837483396999
 30
0.0
  0
VERTEX
  5
26D
330
26B
100
AcDbEntity
  8
Livello 1
 62
     7
420
 16777215
370
     9
100
AcDbVertex
100
AcDb2dVertex
 10
186.4218681717105
 20
130.7816812824088
 30
0.0
  0
SEQEND
  5
26E
330
26B
100
AcDbEntity
  8
Livello 1
370
     9
  0
ENDBLK
  5
26A
330
267
100
AcDbEntity
  8
0
100
AcDbBlockEnd
  0
BLOCK
  5
271
330
26F
100
AcDbEntity
  8
0
100
AcDbBlockBegin
  2
block 62
 70
     0
 71
     0
 10
0.0
 20
0.0
 30
0.0
  3
block 62
  1

  0
POLYLINE
  5
273
330
26F
100
AcDbEntity
  8
Livello 1
 62
     7
420
 16777215
370
     9
100
AcDb2dPolyline
 66
     1
 10
0.0
 20
0.0
 30
0.0
  0
VERTEX
  5
274
330
273
100
AcDbEntity
  8
Livello 1
 62
     7
420
 16777215
370
     9
100
AcDbVertex
100
AcDb2dVertex
 10
170.7968098531341
 20
219.209358669156
 30
0.0
  0
VERTEX
  5
275
330
273
100
AcDbEntity
  8
Livello 1
 62
     7
420
 16777215
370
     9
100
AcDbVertex
100
AcDb2dVertex
 10
170.7968098531341
 20
140.4220919787834
 30
0.0
  0
SEQEND
  5
276
330
273
100
AcDbEntity
  8
Livello 1
370
     9
  0
ENDBLK
  5
272
330
26F
100
AcDbEntity
  8
0
100
AcDbBlockEnd
  0
BLOCK
  5
279
330
277
100
AcDbEntity
  8
0
100
AcDbBlockBegin
  2
block 63
 70
     0
 71
     0
 10
0.0
 20
0.0
 30
0.0
  3
block 63
  1

  0
POLYLINE
  5
27B
330
277
100
AcDbEntity
  8
Livello 1
 62
     7
420
 16777215
370
     9
100
AcDb2dPolyline
 66
     1
 10
0.0
 20
0.0
 30
0.0
  0
VERTEX
  5
27C
330
27B
100
AcDbEntity
  8
Livello 1
 62
     7
420
 16777215
370
     9
100
AcDbVertex
100
AcDb2dVertex
 10
170.7968098531341
 20
123.7364610150728
 30
0.0
  0
VERTEX
  5
27D
330
27B
100
AcDbEntity
  8
Livello 1
 62
     7
420
 16777215
370
     9
100
AcDbVertex
100
AcDb2dVertex
 10
170.7968098531341
 20
137.9033826695172
 30
0.0
  0
SEQEND
  5
27E
330
27B
100
AcDbEntity
  8
Livello 1
370
     9
  0
ENDBLK
  5
27A
330
277
100
AcDbEntity
  8
0
100
AcDbBlockEnd
  0
BLOCK
  5
281
330
27F
100
AcDbEntity
  8
0
100
AcDbBlockBegin
  2
block 64
 70
     0
 71
     0
 10
0.0
 20
0.0
 30
0.0
  3
block 64
  1

  0
POLYLINE
  5
283
330
27F
100
AcDbEntity
  8
Livello 1
 62
     7
420
 16777215
370
     9
100
AcDb2dPolyline
 66
     1
 10
0.0
 20
0.0
 30
0.0
  0
VERTEX
  5
284
330
283
100
AcDbEntity
  8
Livello 1
 62
     7
420
 16777215
370
     9
100
AcDbVertex
100
AcDb2dVertex
 10
191.7977674216686
 20
202.3190890336216
 30
0.0
  0
VERTEX
  5
285
330
283
100
AcDbEntity
  8
Livello 1
 62
     7
420
 16777215
370
     9
100
AcDbVertex
100
AcDb2dVertex
 10
191.7977674216686
 20
140.4220919787834
 30
0.0
  0
SEQEND
  5
286
330
283
100
AcDbEntity
  8
Livello 1
370
     9
  0
ENDBLK
  5
282
330
27F
100
AcDbEntity
  8
0
100
AcDbBlockEnd
  0
BLOCK
  5
289
330
287
100
AcDbEntity
  8
0
100
AcDbBlockBegin
  2
block 65
 70
     0
 71
     0
 10
0.0
 20
0.0
 30
0.0
  3
block 65
  1

  0
POLYLINE
  5
28B
330
287
100
AcDbEntity
  8
Livello 1
 62
     7
420
 16777215
370
     9
100
AcDb2dPolyline
 66
     1
 10
0.0
 20
0.0
 30
0.0
  0
VERTEX
  5
28C
330
28B
100
AcDbEntity
  8
Livello 1
 62
     7
420
 16777215
370
     9
100
AcDbVertex
100
AcDb2dVertex
 10
175.9058864577596
 20
216.1835313044611
 30
0.0
  0
VERTEX
  5
28D
330
28B
100
AcDbEntity
  8
Livello 1
 62
     7
420
 16777215
370
     9
100
AcDbVertex
100
AcDb2dVertex
 10
175.872641286327
 20
216.2238389216385
 30
0.0
  0
VERTEX
  5
28E
330
28B
100
AcDbEntity
  8
Livello 1
 62
     7
420
 16777215
370
     9
100
AcDbVertex
100
AcDb2dVertex
 10
175.8056341791389
 20
216.3118611112866
 30
0.0
  0
VERTEX
  5
28F
330
28B
100
AcDbEntity
  8
Livello 1
 62
     7
420
 16777215
370
     9
100
AcDbVertex
100
AcDb2dVertex
 10
175.7741115554489
 20
216.361987250597
 30
0.0
  0
VERTEX
  5
290
330
28B
100
AcDbEntity
  8
Livello 1
 62
     7
420
 16777215
370
     9
100
AcDbVertex
100
AcDb2dVertex
 10
175.7546467659572
 20
216.3974717340951
 30
0.0
  0
VERTEX
  5
291
330
28B
100
AcDbEntity
  8
Livello 1
 62
     7
420
 16777215
370
     9
100
AcDbVertex
100
AcDb2dVertex
 10
175.7396606005964
 20
216.4358845487556
 30
0.0
  0
VERTEX
  5
292
330
28B
100
AcDbEntity
  8
Livello 1
 62
     7
420
 16777215
370
     9
100
AcDbVertex
100
AcDb2dVertex
 10
175.7334594287229
 20
216.4904893121968
 30
0.0
  0
VERTEX
  5
293
330
28B
100
AcDbEntity
  8
Livello 1
 62
     7
420
 16777215
370
     9
100
AcDbVertex
100
AcDb2dVertex
 10
175.7425889317588
 20
216.5440605469925
 30
0.0
  0
VERTEX
  5
294
330
28B
100
AcDbEntity
  8
Livello 1
 62
     7
420
 16777215
370
     9
100
AcDbVertex
100
AcDb2dVertex
 10
175.7727335172547
 20
216.6076225586953
 30
0.0
  0
VERTEX
  5
295
330
28B
100
AcDbEntity
  8
Livello 1
 62
     7
420
 16777215
370
     9
100
AcDbVertex
100
AcDb2dVertex
 10
175.8269937711474
 20
216.6885823025987
 30
0.0
  0
VERTEX
  5
296
330
28B
100
AcDbEntity
  8
Livello 1
 62
     7
420
 16777215
370
     9
100
AcDbVertex
100
AcDb2dVertex
 10
175.8857326491709
 20
216.7626518555316
 30
0.0
  0
VERTEX
  5
297
330
28B
100
AcDbEntity
  8
Livello 1
 62
     7
420
 16777215
370
     9
100
AcDbVertex
100
AcDb2dVertex
 10
175.927762814091
 20
216.8132947591647
 30
0.0
  0
VERTEX
  5
298
330
28B
100
AcDbEntity
  8
Livello 1
 62
     7
420
 16777215
370
     9
100
AcDbVertex
100
AcDb2dVertex
 10
175.965831119203
 20
216.8582532552473
 30
0.0
  0
VERTEX
  5
299
330
28B
100
AcDbEntity
  8
Livello 1
 62
     7
420
 16777215
370
     9
100
AcDbVertex
100
AcDb2dVertex
 10
175.986846201663
 20
216.8818521593212
 30
0.0
  0
VERTEX
  5
29A
330
28B
100
AcDbEntity
  8
Livello 1
 62
     7
420
 16777215
370
     9
100
AcDbVertex
100
AcDb2dVertex
 10
176.003899424315
 20
216.9013169488129
 30
0.0
  0
VERTEX
  5
29B
330
28B
100
AcDbEntity
  8
Livello 1
 62
     7
420
 16777215
370
     9
100
AcDbVertex
100
AcDb2dVertex
 10
176.0149237298678
 20
216.913891547334
 30
0.0
  0
SEQEND
  5
29C
330
28B
100
AcDbEntity
  8
Livello 1
370
     9
  0
ENDBLK
  5
28A
330
287
100
AcDbEntity
  8
0
100
AcDbBlockEnd
  0
BLOCK
  5
29F
330
29D
100
AcDbEntity
  8
0
100
AcDbBlockBegin
  2
block 66
 70
     0
 71
     0
 10
0.0
 20
0.0
 30
0.0
  3
block 66
  1

  0
SPLINE
  5
2A1
330
29D
100
AcDbEntity
  8
Livello 1
 62
     7
420
 16777215
370
     9
100
AcDbSpline
210
0.0
220
0.0
230
1.0
 70
     8
 71
     3
 72
    20
 73
    16
 74
     0
 42
0.0000000001
 43
0.0000000001
 40
0.0
 40
0.0
 40
0.0
 40
0.0
 40
1.0
 40
1.0
 40
1.0
 40
2.0
 40
2.0
 40
2.0
 40
3.0
 40
3.0
 40
3.0
 40
4.0
 40
4.0
 40
4.0
 40
5.0
 40
5.0
 40
5.0
 40
5.0
 10
176.0195746087729
 20
216.0500338544076
 30
0.0
 10
176.0195746087729
 20
216.0519286569245
 30
0.0
 10
176.0090670675429
 20
216.0629529624773
 30
0.0
 10
176.0090670675429
 20
216.0629529624773
 30
0.0
 10
176.0090670675429
 20
216.0629529624773
 30
0.0
 10
175.9928751187622
 20
216.0822454971947
 30
0.0
 10
175.9928751187622
 20
216.0822454971947
 30
0.0
 10
175.9928751187622
 20
216.0822454971947
 30
0.0
 10
175.9709987624309
 20
216.1073946942371
 30
0.0
 10
175.9709987624309
 20
216.1073946942371
 30
0.0
 10
175.9709987624309
 20
216.1073946942371
 30
0.0
 10
175.9408541769349
 20
216.1420179038638
 30
0.0
 10
175.9408541769349
 20
216.1420179038638
 30
0.0
 10
175.9408541769349
 20
216.1420179038638
 30
0.0
 10
175.9058864577596
 20
216.1835313044611
 30
0.0
 10
175.9058864577596
 20
216.1835313044611
 30
0.0
  0
ENDBLK
  5
2A0
330
29D
100
AcDbEntity
  8
0
100
AcDbBlockEnd
  0
BLOCK
  5
2A4
330
2A2
100
AcDbEntity
  8
0
100
AcDbBlockBegin
  2
block 67
 70
     0
 71
     0
 10
0.0
 20
0.0
 30
0.0
  3
block 67
  1

  0
POLYLINE
  5
2A6
330
2A2
100
AcDbEntity
  8
Livello 1
 62
     7
420
 16777215
370
     9
100
AcDb2dPolyline
 66
     1
 10
0.0
 20
0.0
 30
0.0
  0
VERTEX
  5
2A7
330
2A6
100
AcDbEntity
  8
Livello 1
 62
     7
420
 16777215
370
     9
100
AcDbVertex
100
AcDb2dVertex
 10
186.2652885819059
 20
210.8751559260139
 30
0.0
  0
VERTEX
  5
2A8
330
2A6
100
AcDbEntity
  8
Livello 1
 62
     7
420
 16777215
370
     9
100
AcDbVertex
100
AcDb2dVertex
 10
186.5052394824536
 20
210.8751559260139
 30
0.0
  0
VERTEX
  5
2A9
330
2A6
100
AcDbEntity
  8
Livello 1
 62
     7
420
 16777215
370
     9
100
AcDbVertex
100
AcDb2dVertex
 10
186.7212469693787
 20
210.8751559260139
 30
0.0
  0
VERTEX
  5
2AA
330
2A6
100
AcDbEntity
  8
Livello 1
 62
     7
420
 16777215
370
     9
100
AcDbVertex
100
AcDb2dVertex
 10
186.8935017436412
 20
210.8751559260139
 30
0.0
  0
VERTEX
  5
2AB
330
2A6
100
AcDbEntity
  8
Livello 1
 62
     7
420
 16777215
370
     9
100
AcDbVertex
100
AcDb2dVertex
 10
187.0047783278148
 20
210.8751559260139
 30
0.0
  0
VERTEX
  5
2AC
330
2A6
100
AcDbEntity
  8
Livello 1
 62
     7
420
 16777215
370
     9
100
AcDbVertex
100
AcDb2dVertex
 10
187.0419853590555
 20
210.8751559260139
 30
0.0
  0
SEQEND
  5
2AD
330
2A6
100
AcDbEntity
  8
Livello 1
370
     9
  0
ENDBLK
  5
2A5
330
2A2
100
AcDbEntity
  8
0
100
AcDbBlockEnd
  0
BLOCK
  5
2B0
330
2AE
100
AcDbEntity
  8
0
100
AcDbBlockBegin
  2
block 68
 70
     0
 71
     0
 10
0.0
 20
0.0
 30
0.0
  3
block 68
  1

  0
POLYLINE
  5
2B2
330
2AE
100
AcDbEntity
  8
Livello 1
 62
     7
420
 16777215
370
     9
100
AcDb2dPolyline
 66
     1
 10
0.0
 20
0.0
 30
0.0
  0
VERTEX
  5
2B3
330
2B2
100
AcDbEntity
  8
Livello 1
 62
     7
420
 16777215
370
     9
100
AcDbVertex
100
AcDb2dVertex
 10
185.4873860213365
 20
210.8751559260139
 30
0.0
  0
VERTEX
  5
2B4
330
2B2
100
AcDbEntity
  8
Livello 1
 62
     7
420
 16777215
370
     9
100
AcDbVertex
100
AcDb2dVertex
 10
185.5256265812228
 20
210.8751559260139
 30
0.0
  0
VERTEX
  5
2B5
330
2B2
100
AcDbEntity
  8
Livello 1
 62
     7
420
 16777215
370
     9
100
AcDbVertex
100
AcDb2dVertex
 10
185.6355251272022
 20
210.8751559260139
 30
0.0
  0
VERTEX
  5
2B6
330
2B2
100
AcDbEntity
  8
Livello 1
 62
     7
420
 16777215
370
     9
100
AcDbVertex
100
AcDb2dVertex
 10
185.8084689205618
 20
210.8751559260139
 30
0.0
  0
VERTEX
  5
2B7
330
2B2
100
AcDbEntity
  8
Livello 1
 62
     7
420
 16777215
370
     9
100
AcDbVertex
100
AcDb2dVertex
 10
186.025165426584
 20
210.8751559260139
 30
0.0
  0
VERTEX
  5
2B8
330
2B2
100
AcDbEntity
  8
Livello 1
 62
     7
420
 16777215
370
     9
100
AcDbVertex
100
AcDb2dVertex
 10
186.2652885819059
 20
210.8751559260139
 30
0.0
  0
SEQEND
  5
2B9
330
2B2
100
AcDbEntity
  8
Livello 1
370
     9
  0
ENDBLK
  5
2B1
330
2AE
100
AcDbEntity
  8
0
100
AcDbBlockEnd
  0
BLOCK
  5
2BC
330
2BA
100
AcDbEntity
  8
0
100
AcDbBlockBegin
  2
block 69
 70
     0
 71
     0
 10
0.0
 20
0.0
 30
0.0
  3
block 69
  1

  0
POLYLINE
  5
2BE
330
2BA
100
AcDbEntity
  8
Livello 1
 62
     7
420
 16777215
370
     9
100
AcDb2dPolyline
 66
     1
 10
0.0
 20
0.0
 30
0.0
  0
VERTEX
  5
2BF
330
2BE
100
AcDbEntity
  8
Livello 1
 62
     7
420
 16777215
370
     9
100
AcDbVertex
100
AcDb2dVertex
 10
186.2652885819059
 20
211.2064018569206
 30
0.0
  0
VERTEX
  5
2C0
330
2BE
100
AcDbEntity
  8
Livello 1
 62
     7
420
 16777215
370
     9
100
AcDbVertex
100
AcDb2dVertex
 10
186.4823295974766
 20
211.2064018569206
 30
0.0
  0
VERTEX
  5
2C1
330
2BE
100
AcDbEntity
  8
Livello 1
 62
     7
420
 16777215
370
     9
100
AcDbVertex
100
AcDb2dVertex
 10
186.6795613140072
 20
211.2064018569206
 30
0.0
  0
VERTEX
  5
2C2
330
2BE
100
AcDbEntity
  8
Livello 1
 62
     7
420
 16777215
370
     9
100
AcDbVertex
100
AcDb2dVertex
 10
186.8376911967802
 20
211.2064018569206
 30
0.0
  0
VERTEX
  5
2C3
330
2BE
100
AcDbEntity
  8
Livello 1
 62
     7
420
 16777215
370
     9
100
AcDbVertex
100
AcDb2dVertex
 10
186.9363931824326
 20
211.2064018569206
 30
0.0
  0
VERTEX
  5
2C4
330
2BE
100
AcDbEntity
  8
Livello 1
 62
     7
420
 16777215
370
     9
100
AcDbVertex
100
AcDb2dVertex
 10
186.9729111945762
 20
211.2064018569206
 30
0.0
  0
SEQEND
  5
2C5
330
2BE
100
AcDbEntity
  8
Livello 1
370
     9
  0
ENDBLK
  5
2BD
330
2BA
100
AcDbEntity
  8
0
100
AcDbBlockEnd
  0
BLOCK
  5
2C8
330
2C6
100
AcDbEntity
  8
0
100
AcDbBlockBegin
  2
block 70
 70
     0
 71
     0
 10
0.0
 20
0.0
 30
0.0
  3
block 70
  1

  0
POLYLINE
  5
2CA
330
2C6
100
AcDbEntity
  8
Livello 1
 62
     7
420
 16777215
370
     9
100
AcDb2dPolyline
 66
     1
 10
0.0
 20
0.0
 30
0.0
  0
VERTEX
  5
2CB
330
2CA
100
AcDbEntity
  8
Livello 1
 62
     7
420
 16777215
370
     9
100
AcDbVertex
100
AcDb2dVertex
 10
185.5568046953643
 20
211.2064018569206
 30
0.0
  0
VERTEX
  5
2CC
330
2CA
100
AcDbEntity
  8
Livello 1
 62
     7
420
 16777215
370
     9
100
AcDbVertex
100
AcDb2dVertex
 10
185.5926336884109
 20
211.2064018569206
 30
0.0
  0
VERTEX
  5
2CD
330
2CA
100
AcDbEntity
  8
Livello 1
 62
     7
420
 16777215
370
     9
100
AcDbVertex
100
AcDb2dVertex
 10
185.6927137122574
 20
211.2064018569206
 30
0.0
  0
VERTEX
  5
2CE
330
2CA
100
AcDbEntity
  8
Livello 1
 62
     7
420
 16777215
370
     9
100
AcDbVertex
100
AcDb2dVertex
 10
185.8494655568363
 20
211.2064018569206
 30
0.0
  0
VERTEX
  5
2CF
330
2CA
100
AcDbEntity
  8
Livello 1
 62
     7
420
 16777215
370
     9
100
AcDbVertex
100
AcDb2dVertex
 10
186.0465250185925
 20
211.2064018569206
 30
0.0
  0
VERTEX
  5
2D0
330
2CA
100
AcDbEntity
  8
Livello 1
 62
     7
420
 16777215
370
     9
100
AcDbVertex
100
AcDb2dVertex
 10
186.2652885819059
 20
211.2064018569206
 30
0.0
  0
SEQEND
  5
2D1
330
2CA
100
AcDbEntity
  8
Livello 1
370
     9
  0
ENDBLK
  5
2C9
330
2C6
100
AcDbEntity
  8
0
100
AcDbBlockEnd
  0
BLOCK
  5
2D4
330
2D2
100
AcDbEntity
  8
0
100
AcDbBlockBegin
  2
block 71
 70
     0
 71
     0
 10
0.0
 20
0.0
 30
0.0
  3
block 71
  1

  0
POLYLINE
  5
2D6
330
2D2
100
AcDbEntity
  8
Livello 1
 62
     7
420
 16777215
370
     9
100
AcDb2dPolyline
 66
     1
 10
0.0
 20
0.0
 30
0.0
  0
VERTEX
  5
2D7
330
2D6
100
AcDbEntity
  8
Livello 1
 62
     7
420
 16777215
370
     9
100
AcDbVertex
100
AcDb2dVertex
 10
186.6478664355429
 20
214.2818385966032
 30
0.0
  0
VERTEX
  5
2D8
330
2D6
100
AcDbEntity
  8
Livello 1
 62
     7
420
 16777215
370
     9
100
AcDbVertex
100
AcDb2dVertex
 10
186.6190998882411
 20
214.2818385966032
 30
0.0
  0
VERTEX
  5
2D9
330
2D6
100
AcDbEntity
  8
Livello 1
 62
     7
420
 16777215
370
     9
100
AcDbVertex
100
AcDb2dVertex
 10
186.5371066156921
 20
214.2818385966032
 30
0.0
  0
VERTEX
  5
2DA
330
2D6
100
AcDbEntity
  8
Livello 1
 62
     7
420
 16777215
370
     9
100
AcDbVertex
100
AcDb2dVertex
 10
186.4108438661577
 20
214.2818385966032
 30
0.0
  0
VERTEX
  5
2DB
330
2D6
100
AcDbEntity
  8
Livello 1
 62
     7
420
 16777215
370
     9
100
AcDbVertex
100
AcDb2dVertex
 10
186.2652885819059
 20
214.2818385966032
 30
0.0
  0
VERTEX
  5
2DC
330
2D6
100
AcDbEntity
  8
Livello 1
 62
     7
420
 16777215
370
     9
100
AcDbVertex
100
AcDb2dVertex
 10
186.1181830046857
 20
214.2818385966032
 30
0.0
  0
VERTEX
  5
2DD
330
2D6
100
AcDbEntity
  8
Livello 1
 62
     7
420
 16777215
370
     9
100
AcDbVertex
100
AcDb2dVertex
 10
185.9926092742484
 20
214.2818385966032
 30
0.0
  0
VERTEX
  5
2DE
330
2D6
100
AcDbEntity
  8
Livello 1
 62
     7
420
 16777215
370
     9
100
AcDbVertex
100
AcDb2dVertex
 10
185.9100992373766
 20
214.2818385966032
 30
0.0
  0
VERTEX
  5
2DF
330
2D6
100
AcDbEntity
  8
Livello 1
 62
     7
420
 16777215
370
     9
100
AcDbVertex
100
AcDb2dVertex
 10
185.8802991614292
 20
214.2818385966032
 30
0.0
  0
SEQEND
  5
2E0
330
2D6
100
AcDbEntity
  8
Livello 1
370
     9
  0
ENDBLK
  5
2D5
330
2D2
100
AcDbEntity
  8
0
100
AcDbBlockEnd
  0
BLOCK
  5
2E3
330
2E1
100
AcDbEntity
  8
0
100
AcDbBlockBegin
  2
block 72
 70
     0
 71
     0
 10
0.0
 20
0.0
 30
0.0
  3
block 72
  1

  0
POLYLINE
  5
2E5
330
2E1
100
AcDbEntity
  8
Livello 1
 62
     7
420
 16777215
370
     9
100
AcDb2dPolyline
 66
     1
 10
0.0
 20
0.0
 30
0.0
  0
VERTEX
  5
2E6
330
2E5
100
AcDbEntity
  8
Livello 1
 62
     7
420
 16777215
370
     9
100
AcDbVertex
100
AcDb2dVertex
 10
189.7959946899642
 20
202.3552625362167
 30
0.0
  0
VERTEX
  5
4E2
330
2E5
100
AcDbEntity
  8
0
100
AcDbVertex
100
AcDb2dVertex
 10
189.7959946899642
 20
202.3552625362167
 30
0.0
  0
SEQEND
  5
2E7
330
2E5
100
AcDbEntity
  8
Livello 1
370
     9
  0
ENDBLK
  5
2E4
330
2E1
100
AcDbEntity
  8
0
100
AcDbBlockEnd
  0
BLOCK
  5
2EA
330
2E8
100
AcDbEntity
  8
0
100
AcDbBlockBegin
  2
block 73
 70
     0
 71
     0
 10
0.0
 20
0.0
 30
0.0
  3
block 73
  1

  0
POLYLINE
  5
2EC
330
2E8
100
AcDbEntity
  8
Livello 1
 62
     7
420
 16777215
370
     9
100
AcDb2dPolyline
 66
     1
 10
0.0
 20
0.0
 30
0.0
  0
VERTEX
  5
2ED
330
2EC
100
AcDbEntity
  8
Livello 1
 62
     7
420
 16777215
370
     9
100
AcDbVertex
100
AcDb2dVertex
 10
189.4544134726017
 20
203.4091172451547
 30
0.0
  0
VERTEX
  5
2EE
330
2EC
100
AcDbEntity
  8
Livello 1
 62
     7
420
 16777215
370
     9
100
AcDbVertex
100
AcDb2dVertex
 10
187.0419853590555
 20
210.8751559260139
 30
0.0
  0
SEQEND
  5
2EF
330
2EC
100
AcDbEntity
  8
Livello 1
370
     9
  0
ENDBLK
  5
2EB
330
2E8
100
AcDbEntity
  8
0
100
AcDbBlockEnd
  0
BLOCK
  5
2F2
330
2F0
100
AcDbEntity
  8
0
100
AcDbBlockBegin
  2
block 74
 70
     0
 71
     0
 10
0.0
 20
0.0
 30
0.0
  3
block 74
  1

  0
POLYLINE
  5
2F4
330
2F0
100
AcDbEntity
  8
Livello 1
 62
     7
420
 16777215
370
     9
100
AcDb2dPolyline
 66
     1
 10
0.0
 20
0.0
 30
0.0
  0
VERTEX
  5
2F5
330
2F4
100
AcDbEntity
  8
Livello 1
 62
     7
420
 16777215
370
     9
100
AcDbVertex
100
AcDb2dVertex
 10
185.4873860213365
 20
210.8751559260139
 30
0.0
  0
VERTEX
  5
2F6
330
2F4
100
AcDbEntity
  8
Livello 1
 62
     7
420
 16777215
370
     9
100
AcDbVertex
100
AcDb2dVertex
 10
183.0759914364359
 20
203.4091172451547
 30
0.0
  0
SEQEND
  5
2F7
330
2F4
100
AcDbEntity
  8
Livello 1
370
     9
  0
ENDBLK
  5
2F3
330
2F0
100
AcDbEntity
  8
0
100
AcDbBlockEnd
  0
BLOCK
  5
2FA
330
2F8
100
AcDbEntity
  8
0
100
AcDbBlockBegin
  2
block 75
 70
     0
 71
     0
 10
0.0
 20
0.0
 30
0.0
  3
block 75
  1

  0
POLYLINE
  5
2FC
330
2F8
100
AcDbEntity
  8
Livello 1
 62
     7
420
 16777215
370
     9
100
AcDb2dPolyline
 66
     1
 10
0.0
 20
0.0
 30
0.0
  0
VERTEX
  5
2FD
330
2FC
100
AcDbEntity
  8
Livello 1
 62
     7
420
 16777215
370
     9
100
AcDbVertex
100
AcDb2dVertex
 10
182.7344102190733
 20
202.3557793005395
 30
0.0
  0
VERTEX
  5
4E3
330
2FC
100
AcDbEntity
  8
0
100
AcDbVertex
100
AcDb2dVertex
 10
182.7344102190733
 20
202.3557793005395
 30
0.0
  0
SEQEND
  5
2FE
330
2FC
100
AcDbEntity
  8
Livello 1
370
     9
  0
ENDBLK
  5
2FB
330
2F8
100
AcDbEntity
  8
0
100
AcDbBlockEnd
  0
BLOCK
  5
301
330
2FF
100
AcDbEntity
  8
0
100
AcDbBlockBegin
  2
block 76
 70
     0
 71
     0
 10
0.0
 20
0.0
 30
0.0
  3
block 76
  1

  0
POLYLINE
  5
303
330
2FF
100
AcDbEntity
  8
Livello 1
 62
     7
420
 16777215
370
     9
100
AcDb2dPolyline
 66
     1
 10
0.0
 20
0.0
 30
0.0
  0
VERTEX
  5
304
330
303
100
AcDbEntity
  8
Livello 1
 62
     7
420
 16777215
370
     9
100
AcDbVertex
100
AcDb2dVertex
 10
186.9729111945762
 20
211.2064018569206
 30
0.0
  0
VERTEX
  5
305
330
303
100
AcDbEntity
  8
Livello 1
 62
     7
420
 16777215
370
     9
100
AcDbVertex
100
AcDb2dVertex
 10
186.6494167285113
 20
214.2818385966032
 30
0.0
  0
SEQEND
  5
306
330
303
100
AcDbEntity
  8
Livello 1
370
     9
  0
ENDBLK
  5
302
330
2FF
100
AcDbEntity
  8
0
100
AcDbBlockEnd
  0
BLOCK
  5
309
330
307
100
AcDbEntity
  8
0
100
AcDbBlockBegin
  2
block 77
 70
     0
 71
     0
 10
0.0
 20
0.0
 30
0.0
  3
block 77
  1

  0
POLYLINE
  5
30B
330
307
100
AcDbEntity
  8
Livello 1
 62
     7
420
 16777215
370
     9
100
AcDb2dPolyline
 66
     1
 10
0.0
 20
0.0
 30
0.0
  0
VERTEX
  5
30C
330
30B
100
AcDbEntity
  8
Livello 1
 62
     7
420
 16777215
370
     9
100
AcDbVertex
100
AcDb2dVertex
 10
185.8802991614292
 20
214.2818385966032
 30
0.0
  0
VERTEX
  5
30D
330
30B
100
AcDbEntity
  8
Livello 1
 62
     7
420
 16777215
370
     9
100
AcDbVertex
100
AcDb2dVertex
 10
185.5568046953643
 20
211.2064018569206
 30
0.0
  0
SEQEND
  5
30E
330
30B
100
AcDbEntity
  8
Livello 1
370
     9
  0
ENDBLK
  5
30A
330
307
100
AcDbEntity
  8
0
100
AcDbBlockEnd
  0
BLOCK
  5
311
330
30F
100
AcDbEntity
  8
0
100
AcDbBlockBegin
  2
block 78
 70
     0
 71
     0
 10
0.0
 20
0.0
 30
0.0
  3
block 78
  1

  0
POLYLINE
  5
313
330
30F
100
AcDbEntity
  8
Livello 1
 62
     7
420
 16777215
370
     9
100
AcDb2dPolyline
 66
     1
 10
0.0
 20
0.0
 30
0.0
  0
VERTEX
  5
314
330
313
100
AcDbEntity
  8
Livello 1
 62
     7
420
 16777215
370
     9
100
AcDbVertex
100
AcDb2dVertex
 10
186.4284138531325
 20
214.306643284097
 30
0.0
  0
VERTEX
  5
315
330
313
100
AcDbEntity
  8
Livello 1
 62
     7
420
 16777215
370
     9
100
AcDbVertex
100
AcDb2dVertex
 10
186.4284138531325
 20
216.0877576499711
 30
0.0
  0
SEQEND
  5
316
330
313
100
AcDbEntity
  8
Livello 1
370
     9
  0
ENDBLK
  5
312
330
30F
100
AcDbEntity
  8
0
100
AcDbBlockEnd
  0
BLOCK
  5
319
330
317
100
AcDbEntity
  8
0
100
AcDbBlockBegin
  2
block 79
 70
     0
 71
     0
 10
0.0
 20
0.0
 30
0.0
  3
block 79
  1

  0
POLYLINE
  5
31B
330
317
100
AcDbEntity
  8
Livello 1
 62
     7
420
 16777215
370
     9
100
AcDb2dPolyline
 66
     1
 10
0.0
 20
0.0
 30
0.0
  0
VERTEX
  5
31C
330
31B
100
AcDbEntity
  8
Livello 1
 62
     7
420
 16777215
370
     9
100
AcDbVertex
100
AcDb2dVertex
 10
186.101302036808
 20
216.0877576499711
 30
0.0
  0
VERTEX
  5
31D
330
31B
100
AcDbEntity
  8
Livello 1
 62
     7
420
 16777215
370
     9
100
AcDbVertex
100
AcDb2dVertex
 10
186.101302036808
 20
214.306643284097
 30
0.0
  0
SEQEND
  5
31E
330
31B
100
AcDbEntity
  8
Livello 1
370
     9
  0
ENDBLK
  5
31A
330
317
100
AcDbEntity
  8
0
100
AcDbBlockEnd
  0
BLOCK
  5
321
330
31F
100
AcDbEntity
  8
0
100
AcDbBlockBegin
  2
block 80
 70
     0
 71
     0
 10
0.0
 20
0.0
 30
0.0
  3
block 80
  1

  0
POLYLINE
  5
323
330
31F
100
AcDbEntity
  8
Livello 1
 62
     7
420
 16777215
370
     9
100
AcDb2dPolyline
 66
     1
 10
0.0
 20
0.0
 30
0.0
  0
VERTEX
  5
324
330
323
100
AcDbEntity
  8
Livello 1
 62
     7
420
 16777215
370
     9
100
AcDbVertex
100
AcDb2dVertex
 10
176.0221584303868
 20
219.1824869243711
 30
0.0
  0
VERTEX
  5
325
330
323
100
AcDbEntity
  8
Livello 1
 62
     7
420
 16777215
370
     9
100
AcDbVertex
100
AcDb2dVertex
 10
175.9937363926335
 20
219.209358669156
 30
0.0
  0
SEQEND
  5
326
330
323
100
AcDbEntity
  8
Livello 1
370
     9
  0
ENDBLK
  5
322
330
31F
100
AcDbEntity
  8
0
100
AcDbBlockEnd
  0
BLOCK
  5
329
330
327
100
AcDbEntity
  8
0
100
AcDbBlockBegin
  2
block 81
 70
     0
 71
     0
 10
0.0
 20
0.0
 30
0.0
  3
block 81
  1

  0
POLYLINE
  5
32B
330
327
100
AcDbEntity
  8
Livello 1
 62
     7
420
 16777215
370
     9
100
AcDb2dPolyline
 66
     1
 10
0.0
 20
0.0
 30
0.0
  0
VERTEX
  5
32C
330
32B
100
AcDbEntity
  8
Livello 1
 62
     7
420
 16777215
370
     9
100
AcDbVertex
100
AcDb2dVertex
 10
175.1765597435323
 20
219.209358669156
 30
0.0
  0
VERTEX
  5
32D
330
32B
100
AcDbEntity
  8
Livello 1
 62
     7
420
 16777215
370
     9
100
AcDbVertex
100
AcDb2dVertex
 10
175.149515743973
 20
219.1824869243711
 30
0.0
  0
SEQEND
  5
32E
330
32B
100
AcDbEntity
  8
Livello 1
370
     9
  0
ENDBLK
  5
32A
330
327
100
AcDbEntity
  8
0
100
AcDbBlockEnd
  0
BLOCK
  5
331
330
32F
100
AcDbEntity
  8
0
100
AcDbBlockBegin
  2
block 82
 70
     0
 71
     0
 10
0.0
 20
0.0
 30
0.0
  3
block 82
  1

  0
POLYLINE
  5
333
330
32F
100
AcDbEntity
  8
Livello 1
 62
     7
420
 16777215
370
     9
100
AcDb2dPolyline
 66
     1
 10
0.0
 20
0.0
 30
0.0
  0
VERTEX
  5
334
330
333
100
AcDbEntity
  8
Livello 1
 62
     7
420
 16777215
370
     9
100
AcDbVertex
100
AcDb2dVertex
 10
173.8865437390805
 20
141.2403021565302
 30
0.0
  0
VERTEX
  5
335
330
333
100
AcDbEntity
  8
Livello 1
 62
     7
420
 16777215
370
     9
100
AcDbVertex
100
AcDb2dVertex
 10
173.8865437390805
 20
140.4241590360745
 30
0.0
  0
SEQEND
  5
336
330
333
100
AcDbEntity
  8
Livello 1
370
     9
  0
ENDBLK
  5
332
330
32F
100
AcDbEntity
  8
0
100
AcDbBlockEnd
  0
BLOCK
  5
339
330
337
100
AcDbEntity
  8
0
100
AcDbBlockBegin
  2
block 83
 70
     0
 71
     0
 10
0.0
 20
0.0
 30
0.0
  3
block 83
  1

  0
POLYLINE
  5
33B
330
337
100
AcDbEntity
  8
Livello 1
 62
     7
420
 16777215
370
     9
100
AcDb2dPolyline
 66
     1
 10
0.0
 20
0.0
 30
0.0
  0
VERTEX
  5
33C
330
33B
100
AcDbEntity
  8
Livello 1
 62
     7
420
 16777215
370
     9
100
AcDbVertex
100
AcDb2dVertex
 10
185.8730644609102
 20
140.4241590360745
 30
0.0
  0
VERTEX
  5
33D
330
33B
100
AcDbEntity
  8
Livello 1
 62
     7
420
 16777215
370
     9
100
AcDbVertex
100
AcDb2dVertex
 10
185.8730644609102
 20
141.2403021565302
 30
0.0
  0
SEQEND
  5
33E
330
33B
100
AcDbEntity
  8
Livello 1
370
     9
  0
ENDBLK
  5
33A
330
337
100
AcDbEntity
  8
0
100
AcDbBlockEnd
  0
BLOCK
  5
341
330
33F
100
AcDbEntity
  8
0
100
AcDbBlockBegin
  2
block 84
 70
     0
 71
     0
 10
0.0
 20
0.0
 30
0.0
  3
block 84
  1

  0
POLYLINE
  5
343
330
33F
100
AcDbEntity
  8
Livello 1
 62
     7
420
 16777215
370
     9
100
AcDb2dPolyline
 66
     1
 10
0.0
 20
0.0
 30
0.0
  0
VERTEX
  5
344
330
343
100
AcDbEntity
  8
Livello 1
 62
     7
420
 16777215
370
     9
100
AcDbVertex
100
AcDb2dVertex
 10
189.7978894924811
 20
202.3557793005395
 30
0.0
  0
VERTEX
  5
345
330
343
100
AcDbEntity
  8
Livello 1
 62
     7
420
 16777215
370
     9
100
AcDbVertex
100
AcDb2dVertex
 10
189.4551024916987
 20
203.4151461622538
 30
0.0
  0
SEQEND
  5
346
330
343
100
AcDbEntity
  8
Livello 1
370
     9
  0
ENDBLK
  5
342
330
33F
100
AcDbEntity
  8
0
100
AcDbBlockEnd
  0
BLOCK
  5
349
330
347
100
AcDbEntity
  8
0
100
AcDbBlockBegin
  2
block 85
 70
     0
 71
     0
 10
0.0
 20
0.0
 30
0.0
  3
block 85
  1

  0
POLYLINE
  5
34B
330
347
100
AcDbEntity
  8
Livello 1
 62
     7
420
 16777215
370
     9
100
AcDb2dPolyline
 66
     1
 10
0.0
 20
0.0
 30
0.0
  0
VERTEX
  5
34C
330
34B
100
AcDbEntity
  8
Livello 1
 62
     7
420
 16777215
370
     9
100
AcDbVertex
100
AcDb2dVertex
 10
183.0751301625646
 20
203.4151461622538
 30
0.0
  0
VERTEX
  5
34D
330
34B
100
AcDbEntity
  8
Livello 1
 62
     7
420
 16777215
370
     9
100
AcDbVertex
100
AcDb2dVertex
 10
182.7314818879109
 20
202.3557793005395
 30
0.0
  0
SEQEND
  5
34E
330
34B
100
AcDbEntity
  8
Livello 1
370
     9
  0
ENDBLK
  5
34A
330
347
100
AcDbEntity
  8
0
100
AcDbBlockEnd
  0
BLOCK
  5
351
330
34F
100
AcDbEntity
  8
0
100
AcDbBlockBegin
  2
block 86
 70
     0
 71
     0
 10
0.0
 20
0.0
 30
0.0
  3
block 86
  1

  0
POLYLINE
  5
353
330
34F
100
AcDbEntity
  8
Livello 1
 62
     7
420
 16777215
370
     9
100
AcDb2dPolyline
 66
     1
 10
0.0
 20
0.0
 30
0.0
  0
VERTEX
  5
354
330
353
100
AcDbEntity
  8
Livello 1
 62
     7
420
 16777215
370
     9
100
AcDbVertex
100
AcDb2dVertex
 10
172.7966877823217
 20
141.5128092094135
 30
0.0
  0
VERTEX
  5
355
330
353
100
AcDbEntity
  8
Livello 1
 62
     7
420
 16777215
370
     9
100
AcDbVertex
100
AcDb2dVertex
 10
172.7966877823217
 20
141.2403021565302
 30
0.0
  0
SEQEND
  5
356
330
353
100
AcDbEntity
  8
Livello 1
370
     9
  0
ENDBLK
  5
352
330
34F
100
AcDbEntity
  8
0
100
AcDbBlockEnd
  0
BLOCK
  5
359
330
357
100
AcDbEntity
  8
0
100
AcDbBlockBegin
  2
block 87
 70
     0
 71
     0
 10
0.0
 20
0.0
 30
0.0
  3
block 87
  1

  0
POLYLINE
  5
35B
330
357
100
AcDbEntity
  8
Livello 1
 62
     7
420
 16777215
370
     9
100
AcDb2dPolyline
 66
     1
 10
0.0
 20
0.0
 30
0.0
  0
VERTEX
  5
35C
330
35B
100
AcDbEntity
  8
Livello 1
 62
     7
420
 16777215
370
     9
100
AcDbVertex
100
AcDb2dVertex
 10
186.9625759081205
 20
141.2403021565302
 30
0.0
  0
VERTEX
  5
35D
330
35B
100
AcDbEntity
  8
Livello 1
 62
     7
420
 16777215
370
     9
100
AcDbVertex
100
AcDb2dVertex
 10
186.9625759081205
 20
141.5128092094135
 30
0.0
  0
SEQEND
  5
35E
330
35B
100
AcDbEntity
  8
Livello 1
370
     9
  0
ENDBLK
  5
35A
330
357
100
AcDbEntity
  8
0
100
AcDbBlockEnd
  0
BLOCK
  5
361
330
35F
100
AcDbEntity
  8
0
100
AcDbBlockBegin
  2
block 88
 70
     0
 71
     0
 10
0.0
 20
0.0
 30
0.0
  3
block 88
  1

  0
POLYLINE
  5
363
330
35F
100
AcDbEntity
  8
Livello 1
 62
     7
420
 16777215
370
     9
100
AcDb2dPolyline
 66
     1
 10
0.0
 20
0.0
 30
0.0
  0
VERTEX
  5
364
330
363
100
AcDbEntity
  8
Livello 1
 62
     7
420
 16777215
370
     9
100
AcDbVertex
100
AcDb2dVertex
 10
186.7823974142419
 20
216.0767333444183
 30
0.0
  0
VERTEX
  5
365
330
363
100
AcDbEntity
  8
Livello 1
 62
     7
420
 16777215
370
     9
100
AcDbVertex
100
AcDb2dVertex
 10
186.8096136685754
 20
216.1037773439775
 30
0.0
  0
SEQEND
  5
366
330
363
100
AcDbEntity
  8
Livello 1
370
     9
  0
ENDBLK
  5
362
330
35F
100
AcDbEntity
  8
0
100
AcDbBlockEnd
  0
BLOCK
  5
369
330
367
100
AcDbEntity
  8
0
100
AcDbBlockBegin
  2
block 89
 70
     0
 71
     0
 10
0.0
 20
0.0
 30
0.0
  3
block 89
  1

  0
POLYLINE
  5
36B
330
367
100
AcDbEntity
  8
Livello 1
 62
     7
420
 16777215
370
     9
100
AcDb2dPolyline
 66
     1
 10
0.0
 20
0.0
 30
0.0
  0
VERTEX
  5
36C
330
36B
100
AcDbEntity
  8
Livello 1
 62
     7
420
 16777215
370
     9
100
AcDbVertex
100
AcDb2dVertex
 10
186.8096136685754
 20
216.8666937391861
 30
0.0
  0
VERTEX
  5
36D
330
36B
100
AcDbEntity
  8
Livello 1
 62
     7
420
 16777215
370
     9
100
AcDbVertex
100
AcDb2dVertex
 10
186.7823974142419
 20
216.8939099935196
 30
0.0
  0
SEQEND
  5
36E
330
36B
100
AcDbEntity
  8
Livello 1
370
     9
  0
ENDBLK
  5
36A
330
367
100
AcDbEntity
  8
0
100
AcDbBlockEnd
  0
BLOCK
  5
371
330
36F
100
AcDbEntity
  8
0
100
AcDbBlockBegin
  2
block 90
 70
     0
 71
     0
 10
0.0
 20
0.0
 30
0.0
  3
block 90
  1

  0
POLYLINE
  5
373
330
36F
100
AcDbEntity
  8
Livello 1
 62
     7
420
 16777215
370
     9
100
AcDb2dPolyline
 66
     1
 10
0.0
 20
0.0
 30
0.0
  0
VERTEX
  5
374
330
373
100
AcDbEntity
  8
Livello 1
 62
     7
420
 16777215
370
     9
100
AcDbVertex
100
AcDb2dVertex
 10
186.4527017763035
 20
216.0767333444183
 30
0.0
  0
VERTEX
  5
375
330
373
100
AcDbEntity
  8
Livello 1
 62
     7
420
 16777215
370
     9
100
AcDbVertex
100
AcDb2dVertex
 10
186.7823974142419
 20
216.0767333444183
 30
0.0
  0
SEQEND
  5
376
330
373
100
AcDbEntity
  8
Livello 1
370
     9
  0
ENDBLK
  5
372
330
36F
100
AcDbEntity
  8
0
100
AcDbBlockEnd
  0
BLOCK
  5
379
330
377
100
AcDbEntity
  8
0
100
AcDbBlockBegin
  2
block 91
 70
     0
 71
     0
 10
0.0
 20
0.0
 30
0.0
  3
block 91
  1

  0
POLYLINE
  5
37B
330
377
100
AcDbEntity
  8
Livello 1
 62
     7
420
 16777215
370
     9
100
AcDb2dPolyline
 66
     1
 10
0.0
 20
0.0
 30
0.0
  0
VERTEX
  5
37C
330
37B
100
AcDbEntity
  8
Livello 1
 62
     7
420
 16777215
370
     9
100
AcDbVertex
100
AcDb2dVertex
 10
176.0469631178806
 20
216.0767333444183
 30
0.0
  0
VERTEX
  5
37D
330
37B
100
AcDbEntity
  8
Livello 1
 62
     7
420
 16777215
370
     9
100
AcDbVertex
100
AcDb2dVertex
 10
179.7986721013177
 20
216.0767333444183
 30
0.0
  0
SEQEND
  5
37E
330
37B
100
AcDbEntity
  8
Livello 1
370
     9
  0
ENDBLK
  5
37A
330
377
100
AcDbEntity
  8
0
100
AcDbBlockEnd
  0
BLOCK
  5
381
330
37F
100
AcDbEntity
  8
0
100
AcDbBlockBegin
  2
block 92
 70
     0
 71
     0
 10
0.0
 20
0.0
 30
0.0
  3
block 92
  1

  0
POLYLINE
  5
383
330
37F
100
AcDbEntity
  8
Livello 1
 62
     7
420
 16777215
370
     9
100
AcDb2dPolyline
 66
     1
 10
0.0
 20
0.0
 30
0.0
  0
VERTEX
  5
384
330
383
100
AcDbEntity
  8
Livello 1
 62
     7
420
 16777215
370
     9
100
AcDbVertex
100
AcDb2dVertex
 10
180.7050767234869
 20
216.0767333444183
 30
0.0
  0
VERTEX
  5
385
330
383
100
AcDbEntity
  8
Livello 1
 62
     7
420
 16777215
370
     9
100
AcDbVertex
100
AcDb2dVertex
 10
186.0771863684113
 20
216.0767333444183
 30
0.0
  0
SEQEND
  5
386
330
383
100
AcDbEntity
  8
Livello 1
370
     9
  0
ENDBLK
  5
382
330
37F
100
AcDbEntity
  8
0
100
AcDbBlockEnd
  0
BLOCK
  5
389
330
387
100
AcDbEntity
  8
0
100
AcDbBlockBegin
  2
block 93
 70
     0
 71
     0
 10
0.0
 20
0.0
 30
0.0
  3
block 93
  1

  0
POLYLINE
  5
38B
330
387
100
AcDbEntity
  8
Livello 1
 62
     7
420
 16777215
370
     9
100
AcDb2dPolyline
 66
     1
 10
0.0
 20
0.0
 30
0.0
  0
VERTEX
  5
38C
330
38B
100
AcDbEntity
  8
Livello 1
 62
     7
420
 16777215
370
     9
100
AcDbVertex
100
AcDb2dVertex
 10
186.0771863684113
 20
216.8939099935196
 30
0.0
  0
VERTEX
  5
38D
330
38B
100
AcDbEntity
  8
Livello 1
 62
     7
420
 16777215
370
     9
100
AcDbVertex
100
AcDb2dVertex
 10
182.2973998567694
 20
216.8939099935196
 30
0.0
  0
SEQEND
  5
38E
330
38B
100
AcDbEntity
  8
Livello 1
370
     9
  0
ENDBLK
  5
38A
330
387
100
AcDbEntity
  8
0
100
AcDbBlockEnd
  0
BLOCK
  5
391
330
38F
100
AcDbEntity
  8
0
100
AcDbBlockBegin
  2
block 94
 70
     0
 71
     0
 10
0.0
 20
0.0
 30
0.0
  3
block 94
  1

  0
POLYLINE
  5
393
330
38F
100
AcDbEntity
  8
Livello 1
 62
     7
420
 16777215
370
     9
100
AcDb2dPolyline
 66
     1
 10
0.0
 20
0.0
 30
0.0
  0
VERTEX
  5
394
330
393
100
AcDbEntity
  8
Livello 1
 62
     7
420
 16777215
370
     9
100
AcDbVertex
100
AcDb2dVertex
 10
181.5908107727447
 20
216.8939099935196
 30
0.0
  0
VERTEX
  5
395
330
393
100
AcDbEntity
  8
Livello 1
 62
     7
420
 16777215
370
     9
100
AcDbVertex
100
AcDb2dVertex
 10
176.0457573344608
 20
216.8939099935196
 30
0.0
  0
SEQEND
  5
396
330
393
100
AcDbEntity
  8
Livello 1
370
     9
  0
ENDBLK
  5
392
330
38F
100
AcDbEntity
  8
0
100
AcDbBlockEnd
  0
BLOCK
  5
399
330
397
100
AcDbEntity
  8
0
100
AcDbBlockBegin
  2
block 95
 70
     0
 71
     0
 10
0.0
 20
0.0
 30
0.0
  3
block 95
  1

  0
POLYLINE
  5
39B
330
397
100
AcDbEntity
  8
Livello 1
 62
     7
420
 16777215
370
     9
100
AcDb2dPolyline
 66
     1
 10
0.0
 20
0.0
 30
0.0
  0
VERTEX
  5
39C
330
39B
100
AcDbEntity
  8
Livello 1
 62
     7
420
 16777215
370
     9
100
AcDbVertex
100
AcDb2dVertex
 10
186.7823974142419
 20
216.8939099935196
 30
0.0
  0
VERTEX
  5
39D
330
39B
100
AcDbEntity
  8
Livello 1
 62
     7
420
 16777215
370
     9
100
AcDbVertex
100
AcDb2dVertex
 10
186.4499456999153
 20
216.8939099935196
 30
0.0
  0
SEQEND
  5
39E
330
39B
100
AcDbEntity
  8
Livello 1
370
     9
  0
ENDBLK
  5
39A
330
397
100
AcDbEntity
  8
0
100
AcDbBlockEnd
  0
BLOCK
  5
3A1
330
39F
100
AcDbEntity
  8
0
100
AcDbBlockBegin
  2
block 96
 70
     0
 71
     0
 10
0.0
 20
0.0
 30
0.0
  3
block 96
  1

  0
POLYLINE
  5
3A3
330
39F
100
AcDbEntity
  8
Livello 1
 62
     7
420
 16777215
370
     9
100
AcDb2dPolyline
 66
     1
 10
0.0
 20
0.0
 30
0.0
  0
VERTEX
  5
3A4
330
3A3
100
AcDbEntity
  8
Livello 1
 62
     7
420
 16777215
370
     9
100
AcDbVertex
100
AcDb2dVertex
 10
175.149515743973
 20
219.1824869243711
 30
0.0
  0
VERTEX
  5
3A5
330
3A3
100
AcDbEntity
  8
Livello 1
 62
     7
420
 16777215
370
     9
100
AcDbVertex
100
AcDb2dVertex
 10
175.149515743973
 20
141.5665526989834
 30
0.0
  0
SEQEND
  5
3A6
330
3A3
100
AcDbEntity
  8
Livello 1
370
     9
  0
ENDBLK
  5
3A2
330
39F
100
AcDbEntity
  8
0
100
AcDbBlockEnd
  0
BLOCK
  5
3A9
330
3A7
100
AcDbEntity
  8
0
100
AcDbBlockBegin
  2
block 97
 70
     0
 71
     0
 10
0.0
 20
0.0
 30
0.0
  3
block 97
  1

  0
POLYLINE
  5
3AB
330
3A7
100
AcDbEntity
  8
Livello 1
 62
     7
420
 16777215
370
     9
100
AcDb2dPolyline
 66
     1
 10
0.0
 20
0.0
 30
0.0
  0
VERTEX
  5
3AC
330
3AB
100
AcDbEntity
  8
Livello 1
 62
     7
420
 16777215
370
     9
100
AcDbVertex
100
AcDb2dVertex
 10
176.0221584303868
 20
216.9183701714649
 30
0.0
  0
VERTEX
  5
3AD
330
3AB
100
AcDbEntity
  8
Livello 1
 62
     7
420
 16777215
370
     9
100
AcDbVertex
100
AcDb2dVertex
 10
176.0221584303868
 20
219.1824869243711
 30
0.0
  0
SEQEND
  5
3AE
330
3AB
100
AcDbEntity
  8
Livello 1
370
     9
  0
ENDBLK
  5
3AA
330
3A7
100
AcDbEntity
  8
0
100
AcDbBlockEnd
  0
BLOCK
  5
3B1
330
3AF
100
AcDbEntity
  8
0
100
AcDbBlockBegin
  2
block 98
 70
     0
 71
     0
 10
0.0
 20
0.0
 30
0.0
  3
block 98
  1

  0
POLYLINE
  5
3B3
330
3AF
100
AcDbEntity
  8
Livello 1
 62
     7
420
 16777215
370
     9
100
AcDb2dPolyline
 66
     1
 10
0.0
 20
0.0
 30
0.0
  0
VERTEX
  5
3B4
330
3B3
100
AcDbEntity
  8
Livello 1
 62
     7
420
 16777215
370
     9
100
AcDbVertex
100
AcDb2dVertex
 10
176.0221584303868
 20
215.8540079212969
 30
0.0
  0
VERTEX
  5
3B5
330
3B3
100
AcDbEntity
  8
Livello 1
 62
     7
420
 16777215
370
     9
100
AcDbVertex
100
AcDb2dVertex
 10
176.0221584303868
 20
216.0510673830532
 30
0.0
  0
SEQEND
  5
3B6
330
3B3
100
AcDbEntity
  8
Livello 1
370
     9
  0
ENDBLK
  5
3B2
330
3AF
100
AcDbEntity
  8
0
100
AcDbBlockEnd
  0
BLOCK
  5
3B9
330
3B7
100
AcDbEntity
  8
0
100
AcDbBlockBegin
  2
block 99
 70
     0
 71
     0
 10
0.0
 20
0.0
 30
0.0
  3
block 99
  1

  0
POLYLINE
  5
3BB
330
3B7
100
AcDbEntity
  8
Livello 1
 62
     7
420
 16777215
370
     9
100
AcDb2dPolyline
 66
     1
 10
0.0
 20
0.0
 30
0.0
  0
VERTEX
  5
3BC
330
3BB
100
AcDbEntity
  8
Livello 1
 62
     7
420
 16777215
370
     9
100
AcDbVertex
100
AcDb2dVertex
 10
176.0221584303868
 20
141.5665526989834
 30
0.0
  0
VERTEX
  5
3BD
330
3BB
100
AcDbEntity
  8
Livello 1
 62
     7
420
 16777215
370
     9
100
AcDbVertex
100
AcDb2dVertex
 10
176.0221584303868
 20
215.4810763350186
 30
0.0
  0
SEQEND
  5
3BE
330
3BB
100
AcDbEntity
  8
Livello 1
370
     9
  0
ENDBLK
  5
3BA
330
3B7
100
AcDbEntity
  8
0
100
AcDbBlockEnd
  0
BLOCK
  5
3C1
330
3BF
100
AcDbEntity
  8
0
100
AcDbBlockBegin
  2
block 100
 70
     0
 71
     0
 10
0.0
 20
0.0
 30
0.0
  3
block 100
  1

  0
POLYLINE
  5
3C3
330
3BF
100
AcDbEntity
  8
Livello 1
 62
     7
420
 16777215
370
     9
100
AcDb2dPolyline
 66
     1
 10
0.0
 20
0.0
 30
0.0
  0
VERTEX
  5
3C4
330
3C3
100
AcDbEntity
  8
Livello 1
 62
     7
420
 16777215
370
     9
100
AcDbVertex
100
AcDb2dVertex
 10
186.4265190506156
 20
216.8741006944794
 30
0.0
  0
VERTEX
  5
3C5
330
3C3
100
AcDbEntity
  8
Livello 1
 62
     7
420
 16777215
370
     9
100
AcDbVertex
100
AcDb2dVertex
 10
186.397924758088
 20
217.0386040039001
 30
0.0
  0
VERTEX
  5
3C6
330
3C3
100
AcDbEntity
  8
Livello 1
 62
     7
420
 16777215
370
     9
100
AcDbVertex
100
AcDb2dVertex
 10
186.3660576248495
 20
217.1350666774871
 30
0.0
  0
VERTEX
  5
3C7
330
3C3
100
AcDbEntity
  8
Livello 1
 62
     7
420
 16777215
370
     9
100
AcDbVertex
100
AcDb2dVertex
 10
186.3231661860581
 20
217.2280842555888
 30
0.0
  0
VERTEX
  5
3C8
330
3C3
100
AcDbEntity
  8
Livello 1
 62
     7
420
 16777215
370
     9
100
AcDbVertex
100
AcDb2dVertex
 10
186.2761406326844
 20
217.3080104708466
 30
0.0
  0
VERTEX
  5
3C9
330
3C3
100
AcDbEntity
  8
Livello 1
 62
     7
420
 16777215
370
     9
100
AcDbVertex
100
AcDb2dVertex
 10
186.2229139074373
 20
217.3831135524251
 30
0.0
  0
VERTEX
  5
3CA
330
3C3
100
AcDbEntity
  8
Livello 1
 62
     7
420
 16777215
370
     9
100
AcDbVertex
100
AcDb2dVertex
 10
186.1708929656101
 20
217.4465033093537
 30
0.0
  0
VERTEX
  5
3CB
330
3C3
100
AcDbEntity
  8
Livello 1
 62
     7
420
 16777215
370
     9
100
AcDbVertex
100
AcDb2dVertex
 10
186.1149101639747
 20
217.5069647351198
 30
0.0
  0
VERTEX
  5
3CC
330
3C3
100
AcDbEntity
  8
Livello 1
 62
     7
420
 16777215
370
     9
100
AcDbVertex
100
AcDb2dVertex
 10
186.0127630828371
 20
217.5998100584473
 30
0.0
  0
VERTEX
  5
3CD
330
3C3
100
AcDbEntity
  8
Livello 1
 62
     7
420
 16777215
370
     9
100
AcDbVertex
100
AcDb2dVertex
 10
185.9028645368576
 20
217.6835258787389
 30
0.0
  0
VERTEX
  5
3CE
330
3C3
100
AcDbEntity
  8
Livello 1
 62
     7
420
 16777215
370
     9
100
AcDbVertex
100
AcDb2dVertex
 10
185.8175984235977
 20
217.7386474065028
 30
0.0
  0
VERTEX
  5
3CF
330
3C3
100
AcDbEntity
  8
Livello 1
 62
     7
420
 16777215
370
     9
100
AcDbVertex
100
AcDb2dVertex
 10
185.7297484887238
 20
217.7903238387816
 30
0.0
  0
VERTEX
  5
3D0
330
3C3
100
AcDbEntity
  8
Livello 1
 62
     7
420
 16777215
370
     9
100
AcDbVertex
100
AcDb2dVertex
 10
185.6720431393459
 20
217.8202961695033
 30
0.0
  0
VERTEX
  5
3D1
330
3C3
100
AcDbEntity
  8
Livello 1
 62
     7
420
 16777215
370
     9
100
AcDbVertex
100
AcDb2dVertex
 10
185.6134765160966
 20
217.8487182072566
 30
0.0
  0
VERTEX
  5
3D2
330
3C3
100
AcDbEntity
  8
Livello 1
 62
     7
420
 16777215
370
     9
100
AcDbVertex
100
AcDb2dVertex
 10
185.5568046953643
 20
217.8740396590732
 30
0.0
  0
VERTEX
  5
3D3
330
3C3
100
AcDbEntity
  8
Livello 1
 62
     7
420
 16777215
370
     9
100
AcDbVertex
100
AcDb2dVertex
 10
185.5001328746319
 20
217.8974663083729
 30
0.0
  0
VERTEX
  5
3D4
330
3C3
100
AcDbEntity
  8
Livello 1
 62
     7
420
 16777215
370
     9
100
AcDbVertex
100
AcDb2dVertex
 10
185.4332980222181
 20
217.9222709958667
 30
0.0
  0
VERTEX
  5
3D5
330
3C3
100
AcDbEntity
  8
Livello 1
 62
     7
420
 16777215
370
     9
100
AcDbVertex
100
AcDb2dVertex
 10
185.3656018959329
 20
217.9462144094892
 30
0.0
  0
VERTEX
  5
3D6
330
3C3
100
AcDbEntity
  8
Livello 1
 62
     7
420
 16777215
370
     9
100
AcDbVertex
100
AcDb2dVertex
 10
185.2882595022891
 20
217.9696410587889
 30
0.0
  0
VERTEX
  5
3D7
330
3C3
100
AcDbEntity
  8
Livello 1
 62
     7
420
 16777215
370
     9
100
AcDbVertex
100
AcDb2dVertex
 10
185.2100558347739
 20
217.9903116317003
 30
0.0
  0
VERTEX
  5
3D8
330
3C3
100
AcDbEntity
  8
Livello 1
 62
     7
420
 16777215
370
     9
100
AcDbVertex
100
AcDb2dVertex
 10
185.0293605765725
 20
218.0249348413271
 30
0.0
  0
VERTEX
  5
3D9
330
3C3
100
AcDbEntity
  8
Livello 1
 62
     7
420
 16777215
370
     9
100
AcDbVertex
100
AcDb2dVertex
 10
184.8472872801771
 20
218.0443996308188
 30
0.0
  0
VERTEX
  5
3DA
330
3C3
100
AcDbEntity
  8
Livello 1
 62
     7
420
 16777215
370
     9
100
AcDbVertex
100
AcDb2dVertex
 10
184.6579792832626
 20
218.0476724715298
 30
0.0
  0
VERTEX
  5
3DB
330
3C3
100
AcDbEntity
  8
Livello 1
 62
     7
420
 16777215
370
     9
100
AcDbVertex
100
AcDb2dVertex
 10
184.469877069768
 20
218.0349256182343
 30
0.0
  0
VERTEX
  5
3DC
330
3C3
100
AcDbEntity
  8
Livello 1
 62
     7
420
 16777215
370
     9
100
AcDbVertex
100
AcDb2dVertex
 10
184.3067517985414
 20
218.0135660262258
 30
0.0
  0
VERTEX
  5
3DD
330
3C3
100
AcDbEntity
  8
Livello 1
 62
     7
420
 16777215
370
     9
100
AcDbVertex
100
AcDb2dVertex
 10
184.1453490750574
 20
217.9827324216328
 30
0.0
  0
VERTEX
  5
3DE
330
3C3
100
AcDbEntity
  8
Livello 1
 62
     7
420
 16777215
370
     9
100
AcDbVertex
100
AcDb2dVertex
 10
184.0066839817761
 20
217.9491427406516
 30
0.0
  0
VERTEX
  5
3DF
330
3C3
100
AcDbEntity
  8
Livello 1
 62
     7
420
 16777215
370
     9
100
AcDbVertex
100
AcDb2dVertex
 10
183.8676743789463
 20
217.9103854164426
 30
0.0
  0
VERTEX
  5
3E0
330
3C3
100
AcDbEntity
  8
Livello 1
 62
     7
420
 16777215
370
     9
100
AcDbVertex
100
AcDb2dVertex
 10
183.7484740751567
 20
217.8740396590732
 30
0.0
  0
VERTEX
  5
3E1
330
3C3
100
AcDbEntity
  8
Livello 1
 62
     7
420
 16777215
370
     9
100
AcDbVertex
100
AcDb2dVertex
 10
183.6296182809155
 20
217.8344210609928
 30
0.0
  0
VERTEX
  5
3E2
330
3C3
100
AcDbEntity
  8
Livello 1
 62
     7
420
 16777215
370
     9
100
AcDbVertex
100
AcDb2dVertex
 10
183.4993936715731
 20
217.7894625649103
 30
0.0
  0
VERTEX
  5
3E3
330
3C3
100
AcDbEntity
  8
Livello 1
 62
     7
420
 16777215
370
     9
100
AcDbVertex
100
AcDb2dVertex
 10
183.3679632788108
 20
217.7403699542455
 30
0.0
  0
VERTEX
  5
3E4
330
3C3
100
AcDbEntity
  8
Livello 1
 62
     7
420
 16777215
370
     9
100
AcDbVertex
100
AcDb2dVertex
 10
183.2156900583628
 20
217.6824923500933
 30
0.0
  0
VERTEX
  5
3E5
330
3C3
100
AcDbEntity
  8
Livello 1
 62
     7
420
 16777215
370
     9
100
AcDbVertex
100
AcDb2dVertex
 10
183.0639336022375
 20
217.6194471027132
 30
0.0
  0
VERTEX
  5
3E6
330
3C3
100
AcDbEntity
  8
Livello 1
 62
     7
420
 16777215
370
     9
100
AcDbVertex
100
AcDb2dVertex
 10
182.8918510827493
 20
217.5441717663605
 30
0.0
  0
VERTEX
  5
3E7
330
3C3
100
AcDbEntity
  8
Livello 1
 62
     7
420
 16777215
370
     9
100
AcDbVertex
100
AcDb2dVertex
 10
182.7195963084868
 20
217.4668293727166
 30
0.0
  0
VERTEX
  5
3E8
330
3C3
100
AcDbEntity
  8
Livello 1
 62
     7
420
 16777215
370
     9
100
AcDbVertex
100
AcDb2dVertex
 10
182.4784396245193
 20
217.3510741644122
 30
0.0
  0
VERTEX
  5
3E9
330
3C3
100
AcDbEntity
  8
Livello 1
 62
     7
420
 16777215
370
     9
100
AcDbVertex
100
AcDb2dVertex
 10
182.2371106857775
 20
217.2320461153969
 30
0.0
  0
VERTEX
  5
3EA
330
3C3
100
AcDbEntity
  8
Livello 1
 62
     7
420
 16777215
370
     9
100
AcDbVertex
100
AcDb2dVertex
 10
182.0011216450379
 20
217.110089735219
 30
0.0
  0
VERTEX
  5
3EB
330
3C3
100
AcDbEntity
  8
Livello 1
 62
     7
420
 16777215
370
     9
100
AcDbVertex
100
AcDb2dVertex
 10
181.764960349524
 20
216.9869275716213
 30
0.0
  0
VERTEX
  5
3EC
330
3C3
100
AcDbEntity
  8
Livello 1
 62
     7
420
 16777215
370
     9
100
AcDbVertex
100
AcDb2dVertex
 10
181.5355169902064
 20
216.8647989366692
 30
0.0
  0
VERTEX
  5
3ED
330
3C3
100
AcDbEntity
  8
Livello 1
 62
     7
420
 16777215
370
     9
100
AcDbVertex
100
AcDb2dVertex
 10
181.3067626499858
 20
216.7428425564914
 30
0.0
  0
VERTEX
  5
3EE
330
3C3
100
AcDbEntity
  8
Livello 1
 62
     7
420
 16777215
370
     9
100
AcDbVertex
100
AcDb2dVertex
 10
181.1026407424848
 20
216.6362168512229
 30
0.0
  0
VERTEX
  5
3EF
330
3C3
100
AcDbEntity
  8
Livello 1
 62
     7
420
 16777215
370
     9
100
AcDbVertex
100
AcDb2dVertex
 10
180.8992078540808
 20
216.5304524198257
 30
0.0
  0
VERTEX
  5
3F0
330
3C3
100
AcDbEntity
  8
Livello 1
 62
     7
420
 16777215
370
     9
100
AcDbVertex
100
AcDb2dVertex
 10
180.7243692582043
 20
216.4444972874687
 30
0.0
  0
VERTEX
  5
3F1
330
3C3
100
AcDbEntity
  8
Livello 1
 62
     7
420
 16777215
370
     9
100
AcDbVertex
100
AcDb2dVertex
 10
180.5490138980051
 20
216.3611259767257
 30
0.0
  0
VERTEX
  5
3F2
330
3C3
100
AcDbEntity
  8
Livello 1
 62
     7
420
 16777215
370
     9
100
AcDbVertex
100
AcDb2dVertex
 10
180.371074716192
 20
216.2815442710164
 30
0.0
  0
VERTEX
  5
3F3
330
3C3
100
AcDbEntity
  8
Livello 1
 62
     7
420
 16777215
370
     9
100
AcDbVertex
100
AcDb2dVertex
 10
180.1908962223134
 20
216.2076469728578
 30
0.0
  0
VERTEX
  5
3F4
330
3C3
100
AcDbEntity
  8
Livello 1
 62
     7
420
 16777215
370
     9
100
AcDbVertex
100
AcDb2dVertex
 10
179.991769703266
 20
216.1356444772161
 30
0.0
  0
VERTEX
  5
3F5
330
3C3
100
AcDbEntity
  8
Livello 1
 62
     7
420
 16777215
370
     9
100
AcDbVertex
100
AcDb2dVertex
 10
179.7864420123451
 20
216.0729437393846
 30
0.0
  0
VERTEX
  5
3F6
330
3C3
100
AcDbEntity
  8
Livello 1
 62
     7
420
 16777215
370
     9
100
AcDbVertex
100
AcDb2dVertex
 10
179.5766356972933
 20
216.0202337784602
 30
0.0
  0
VERTEX
  5
3F7
330
3C3
100
AcDbEntity
  8
Livello 1
 62
     7
420
 16777215
370
     9
100
AcDbVertex
100
AcDb2dVertex
 10
179.3621785033365
 20
215.976136556249
 30
0.0
  0
VERTEX
  5
3F8
330
3C3
100
AcDbEntity
  8
Livello 1
 62
     7
420
 16777215
370
     9
100
AcDbVertex
100
AcDb2dVertex
 10
179.1442762138945
 20
215.940652072751
 30
0.0
  0
VERTEX
  5
3F9
330
3C3
100
AcDbEntity
  8
Livello 1
 62
     7
420
 16777215
370
     9
100
AcDbVertex
100
AcDb2dVertex
 10
178.9239623576128
 20
215.913091308869
 30
0.0
  0
VERTEX
  5
3FA
330
3C3
100
AcDbEntity
  8
Livello 1
 62
     7
420
 16777215
370
     9
100
AcDbVertex
100
AcDb2dVertex
 10
178.6728148967381
 20
215.8906981882148
 30
0.0
  0
VERTEX
  5
3FB
330
3C3
100
AcDbEntity
  8
Livello 1
 62
     7
420
 16777215
370
     9
100
AcDbVertex
100
AcDb2dVertex
 10
178.4216674358634
 20
215.8765732967253
 30
0.0
  0
VERTEX
  5
3FC
330
3C3
100
AcDbEntity
  8
Livello 1
 62
     7
420
 16777215
370
     9
100
AcDbVertex
100
AcDb2dVertex
 10
178.1694864463431
 20
215.8679605580122
 30
0.0
  0
VERTEX
  5
3FD
330
3C3
100
AcDbEntity
  8
Livello 1
 62
     7
420
 16777215
370
     9
100
AcDbVertex
100
AcDb2dVertex
 10
177.9171332020485
 20
215.8660657554953
 30
0.0
  0
VERTEX
  5
3FE
330
3C3
100
AcDbEntity
  8
Livello 1
 62
     7
420
 16777215
370
     9
100
AcDbVertex
100
AcDb2dVertex
 10
177.6809719065346
 20
215.8679605580122
 30
0.0
  0
VERTEX
  5
3FF
330
3C3
100
AcDbEntity
  8
Livello 1
 62
     7
420
 16777215
370
     9
100
AcDbVertex
100
AcDb2dVertex
 10
177.4439493371494
 20
215.8720946725945
 30
0.0
  0
VERTEX
  5
400
330
3C3
100
AcDbEntity
  8
Livello 1
 62
     7
420
 16777215
370
     9
100
AcDbVertex
100
AcDb2dVertex
 10
177.3578219500182
 20
215.8741617298856
 30
0.0
  0
VERTEX
  5
401
330
3C3
100
AcDbEntity
  8
Livello 1
 62
     7
420
 16777215
370
     9
100
AcDbVertex
100
AcDb2dVertex
 10
177.2729003463068
 20
215.8755397680797
 30
0.0
  0
VERTEX
  5
402
330
3C3
100
AcDbEntity
  8
Livello 1
 62
     7
420
 16777215
370
     9
100
AcDbVertex
100
AcDb2dVertex
 10
177.1707532651691
 20
215.8777790801452
 30
0.0
  0
VERTEX
  5
403
330
3C3
100
AcDbEntity
  8
Livello 1
 62
     7
420
 16777215
370
     9
100
AcDbVertex
100
AcDb2dVertex
 10
177.069639712677
 20
215.879673882662
 30
0.0
  0
VERTEX
  5
404
330
3C3
100
AcDbEntity
  8
Livello 1
 62
     7
420
 16777215
370
     9
100
AcDbVertex
100
AcDb2dVertex
 10
176.9337306957839
 20
215.879673882662
 30
0.0
  0
VERTEX
  5
405
330
3C3
100
AcDbEntity
  8
Livello 1
 62
     7
420
 16777215
370
     9
100
AcDbVertex
100
AcDb2dVertex
 10
176.7974771693423
 20
215.879673882662
 30
0.0
  0
VERTEX
  5
406
330
3C3
100
AcDbEntity
  8
Livello 1
 62
     7
420
 16777215
370
     9
100
AcDbVertex
100
AcDb2dVertex
 10
176.6262559237254
 20
215.8777790801452
 30
0.0
  0
VERTEX
  5
407
330
3C3
100
AcDbEntity
  8
Livello 1
 62
     7
420
 16777215
370
     9
100
AcDbVertex
100
AcDb2dVertex
 10
176.4543456590114
 20
215.8700276153033
 30
0.0
  0
VERTEX
  5
408
330
3C3
100
AcDbEntity
  8
Livello 1
 62
     7
420
 16777215
370
     9
100
AcDbVertex
100
AcDb2dVertex
 10
176.247984439445
 20
215.8529743926514
 30
0.0
  0
VERTEX
  5
409
330
3C3
100
AcDbEntity
  8
Livello 1
 62
     7
420
 16777215
370
     9
100
AcDbVertex
100
AcDb2dVertex
 10
176.0436902771696
 20
215.8362656795479
 30
0.0
  0
VERTEX
  5
40A
330
3C3
100
AcDbEntity
  8
Livello 1
 62
     7
420
 16777215
370
     9
100
AcDbVertex
100
AcDb2dVertex
 10
176.0238809781295
 20
215.8350598961281
 30
0.0
  0
SEQEND
  5
40B
330
3C3
100
AcDbEntity
  8
Livello 1
370
     9
  0
ENDBLK
  5
3C2
330
3BF
100
AcDbEntity
  8
0
100
AcDbBlockEnd
  0
BLOCK
  5
40E
330
40C
100
AcDbEntity
  8
0
100
AcDbBlockBegin
  2
block 101
 70
     0
 71
     0
 10
0.0
 20
0.0
 30
0.0
  3
block 101
  1

  0
POLYLINE
  5
410
330
40C
100
AcDbEntity
  8
Livello 1
 62
     7
420
 16777215
370
     9
100
AcDb2dPolyline
 66
     1
 10
0.0
 20
0.0
 30
0.0
  0
VERTEX
  5
411
330
410
100
AcDbEntity
  8
Livello 1
 62
     7
420
 16777215
370
     9
100
AcDbVertex
100
AcDb2dVertex
 10
176.0168185323847
 20
215.5055365129639
 30
0.0
  0
VERTEX
  5
412
330
410
100
AcDbEntity
  8
Livello 1
 62
     7
420
 16777215
370
     9
100
AcDbVertex
100
AcDb2dVertex
 10
176.0318046977455
 20
215.5077758250293
 30
0.0
  0
VERTEX
  5
413
330
410
100
AcDbEntity
  8
Livello 1
 62
     7
420
 16777215
370
     9
100
AcDbVertex
100
AcDb2dVertex
 10
176.2302421976959
 20
215.5237955190357
 30
0.0
  0
VERTEX
  5
414
330
410
100
AcDbEntity
  8
Livello 1
 62
     7
420
 16777215
370
     9
100
AcDbVertex
100
AcDb2dVertex
 10
176.4281629333235
 20
215.5406764869134
 30
0.0
  0
VERTEX
  5
415
330
410
100
AcDbEntity
  8
Livello 1
 62
     7
420
 16777215
370
     9
100
AcDbVertex
100
AcDb2dVertex
 10
176.6085136819763
 20
215.548944716078
 30
0.0
  0
VERTEX
  5
416
330
410
100
AcDbEntity
  8
Livello 1
 62
     7
420
 16777215
370
     9
100
AcDbVertex
100
AcDb2dVertex
 10
176.7883476663064
 20
215.5529065758861
 30
0.0
  0
VERTEX
  5
417
330
410
100
AcDbEntity
  8
Livello 1
 62
     7
420
 16777215
370
     9
100
AcDbVertex
100
AcDb2dVertex
 10
176.9544012686954
 20
215.5529065758861
 30
0.0
  0
VERTEX
  5
418
330
410
100
AcDbEntity
  8
Livello 1
 62
     7
420
 16777215
370
     9
100
AcDbVertex
100
AcDb2dVertex
 10
177.1195935972132
 20
215.5508395185949
 30
0.0
  0
VERTEX
  5
419
330
410
100
AcDbEntity
  8
Livello 1
 62
     7
420
 16777215
370
     9
100
AcDbVertex
100
AcDb2dVertex
 10
177.2718668176612
 20
215.548944716078
 30
0.0
  0
VERTEX
  5
41A
330
410
100
AcDbEntity
  8
Livello 1
 62
     7
420
 16777215
370
     9
100
AcDbVertex
100
AcDb2dVertex
 10
177.4236232737865
 20
215.5453273658185
 30
0.0
  0
VERTEX
  5
41B
330
410
100
AcDbEntity
  8
Livello 1
 62
     7
420
 16777215
370
     9
100
AcDbVertex
100
AcDb2dVertex
 10
177.5610825836479
 20
215.5432603085274
 30
0.0
  0
VERTEX
  5
41C
330
410
100
AcDbEntity
  8
Livello 1
 62
     7
420
 16777215
370
     9
100
AcDbVertex
100
AcDb2dVertex
 10
177.6980251291866
 20
215.5406764869134
 30
0.0
  0
VERTEX
  5
41D
330
410
100
AcDbEntity
  8
Livello 1
 62
     7
420
 16777215
370
     9
100
AcDbVertex
100
AcDb2dVertex
 10
177.820326018913
 20
215.5398152130421
 30
0.0
  0
VERTEX
  5
41E
330
410
100
AcDbEntity
  8
Livello 1
 62
     7
420
 16777215
370
     9
100
AcDbVertex
100
AcDb2dVertex
 10
177.9421101443166
 20
215.5398152130421
 30
0.0
  0
VERTEX
  5
41F
330
410
100
AcDbEntity
  8
Livello 1
 62
     7
420
 16777215
370
     9
100
AcDbVertex
100
AcDb2dVertex
 10
178.1305568673597
 20
215.5406764869134
 30
0.0
  0
VERTEX
  5
420
330
410
100
AcDbEntity
  8
Livello 1
 62
     7
420
 16777215
370
     9
100
AcDbVertex
100
AcDb2dVertex
 10
178.3174532974345
 20
215.5453273658185
 30
0.0
  0
VERTEX
  5
421
330
410
100
AcDbEntity
  8
Livello 1
 62
     7
420
 16777215
370
     9
100
AcDbVertex
100
AcDb2dVertex
 10
178.4996988486043
 20
215.5529065758861
 30
0.0
  0
VERTEX
  5
422
330
410
100
AcDbEntity
  8
Livello 1
 62
     7
420
 16777215
370
     9
100
AcDbVertex
100
AcDb2dVertex
 10
178.6817721449997
 20
215.5639308814389
 30
0.0
  0
VERTEX
  5
423
330
410
100
AcDbEntity
  8
Livello 1
 62
     7
420
 16777215
370
     9
100
AcDbVertex
100
AcDb2dVertex
 10
178.8667737725576
 20
215.5789170467997
 30
0.0
  0
VERTEX
  5
424
330
410
100
AcDbEntity
  8
Livello 1
 62
     7
420
 16777215
370
     9
100
AcDbVertex
100
AcDb2dVertex
 10
179.0521199096641
 20
215.5988986006142
 30
0.0
  0
VERTEX
  5
425
330
410
100
AcDbEntity
  8
Livello 1
 62
     7
420
 16777215
370
     9
100
AcDbVertex
100
AcDb2dVertex
 10
179.3082627589924
 20
215.6354166127578
 30
0.0
  0
VERTEX
  5
426
330
410
100
AcDbEntity
  8
Livello 1
 62
     7
420
 16777215
370
     9
100
AcDbVertex
100
AcDb2dVertex
 10
179.5614772771582
 20
215.6826144209057
 30
0.0
  0
VERTEX
  5
427
330
410
100
AcDbEntity
  8
Livello 1
 62
     7
420
 16777215
370
     9
100
AcDbVertex
100
AcDb2dVertex
 10
179.8174478717123
 20
215.7425590823491
 30
0.0
  0
VERTEX
  5
428
330
410
100
AcDbEntity
  8
Livello 1
 62
     7
420
 16777215
370
     9
100
AcDbVertex
100
AcDb2dVertex
 10
180.0675618039415
 20
215.816628635282
 30
0.0
  0
VERTEX
  5
429
330
410
100
AcDbEntity
  8
Livello 1
 62
     7
420
 16777215
370
     9
100
AcDbVertex
100
AcDb2dVertex
 10
180.3147474050081
 20
215.9058566083499
 30
0.0
  0
VERTEX
  5
42A
330
410
100
AcDbEntity
  8
Livello 1
 62
     7
420
 16777215
370
     9
100
AcDbVertex
100
AcDb2dVertex
 10
180.5560763437499
 20
216.006281141745
 30
0.0
  0
VERTEX
  5
42B
330
410
100
AcDbEntity
  8
Livello 1
 62
     7
420
 16777215
370
     9
100
AcDbVertex
100
AcDb2dVertex
 10
180.7975775372659
 20
216.1158351781759
 30
0.0
  0
VERTEX
  5
42C
330
410
100
AcDbEntity
  8
Livello 1
 62
     7
420
 16777215
370
     9
100
AcDbVertex
100
AcDb2dVertex
 10
181.0346001066511
 20
216.2331406794487
 30
0.0
  0
VERTEX
  5
42D
330
410
100
AcDbEntity
  8
Livello 1
 62
     7
420
 16777215
370
     9
100
AcDbVertex
100
AcDb2dVertex
 10
181.253708179513
 20
216.3461398113648
 30
0.0
  0
VERTEX
  5
42E
330
410
100
AcDbEntity
  8
Livello 1
 62
     7
420
 16777215
370
     9
100
AcDbVertex
100
AcDb2dVertex
 10
181.474883309666
 20
216.4625840387663
 30
0.0
  0
VERTEX
  5
42F
330
410
100
AcDbEntity
  8
Livello 1
 62
     7
420
 16777215
370
     9
100
AcDbVertex
100
AcDb2dVertex
 10
181.6388698547639
 20
216.5495726997689
 30
0.0
  0
VERTEX
  5
430
330
410
100
AcDbEntity
  8
Livello 1
 62
     7
420
 16777215
370
     9
100
AcDbVertex
100
AcDb2dVertex
 10
181.8040621832816
 20
216.6365613607714
 30
0.0
  0
VERTEX
  5
431
330
410
100
AcDbEntity
  8
Livello 1
 62
     7
420
 16777215
370
     9
100
AcDbVertex
100
AcDb2dVertex
 10
181.9690822570251
 20
216.7252725695166
 30
0.0
  0
VERTEX
  5
432
330
410
100
AcDbEntity
  8
Livello 1
 62
     7
420
 16777215
370
     9
100
AcDbVertex
100
AcDb2dVertex
 10
182.1359971332855
 20
216.8112277018736
 30
0.0
  0
VERTEX
  5
433
330
410
100
AcDbEntity
  8
Livello 1
 62
     7
420
 16777215
370
     9
100
AcDbVertex
100
AcDb2dVertex
 10
182.3213432703919
 20
216.907345865912
 30
0.0
  0
VERTEX
  5
434
330
410
100
AcDbEntity
  8
Livello 1
 62
     7
420
 16777215
370
     9
100
AcDbVertex
100
AcDb2dVertex
 10
182.5056558788528
 20
216.999846679691
 30
0.0
  0
VERTEX
  5
435
330
410
100
AcDbEntity
  8
Livello 1
 62
     7
420
 16777215
370
     9
100
AcDbVertex
100
AcDb2dVertex
 10
182.6257174565137
 20
217.058930067263
 30
0.0
  0
VERTEX
  5
436
330
410
100
AcDbEntity
  8
Livello 1
 62
     7
420
 16777215
370
     9
100
AcDbVertex
100
AcDb2dVertex
 10
182.7445732507548
 20
217.1176689452866
 30
0.0
  0
VERTEX
  5
437
330
410
100
AcDbEntity
  8
Livello 1
 62
     7
420
 16777215
370
     9
100
AcDbVertex
100
AcDb2dVertex
 10
182.870663745515
 20
217.1764078233101
 30
0.0
  0
VERTEX
  5
438
330
410
100
AcDbEntity
  8
Livello 1
 62
     7
420
 16777215
370
     9
100
AcDbVertex
100
AcDb2dVertex
 10
182.9977877689207
 20
217.2339409179137
 30
0.0
  0
VERTEX
  5
439
330
410
100
AcDbEntity
  8
Livello 1
 62
     7
420
 16777215
370
     9
100
AcDbVertex
100
AcDb2dVertex
 10
183.1228447350353
 20
217.289234700452
 30
0.0
  0
VERTEX
  5
43A
330
410
100
AcDbEntity
  8
Livello 1
 62
     7
420
 16777215
370
     9
100
AcDbVertex
100
AcDb2dVertex
 10
183.2470404272785
 20
217.3414278970535
 30
0.0
  0
VERTEX
  5
43B
330
410
100
AcDbEntity
  8
Livello 1
 62
     7
420
 16777215
370
     9
100
AcDbVertex
100
AcDb2dVertex
 10
183.3491875084162
 20
217.3831135524251
 30
0.0
  0
VERTEX
  5
43C
330
410
100
AcDbEntity
  8
Livello 1
 62
     7
420
 16777215
370
     9
100
AcDbVertex
100
AcDb2dVertex
 10
183.4513345895539
 20
217.4232489148282
 30
0.0
  0
VERTEX
  5
43D
330
410
100
AcDbEntity
  8
Livello 1
 62
     7
420
 16777215
370
     9
100
AcDbVertex
100
AcDb2dVertex
 10
183.5350504098454
 20
217.4540825194212
 30
0.0
  0
VERTEX
  5
43E
330
410
100
AcDbEntity
  8
Livello 1
 62
     7
420
 16777215
370
     9
100
AcDbVertex
100
AcDb2dVertex
 10
183.6191107396855
 20
217.4850883787884
 30
0.0
  0
VERTEX
  5
43F
330
410
100
AcDbEntity
  8
Livello 1
 62
     7
420
 16777215
370
     9
100
AcDbVertex
100
AcDb2dVertex
 10
183.7563977947727
 20
217.5322861869364
 30
0.0
  0
VERTEX
  5
440
330
410
100
AcDbEntity
  8
Livello 1
 62
     7
420
 16777215
370
     9
100
AcDbVertex
100
AcDb2dVertex
 10
183.8923068116658
 20
217.5760388995991
 30
0.0
  0
VERTEX
  5
441
330
410
100
AcDbEntity
  8
Livello 1
 62
     7
420
 16777215
370
     9
100
AcDbVertex
100
AcDb2dVertex
 10
184.0556043376667
 20
217.6242702363926
 30
0.0
  0
VERTEX
  5
442
330
410
100
AcDbEntity
  8
Livello 1
 62
     7
420
 16777215
370
     9
100
AcDbVertex
100
AcDb2dVertex
 10
184.2209689209587
 20
217.6642333440215
 30
0.0
  0
VERTEX
  5
443
330
410
100
AcDbEntity
  8
Livello 1
 62
     7
420
 16777215
370
     9
100
AcDbVertex
100
AcDb2dVertex
 10
184.3768594916662
 20
217.6938611651946
 30
0.0
  0
VERTEX
  5
444
330
410
100
AcDbEntity
  8
Livello 1
 62
     7
420
 16777215
370
     9
100
AcDbVertex
100
AcDb2dVertex
 10
184.5336113362451
 20
217.7133259546863
 30
0.0
  0
VERTEX
  5
445
330
410
100
AcDbEntity
  8
Livello 1
 62
     7
420
 16777215
370
     9
100
AcDbVertex
100
AcDb2dVertex
 10
184.6819226968851
 20
217.7209051647538
 30
0.0
  0
VERTEX
  5
446
330
410
100
AcDbEntity
  8
Livello 1
 62
     7
420
 16777215
370
     9
100
AcDbVertex
100
AcDb2dVertex
 10
184.832128860042
 20
217.7179768335913
 30
0.0
  0
VERTEX
  5
447
330
410
100
AcDbEntity
  8
Livello 1
 62
     7
420
 16777215
370
     9
100
AcDbVertex
100
AcDb2dVertex
 10
184.9322088838885
 20
217.7090195853297
 30
0.0
  0
VERTEX
  5
448
330
410
100
AcDbEntity
  8
Livello 1
 62
     7
420
 16777215
370
     9
100
AcDbVertex
100
AcDb2dVertex
 10
185.032977926832
 20
217.6938611651946
 30
0.0
  0
VERTEX
  5
449
330
410
100
AcDbEntity
  8
Livello 1
 62
     7
420
 16777215
370
     9
100
AcDbVertex
100
AcDb2dVertex
 10
185.1340914793241
 20
217.6723293184118
 30
0.0
  0
VERTEX
  5
44A
330
410
100
AcDbEntity
  8
Livello 1
 62
     7
420
 16777215
370
     9
100
AcDbVertex
100
AcDb2dVertex
 10
185.2362385604618
 20
217.6439072806585
 30
0.0
  0
VERTEX
  5
44B
330
410
100
AcDbEntity
  8
Livello 1
 62
     7
420
 16777215
370
     9
100
AcDbVertex
100
AcDb2dVertex
 10
185.3433810300531
 20
217.6072170137406
 30
0.0
  0
VERTEX
  5
44C
330
410
100
AcDbEntity
  8
Livello 1
 62
     7
420
 16777215
370
     9
100
AcDbVertex
100
AcDb2dVertex
 10
185.4484564423532
 20
217.5643255749492
 30
0.0
  0
VERTEX
  5
44D
330
410
100
AcDbEntity
  8
Livello 1
 62
     7
420
 16777215
370
     9
100
AcDbVertex
100
AcDb2dVertex
 10
185.5476751923284
 20
217.51626649293
 30
0.0
  0
VERTEX
  5
44E
330
410
100
AcDbEntity
  8
Livello 1
 62
     7
420
 16777215
370
     9
100
AcDbVertex
100
AcDb2dVertex
 10
185.6462049232065
 20
217.4616617294888
 30
0.0
  0
VERTEX
  5
44F
330
410
100
AcDbEntity
  8
Livello 1
 62
     7
420
 16777215
370
     9
100
AcDbVertex
100
AcDb2dVertex
 10
185.7526583737007
 20
217.38897021475
 30
0.0
  0
VERTEX
  5
450
330
410
100
AcDbEntity
  8
Livello 1
 62
     7
420
 16777215
370
     9
100
AcDbVertex
100
AcDb2dVertex
 10
185.8541164357413
 20
217.3061156683297
 30
0.0
  0
VERTEX
  5
451
330
410
100
AcDbEntity
  8
Livello 1
 62
     7
420
 16777215
370
     9
100
AcDbVertex
100
AcDb2dVertex
 10
185.94902881636
 20
217.2046576062891
 30
0.0
  0
VERTEX
  5
452
330
410
100
AcDbEntity
  8
Livello 1
 62
     7
420
 16777215
370
     9
100
AcDbVertex
100
AcDb2dVertex
 10
186.0260267004553
 20
217.089763671856
 30
0.0
  0
VERTEX
  5
453
330
410
100
AcDbEntity
  8
Livello 1
 62
     7
420
 16777215
370
     9
100
AcDbVertex
100
AcDb2dVertex
 10
186.0577215789196
 20
217.0255126410561
 30
0.0
  0
VERTEX
  5
454
330
410
100
AcDbEntity
  8
Livello 1
 62
     7
420
 16777215
370
     9
100
AcDbVertex
100
AcDb2dVertex
 10
186.0811482282193
 20
216.9588500434166
 30
0.0
  0
VERTEX
  5
455
330
410
100
AcDbEntity
  8
Livello 1
 62
     7
420
 16777215
370
     9
100
AcDbVertex
100
AcDb2dVertex
 10
186.0942395910633
 20
216.9042452799753
 30
0.0
  0
SEQEND
  5
456
330
410
100
AcDbEntity
  8
Livello 1
370
     9
  0
ENDBLK
  5
40F
330
40C
100
AcDbEntity
  8
0
100
AcDbBlockEnd
  0
BLOCK
  5
459
330
457
100
AcDbEntity
  8
0
100
AcDbBlockBegin
  2
block 102
 70
     0
 71
     0
 10
0.0
 20
0.0
 30
0.0
  3
block 102
  1

  0
POLYLINE
  5
45B
330
457
100
AcDbEntity
  8
Livello 1
 62
     7
420
 16777215
370
     9
100
AcDb2dPolyline
 66
     1
 10
0.0
 20
0.0
 30
0.0
  0
VERTEX
  5
45C
330
45B
100
AcDbEntity
  8
Livello 1
 62
     7
420
 16777215
370
     9
100
AcDbVertex
100
AcDb2dVertex
 10
176.0230197042581
 20
216.913891547334
 30
0.0
  0
VERTEX
  5
4E4
330
45B
100
AcDbEntity
  8
0
100
AcDbVertex
100
AcDb2dVertex
 10
176.0230197042581
 20
216.913891547334
 30
0.0
  0
SEQEND
  5
45D
330
45B
100
AcDbEntity
  8
Livello 1
370
     9
  0
ENDBLK
  5
45A
330
457
100
AcDbEntity
  8
0
100
AcDbBlockEnd
  0
BLOCK
  5
460
330
45E
100
AcDbEntity
  8
0
100
AcDbBlockBegin
  2
block 103
 70
     0
 71
     0
 10
0.0
 20
0.0
 30
0.0
  3
block 103
  1

  0
SPLINE
  5
462
330
45E
100
AcDbEntity
  8
Livello 1
 62
     7
420
 16777215
370
     9
100
AcDbSpline
210
0.0
220
0.0
230
1.0
 70
     8
 71
     3
 72
    53
 73
    49
 74
     0
 42
0.0000000001
 43
0.0000000001
 40
0.0
 40
0.0
 40
0.0
 40
0.0
 40
1.0
 40
1.0
 40
1.0
 40
2.0
 40
2.0
 40
2.0
 40
3.0
 40
3.0
 40
3.0
 40
4.0
 40
4.0
 40
4.0
 40
5.0
 40
5.0
 40
5.0
 40
6.0
 40
6.0
 40
6.0
 40
7.0
 40
7.0
 40
7.0
 40
8.0
 40
8.0
 40
8.0
 40
9.0
 40
9.0
 40
9.0
 40
10.0
 40
10.0
 40
10.0
 40
11.0
 40
11.0
 40
11.0
 40
12.0
 40
12.0
 40
12.0
 40
13.0
 40
13.0
 40
13.0
 40
14.0
 40
14.0
 40
14.0
 40
15.0
 40
15.0
 40
15.0
 40
16.0
 40
16.0
 40
16.0
 40
16.0
 10
176.0195746087729
 20
215.4852104496009
 30
0.0
 10
176.0188855896758
 20
215.4876220164406
 30
0.0
 10
176.0157850037391
 20
215.4957179908309
 30
0.0
 10
176.0157850037391
 20
215.4957179908309
 30
0.0
 10
176.0157850037391
 20
215.4957179908309
 30
0.0
 10
176.0101005961885
 20
215.5088093536749
 30
0.0
 10
176.0101005961885
 20
215.5088093536749
 30
0.0
 10
176.0101005961885
 20
215.5088093536749
 30
0.0
 10
176.003899424315
 20
215.5274128692952
 30
0.0
 10
176.003899424315
 20
215.5274128692952
 30
0.0
 10
176.003899424315
 20
215.5274128692952
 30
0.0
 10
175.9961479594732
 20
215.5508395185949
 30
0.0
 10
175.9961479594732
 20
215.5508395185949
 30
0.0
 10
175.9961479594732
 20
215.5508395185949
 30
0.0
 10
175.9877074755343
 20
215.579778320671
 30
0.0
 10
175.9877074755343
 20
215.579778320671
 30
0.0
 10
175.9877074755343
 20
215.579778320671
 30
0.0
 10
175.9820230679837
 20
215.6130234921037
 30
0.0
 10
175.9820230679837
 20
215.6130234921037
 30
0.0
 10
175.9820230679837
 20
215.6130234921037
 30
0.0
 10
175.9777166986271
 20
215.6409287655342
 30
0.0
 10
175.9777166986271
 20
215.6409287655342
 30
0.0
 10
175.9777166986271
 20
215.6409287655342
 30
0.0
 10
175.9768554247558
 20
215.6698675676103
 30
0.0
 10
175.9768554247558
 20
215.6698675676103
 30
0.0
 10
175.9768554247558
 20
215.6698675676103
 30
0.0
 10
175.9787502272727
 20
215.7007011722033
 30
0.0
 10
175.9787502272727
 20
215.7007011722033
 30
0.0
 10
175.9787502272727
 20
215.7007011722033
 30
0.0
 10
175.9830565966292
 20
215.7310180124735
 30
0.0
 10
175.9830565966292
 20
215.7310180124735
 30
0.0
 10
175.9830565966292
 20
215.7310180124735
 30
0.0
 10
175.9887410041799
 20
215.7594400502268
 30
0.0
 10
175.9887410041799
 20
215.7594400502268
 30
0.0
 10
175.9887410041799
 20
215.7594400502268
 30
0.0
 10
175.9951144308276
 20
215.7835557186236
 30
0.0
 10
175.9951144308276
 20
215.7835557186236
 30
0.0
 10
175.9951144308276
 20
215.7835557186236
 30
0.0
 10
176.003899424315
 20
215.8080158965688
 30
0.0
 10
176.003899424315
 20
215.8080158965688
 30
0.0
 10
176.003899424315
 20
215.8080158965688
 30
0.0
 10
176.0101005961885
 20
215.8279974503833
 30
0.0
 10
176.0101005961885
 20
215.8279974503833
 30
0.0
 10
176.0101005961885
 20
215.8279974503833
 30
0.0
 10
176.0157850037391
 20
215.840916558453
 30
0.0
 10
176.0157850037391
 20
215.840916558453
 30
0.0
 10
176.0195746087729
 20
215.8502183162632
 30
0.0
 10
176.0195746087729
 20
215.8510795901345
 30
0.0
 10
176.0195746087729
 20
215.8510795901345
 30
0.0
  0
ENDBLK
  5
461
330
45E
100
AcDbEntity
  8
0
100
AcDbBlockEnd
  0
BLOCK
  5
465
330
463
100
AcDbEntity
  8
0
100
AcDbBlockBegin
  2
block 104
 70
     0
 71
     0
 10
0.0
 20
0.0
 30
0.0
  3
block 104
  1

  0
POLYLINE
  5
467
330
463
100
AcDbEntity
  8
Livello 1
 62
     7
420
 16777215
370
     9
100
AcDb2dPolyline
 66
     1
 10
0.0
 20
0.0
 30
0.0
  0
VERTEX
  5
468
330
467
100
AcDbEntity
  8
Livello 1
 62
     7
420
 16777215
370
     9
100
AcDbVertex
100
AcDb2dVertex
 10
175.717784244265
 20
216.4849771594204
 30
0.0
  0
VERTEX
  5
469
330
467
100
AcDbEntity
  8
Livello 1
 62
     7
420
 16777215
370
     9
100
AcDbVertex
100
AcDb2dVertex
 10
175.7167507156194
 20
216.4725748156735
 30
0.0
  0
VERTEX
  5
46A
330
467
100
AcDbEntity
  8
Livello 1
 62
     7
420
 16777215
370
     9
100
AcDbVertex
100
AcDb2dVertex
 10
175.7167507156194
 20
216.4605169814752
 30
0.0
  0
VERTEX
  5
46B
330
467
100
AcDbEntity
  8
Livello 1
 62
     7
420
 16777215
370
     9
100
AcDbVertex
100
AcDb2dVertex
 10
175.7229518874929
 20
216.4283053386881
 30
0.0
  0
VERTEX
  5
46C
330
467
100
AcDbEntity
  8
Livello 1
 62
     7
420
 16777215
370
     9
100
AcDbVertex
100
AcDb2dVertex
 10
175.7350097216913
 20
216.3974717340951
 30
0.0
  0
VERTEX
  5
46D
330
467
100
AcDbEntity
  8
Livello 1
 62
     7
420
 16777215
370
     9
100
AcDbVertex
100
AcDb2dVertex
 10
175.7508571609234
 20
216.3657768556308
 30
0.0
  0
VERTEX
  5
46E
330
467
100
AcDbEntity
  8
Livello 1
 62
     7
420
 16777215
370
     9
100
AcDbVertex
100
AcDb2dVertex
 10
175.7698051860923
 20
216.3352877605863
 30
0.0
  0
VERTEX
  5
46F
330
467
100
AcDbEntity
  8
Livello 1
 62
     7
420
 16777215
370
     9
100
AcDbVertex
100
AcDb2dVertex
 10
175.7956434022317
 20
216.2968749459258
 30
0.0
  0
VERTEX
  5
470
330
467
100
AcDbEntity
  8
Livello 1
 62
     7
420
 16777215
370
     9
100
AcDbVertex
100
AcDb2dVertex
 10
175.8237209304365
 20
216.2624239910733
 30
0.0
  0
VERTEX
  5
471
330
467
100
AcDbEntity
  8
Livello 1
 62
     7
420
 16777215
370
     9
100
AcDbVertex
100
AcDb2dVertex
 10
175.8468030701876
 20
216.2331406794487
 30
0.0
  0
VERTEX
  5
472
330
467
100
AcDbEntity
  8
Livello 1
 62
     7
420
 16777215
370
     9
100
AcDbVertex
100
AcDb2dVertex
 10
175.8697129551645
 20
216.2060966798895
 30
0.0
  0
SEQEND
  5
473
330
467
100
AcDbEntity
  8
Livello 1
370
     9
  0
ENDBLK
  5
466
330
463
100
AcDbEntity
  8
0
100
AcDbBlockEnd
  0
BLOCK
  5
476
330
474
100
AcDbEntity
  8
0
100
AcDbBlockBegin
  2
block 105
 70
     0
 71
     0
 10
0.0
 20
0.0
 30
0.0
  3
block 105
  1

  0
SPLINE
  5
478
330
474
100
AcDbEntity
  8
Livello 1
 62
     7
420
 16777215
370
     9
100
AcDbSpline
210
0.0
220
0.0
230
1.0
 70
     8
 71
     3
 72
    56
 73
    52
 74
     0
 42
0.0000000001
 43
0.0000000001
 40
0.0
 40
0.0
 40
0.0
 40
0.0
 40
1.0
 40
1.0
 40
1.0
 40
2.0
 40
2.0
 40
2.0
 40
3.0
 40
3.0
 40
3.0
 40
4.0
 40
4.0
 40
4.0
 40
5.0
 40
5.0
 40
5.0
 40
6.0
 40
6.0
 40
6.0
 40
7.0
 40
7.0
 40
7.0
 40
8.0
 40
8.0
 40
8.0
 40
9.0
 40
9.0
 40
9.0
 40
10.0
 40
10.0
 40
10.0
 40
11.0
 40
11.0
 40
11.0
 40
12.0
 40
12.0
 40
12.0
 40
13.0
 40
13.0
 40
13.0
 40
14.0
 40
14.0
 40
14.0
 40
15.0
 40
15.0
 40
15.0
 40
16.0
 40
16.0
 40
16.0
 40
17.0
 40
17.0
 40
17.0
 40
17.0
 10
176.0221584303868
 20
216.9183701714649
 30
0.0
 10
176.0221584303868
 20
216.926982910178
 30
0.0
 10
176.0221584303868
 20
216.9297389865662
 30
0.0
 10
176.0221584303868
 20
216.9297389865662
 30
0.0
 10
176.0269815640662
 20
216.9386962348278
 30
0.0
 10
176.0278428379375
 20
216.9386962348278
 30
0.0
 10
176.0278428379375
 20
216.9386962348278
 30
0.0
 10
176.0195746087729
 20
216.9318060438573
 30
0.0
 10
176.0101005961885
 20
216.920437228756
 30
0.0
 10
176.0101005961885
 20
216.920437228756
 30
0.0
 10
176.0101005961885
 20
216.920437228756
 30
0.0
 10
175.9951144308276
 20
216.9042452799753
 30
0.0
 10
175.9951144308276
 20
216.9042452799753
 30
0.0
 10
175.9951144308276
 20
216.9042452799753
 30
0.0
 10
175.9758218961102
 20
216.8835747070638
 30
0.0
 10
175.9758218961102
 20
216.8835747070638
 30
0.0
 10
175.9758218961102
 20
216.8835747070638
 30
0.0
 10
175.9529120111333
 20
216.8582532552473
 30
0.0
 10
175.9529120111333
 20
216.8582532552473
 30
0.0
 10
175.9529120111333
 20
216.8582532552473
 30
0.0
 10
175.927762814091
 20
216.8303479818167
 30
0.0
 10
175.927762814091
 20
216.8303479818167
 30
0.0
 10
175.927762814091
 20
216.8303479818167
 30
0.0
 10
175.8967569547237
 20
216.7960692817385
 30
0.0
 10
175.8967569547237
 20
216.7960692817385
 30
0.0
 10
175.8967569547237
 20
216.7960692817385
 30
0.0
 10
175.8648898214852
 20
216.7588622504978
 30
0.0
 10
175.8648898214852
 20
216.7588622504978
 30
0.0
 10
175.8648898214852
 20
216.7588622504978
 30
0.0
 10
175.8269937711474
 20
216.7135592448668
 30
0.0
 10
175.8269937711474
 20
216.7135592448668
 30
0.0
 10
175.8269937711474
 20
216.7135592448668
 30
0.0
 10
175.7906480137781
 20
216.6661891819446
 30
0.0
 10
175.7906480137781
 20
216.6661891819446
 30
0.0
 10
175.7906480137781
 20
216.6661891819446
 30
0.0
 10
175.76567107151
 20
216.6300156793494
 30
0.0
 10
175.76567107151
 20
216.6300156793494
 30
0.0
 10
175.76567107151
 20
216.6300156793494
 30
0.0
 10
175.7436224604044
 20
216.5926363933345
 30
0.0
 10
175.7436224604044
 20
216.5926363933345
 30
0.0
 10
175.7436224604044
 20
216.5926363933345
 30
0.0
 10
175.7296698236891
 20
216.5607692600959
 30
0.0
 10
175.7296698236891
 20
216.5607692600959
 30
0.0
 10
175.7296698236891
 20
216.5607692600959
 30
0.0
 10
175.7195067920076
 20
216.5268350695662
 30
0.0
 10
175.7195067920076
 20
216.5268350695662
 30
0.0
 10
175.7195067920076
 20
216.5268350695662
 30
0.0
 10
175.717784244265
 20
216.506336751429
 30
0.0
 10
175.717784244265
 20
216.506336751429
 30
0.0
 10
175.717784244265
 20
216.506336751429
 30
0.0
 10
175.717784244265
 20
216.4849771594204
 30
0.0
 10
175.717784244265
 20
216.4849771594204
 30
0.0
  0
ENDBLK
  5
477
330
474
100
AcDbEntity
  8
0
100
AcDbBlockEnd
  0
BLOCK
  5
47B
330
479
100
AcDbEntity
  8
0
100
AcDbBlockBegin
  2
block 106
 70
     0
 71
     0
 10
0.0
 20
0.0
 30
0.0
  3
block 106
  1

  0
POLYLINE
  5
47D
330
479
100
AcDbEntity
  8
Livello 1
 62
     7
420
 16777215
370
     9
100
AcDb2dPolyline
 66
     1
 10
0.0
 20
0.0
 30
0.0
  0
VERTEX
  5
47E
330
47D
100
AcDbEntity
  8
Livello 1
 62
     7
420
 16777215
370
     9
100
AcDbVertex
100
AcDb2dVertex
 10
186.9625759081205
 20
141.2403021565302
 30
0.0
  0
VERTEX
  5
47F
330
47D
100
AcDbEntity
  8
Livello 1
 62
     7
420
 16777215
370
     9
100
AcDbVertex
100
AcDb2dVertex
 10
186.9344983799157
 20
141.2403021565302
 30
0.0
  0
VERTEX
  5
480
330
47D
100
AcDbEntity
  8
Livello 1
 62
     7
420
 16777215
370
     9
100
AcDbVertex
100
AcDb2dVertex
 10
186.8485432475587
 20
141.2403021565302
 30
0.0
  0
VERTEX
  5
481
330
47D
100
AcDbEntity
  8
Livello 1
 62
     7
420
 16777215
370
     9
100
AcDbVertex
100
AcDb2dVertex
 10
186.7074665874377
 20
141.2403021565302
 30
0.0
  0
VERTEX
  5
482
330
47D
100
AcDbEntity
  8
Livello 1
 62
     7
420
 16777215
370
     9
100
AcDbVertex
100
AcDb2dVertex
 10
186.5104071256814
 20
141.2403021565302
 30
0.0
  0
VERTEX
  5
483
330
47D
100
AcDbEntity
  8
Livello 1
 62
     7
420
 16777215
370
     9
100
AcDbVertex
100
AcDb2dVertex
 10
186.2611544673236
 20
141.2403021565302
 30
0.0
  0
VERTEX
  5
484
330
47D
100
AcDbEntity
  8
Livello 1
 62
     7
420
 16777215
370
     9
100
AcDbVertex
100
AcDb2dVertex
 10
185.9609143957841
 20
141.2403021565302
 30
0.0
  0
VERTEX
  5
485
330
47D
100
AcDbEntity
  8
Livello 1
 62
     7
420
 16777215
370
     9
100
AcDbVertex
100
AcDb2dVertex
 10
185.6096869110629
 20
141.2403021565302
 30
0.0
  0
VERTEX
  5
486
330
47D
100
AcDbEntity
  8
Livello 1
 62
     7
420
 16777215
370
     9
100
AcDbVertex
100
AcDb2dVertex
 10
185.2133286754849
 20
141.2403021565302
 30
0.0
  0
VERTEX
  5
487
330
47D
100
AcDbEntity
  8
Livello 1
 62
     7
420
 16777215
370
     9
100
AcDbVertex
100
AcDb2dVertex
 10
184.774423510664
 20
141.2403021565302
 30
0.0
  0
VERTEX
  5
488
330
47D
100
AcDbEntity
  8
Livello 1
 62
     7
420
 16777215
370
     9
100
AcDbVertex
100
AcDb2dVertex
 10
184.2957274929886
 20
141.2403021565302
 30
0.0
  0
VERTEX
  5
489
330
47D
100
AcDbEntity
  8
Livello 1
 62
     7
420
 16777215
370
     9
100
AcDbVertex
100
AcDb2dVertex
 10
183.7812024822665
 20
141.2403021565302
 30
0.0
  0
VERTEX
  5
48A
330
47D
100
AcDbEntity
  8
Livello 1
 62
     7
420
 16777215
370
     9
100
AcDbVertex
100
AcDb2dVertex
 10
183.2360161217257
 20
141.2403021565302
 30
0.0
  0
VERTEX
  5
48B
330
47D
100
AcDbEntity
  8
Livello 1
 62
     7
420
 16777215
370
     9
100
AcDbVertex
100
AcDb2dVertex
 10
182.6636135068515
 20
141.2403021565302
 30
0.0
  0
VERTEX
  5
48C
330
47D
100
AcDbEntity
  8
Livello 1
 62
     7
420
 16777215
370
     9
100
AcDbVertex
100
AcDb2dVertex
 10
182.068128752226
 20
141.2403021565302
 30
0.0
  0
VERTEX
  5
48D
330
47D
100
AcDbEntity
  8
Livello 1
 62
     7
420
 16777215
370
     9
100
AcDbVertex
100
AcDb2dVertex
 10
181.4557630297229
 20
141.2403021565302
 30
0.0
  0
VERTEX
  5
48E
330
47D
100
AcDbEntity
  8
Livello 1
 62
     7
420
 16777215
370
     9
100
AcDbVertex
100
AcDb2dVertex
 10
180.8303059443758
 20
141.2403021565302
 30
0.0
  0
VERTEX
  5
48F
330
47D
100
AcDbEntity
  8
Livello 1
 62
     7
420
 16777215
370
     9
100
AcDbVertex
100
AcDb2dVertex
 10
180.1970973941868
 20
141.2403021565302
 30
0.0
  0
VERTEX
  5
490
330
47D
100
AcDbEntity
  8
Livello 1
 62
     7
420
 16777215
370
     9
100
AcDbVertex
100
AcDb2dVertex
 10
179.5614772771582
 20
141.2403021565302
 30
0.0
  0
VERTEX
  5
491
330
47D
100
AcDbEntity
  8
Livello 1
 62
     7
420
 16777215
370
     9
100
AcDbVertex
100
AcDb2dVertex
 10
178.9289577460664
 20
141.2403021565302
 30
0.0
  0
VERTEX
  5
492
330
47D
100
AcDbEntity
  8
Livello 1
 62
     7
420
 16777215
370
     9
100
AcDbVertex
100
AcDb2dVertex
 10
178.3036729154935
 20
141.2403021565302
 30
0.0
  0
VERTEX
  5
493
330
47D
100
AcDbEntity
  8
Livello 1
 62
     7
420
 16777215
370
     9
100
AcDbVertex
100
AcDb2dVertex
 10
177.6911349382161
 20
141.2403021565302
 30
0.0
  0
VERTEX
  5
494
330
47D
100
AcDbEntity
  8
Livello 1
 62
     7
420
 16777215
370
     9
100
AcDbVertex
100
AcDb2dVertex
 10
177.0954779288164
 20
141.2403021565302
 30
0.0
  0
VERTEX
  5
495
330
47D
100
AcDbEntity
  8
Livello 1
 62
     7
420
 16777215
370
     9
100
AcDbVertex
100
AcDb2dVertex
 10
176.5222140400708
 20
141.2403021565302
 30
0.0
  0
VERTEX
  5
496
330
47D
100
AcDbEntity
  8
Livello 1
 62
     7
420
 16777215
370
     9
100
AcDbVertex
100
AcDb2dVertex
 10
175.9768554247558
 20
141.2403021565302
 30
0.0
  0
VERTEX
  5
497
330
47D
100
AcDbEntity
  8
Livello 1
 62
     7
420
 16777215
370
     9
100
AcDbVertex
100
AcDb2dVertex
 10
175.4637084522278
 20
141.2403021565302
 30
0.0
  0
VERTEX
  5
498
330
47D
100
AcDbEntity
  8
Livello 1
 62
     7
420
 16777215
370
     9
100
AcDbVertex
100
AcDb2dVertex
 10
174.9843234154553
 20
141.2403021565302
 30
0.0
  0
VERTEX
  5
499
330
47D
100
AcDbEntity
  8
Livello 1
 62
     7
420
 16777215
370
     9
100
AcDbVertex
100
AcDb2dVertex
 10
174.5449014863117
 20
141.2403021565302
 30
0.0
  0
VERTEX
  5
49A
330
47D
100
AcDbEntity
  8
Livello 1
 62
     7
420
 16777215
370
     9
100
AcDbVertex
100
AcDb2dVertex
 10
174.1490600150565
 20
141.2403021565302
 30
0.0
  0
VERTEX
  5
49B
330
47D
100
AcDbEntity
  8
Livello 1
 62
     7
420
 16777215
370
     9
100
AcDbVertex
100
AcDb2dVertex
 10
173.7988660589808
 20
141.2403021565302
 30
0.0
  0
VERTEX
  5
49C
330
47D
100
AcDbEntity
  8
Livello 1
 62
     7
420
 16777215
370
     9
100
AcDbVertex
100
AcDb2dVertex
 10
173.4975924587957
 20
141.2403021565302
 30
0.0
  0
VERTEX
  5
49D
330
47D
100
AcDbEntity
  8
Livello 1
 62
     7
420
 16777215
370
     9
100
AcDbVertex
100
AcDb2dVertex
 10
173.2481675456636
 20
141.2403021565302
 30
0.0
  0
VERTEX
  5
49E
330
47D
100
AcDbEntity
  8
Livello 1
 62
     7
420
 16777215
370
     9
100
AcDbVertex
100
AcDb2dVertex
 10
173.0517971030044
 20
141.2403021565302
 30
0.0
  0
VERTEX
  5
49F
330
47D
100
AcDbEntity
  8
Livello 1
 62
     7
420
 16777215
370
     9
100
AcDbVertex
100
AcDb2dVertex
 10
172.9102036785607
 20
141.2403021565302
 30
0.0
  0
VERTEX
  5
4A0
330
47D
100
AcDbEntity
  8
Livello 1
 62
     7
420
 16777215
370
     9
100
AcDbVertex
100
AcDb2dVertex
 10
172.8245930557522
 20
141.2403021565302
 30
0.0
  0
VERTEX
  5
4A1
330
47D
100
AcDbEntity
  8
Livello 1
 62
     7
420
 16777215
370
     9
100
AcDbVertex
100
AcDb2dVertex
 10
172.7966877823217
 20
141.2403021565302
 30
0.0
  0
SEQEND
  5
4A2
330
47D
100
AcDbEntity
  8
Livello 1
370
     9
  0
ENDBLK
  5
47C
330
479
100
AcDbEntity
  8
0
100
AcDbBlockEnd
  0
BLOCK
  5
4A5
330
4A3
100
AcDbEntity
  8
0
100
AcDbBlockBegin
  2
block 107
 70
     0
 71
     0
 10
0.0
 20
0.0
 30
0.0
  3
block 107
  1

  0
POLYLINE
  5
4A7
330
4A3
100
AcDbEntity
  8
Livello 1
 62
     7
420
 16777215
370
     9
100
AcDb2dPolyline
 66
     1
 10
0.0
 20
0.0
 30
0.0
  0
VERTEX
  5
4A8
330
4A7
100
AcDbEntity
  8
Livello 1
 62
     7
420
 16777215
370
     9
100
AcDbVertex
100
AcDb2dVertex
 10
186.9625759081205
 20
141.5128092094135
 30
0.0
  0
VERTEX
  5
4A9
330
4A7
100
AcDbEntity
  8
Livello 1
 62
     7
420
 16777215
370
     9
100
AcDbVertex
100
AcDb2dVertex
 10
186.9344983799157
 20
141.5128092094135
 30
0.0
  0
VERTEX
  5
4AA
330
4A7
100
AcDbEntity
  8
Livello 1
 62
     7
420
 16777215
370
     9
100
AcDbVertex
100
AcDb2dVertex
 10
186.8485432475587
 20
141.5128092094135
 30
0.0
  0
VERTEX
  5
4AB
330
4A7
100
AcDbEntity
  8
Livello 1
 62
     7
420
 16777215
370
     9
100
AcDbVertex
100
AcDb2dVertex
 10
186.7074665874377
 20
141.5128092094135
 30
0.0
  0
VERTEX
  5
4AC
330
4A7
100
AcDbEntity
  8
Livello 1
 62
     7
420
 16777215
370
     9
100
AcDbVertex
100
AcDb2dVertex
 10
186.5104071256814
 20
141.5128092094135
 30
0.0
  0
VERTEX
  5
4AD
330
4A7
100
AcDbEntity
  8
Livello 1
 62
     7
420
 16777215
370
     9
100
AcDbVertex
100
AcDb2dVertex
 10
186.2611544673236
 20
141.5128092094135
 30
0.0
  0
VERTEX
  5
4AE
330
4A7
100
AcDbEntity
  8
Livello 1
 62
     7
420
 16777215
370
     9
100
AcDbVertex
100
AcDb2dVertex
 10
185.9609143957841
 20
141.5128092094135
 30
0.0
  0
VERTEX
  5
4AF
330
4A7
100
AcDbEntity
  8
Livello 1
 62
     7
420
 16777215
370
     9
100
AcDbVertex
100
AcDb2dVertex
 10
185.6096869110629
 20
141.5128092094135
 30
0.0
  0
VERTEX
  5
4B0
330
4A7
100
AcDbEntity
  8
Livello 1
 62
     7
420
 16777215
370
     9
100
AcDbVertex
100
AcDb2dVertex
 10
185.2133286754849
 20
141.5128092094135
 30
0.0
  0
VERTEX
  5
4B1
330
4A7
100
AcDbEntity
  8
Livello 1
 62
     7
420
 16777215
370
     9
100
AcDbVertex
100
AcDb2dVertex
 10
184.774423510664
 20
141.5128092094135
 30
0.0
  0
VERTEX
  5
4B2
330
4A7
100
AcDbEntity
  8
Livello 1
 62
     7
420
 16777215
370
     9
100
AcDbVertex
100
AcDb2dVertex
 10
184.2957274929886
 20
141.5128092094135
 30
0.0
  0
VERTEX
  5
4B3
330
4A7
100
AcDbEntity
  8
Livello 1
 62
     7
420
 16777215
370
     9
100
AcDbVertex
100
AcDb2dVertex
 10
183.7812024822665
 20
141.5128092094135
 30
0.0
  0
VERTEX
  5
4B4
330
4A7
100
AcDbEntity
  8
Livello 1
 62
     7
420
 16777215
370
     9
100
AcDbVertex
100
AcDb2dVertex
 10
183.2360161217257
 20
141.5128092094135
 30
0.0
  0
VERTEX
  5
4B5
330
4A7
100
AcDbEntity
  8
Livello 1
 62
     7
420
 16777215
370
     9
100
AcDbVertex
100
AcDb2dVertex
 10
182.6636135068515
 20
141.5128092094135
 30
0.0
  0
VERTEX
  5
4B6
330
4A7
100
AcDbEntity
  8
Livello 1
 62
     7
420
 16777215
370
     9
100
AcDbVertex
100
AcDb2dVertex
 10
182.068128752226
 20
141.5128092094135
 30
0.0
  0
VERTEX
  5
4B7
330
4A7
100
AcDbEntity
  8
Livello 1
 62
     7
420
 16777215
370
     9
100
AcDbVertex
100
AcDb2dVertex
 10
181.4557630297229
 20
141.5128092094135
 30
0.0
  0
VERTEX
  5
4B8
330
4A7
100
AcDbEntity
  8
Livello 1
 62
     7
420
 16777215
370
     9
100
AcDbVertex
100
AcDb2dVertex
 10
180.8303059443758
 20
141.5128092094135
 30
0.0
  0
VERTEX
  5
4B9
330
4A7
100
AcDbEntity
  8
Livello 1
 62
     7
420
 16777215
370
     9
100
AcDbVertex
100
AcDb2dVertex
 10
180.1970973941868
 20
141.5128092094135
 30
0.0
  0
VERTEX
  5
4BA
330
4A7
100
AcDbEntity
  8
Livello 1
 62
     7
420
 16777215
370
     9
100
AcDbVertex
100
AcDb2dVertex
 10
179.5614772771582
 20
141.5128092094135
 30
0.0
  0
VERTEX
  5
4BB
330
4A7
100
AcDbEntity
  8
Livello 1
 62
     7
420
 16777215
370
     9
100
AcDbVertex
100
AcDb2dVertex
 10
178.9289577460664
 20
141.5128092094135
 30
0.0
  0
VERTEX
  5
4BC
330
4A7
100
AcDbEntity
  8
Livello 1
 62
     7
420
 16777215
370
     9
100
AcDbVertex
100
AcDb2dVertex
 10
178.3036729154935
 20
141.5128092094135
 30
0.0
  0
VERTEX
  5
4BD
330
4A7
100
AcDbEntity
  8
Livello 1
 62
     7
420
 16777215
370
     9
100
AcDbVertex
100
AcDb2dVertex
 10
177.6911349382161
 20
141.5128092094135
 30
0.0
  0
VERTEX
  5
4BE
330
4A7
100
AcDbEntity
  8
Livello 1
 62
     7
420
 16777215
370
     9
100
AcDbVertex
100
AcDb2dVertex
 10
177.0954779288164
 20
141.5128092094135
 30
0.0
  0
VERTEX
  5
4BF
330
4A7
100
AcDbEntity
  8
Livello 1
 62
     7
420
 16777215
370
     9
100
AcDbVertex
100
AcDb2dVertex
 10
176.5222140400708
 20
141.5128092094135
 30
0.0
  0
VERTEX
  5
4C0
330
4A7
100
AcDbEntity
  8
Livello 1
 62
     7
420
 16777215
370
     9
100
AcDbVertex
100
AcDb2dVertex
 10
175.9768554247558
 20
141.5128092094135
 30
0.0
  0
VERTEX
  5
4C1
330
4A7
100
AcDbEntity
  8
Livello 1
 62
     7
420
 16777215
370
     9
100
AcDbVertex
100
AcDb2dVertex
 10
175.4637084522278
 20
141.5128092094135
 30
0.0
  0
VERTEX
  5
4C2
330
4A7
100
AcDbEntity
  8
Livello 1
 62
     7
420
 16777215
370
     9
100
AcDbVertex
100
AcDb2dVertex
 10
174.9843234154553
 20
141.5128092094135
 30
0.0
  0
VERTEX
  5
4C3
330
4A7
100
AcDbEntity
  8
Livello 1
 62
     7
420
 16777215
370
     9
100
AcDbVertex
100
AcDb2dVertex
 10
174.5449014863117
 20
141.5128092094135
 30
0.0
  0
VERTEX
  5
4C4
330
4A7
100
AcDbEntity
  8
Livello 1
 62
     7
420
 16777215
370
     9
100
AcDbVertex
100
AcDb2dVertex
 10
174.1490600150565
 20
141.5128092094135
 30
0.0
  0
VERTEX
  5
4C5
330
4A7
100
AcDbEntity
  8
Livello 1
 62
     7
420
 16777215
370
     9
100
AcDbVertex
100
AcDb2dVertex
 10
173.7988660589808
 20
141.5128092094135
 30
0.0
  0
VERTEX
  5
4C6
330
4A7
100
AcDbEntity
  8
Livello 1
 62
     7
420
 16777215
370
     9
100
AcDbVertex
100
AcDb2dVertex
 10
173.4975924587957
 20
141.5128092094135
 30
0.0
  0
VERTEX
  5
4C7
330
4A7
100
AcDbEntity
  8
Livello 1
 62
     7
420
 16777215
370
     9
100
AcDbVertex
100
AcDb2dVertex
 10
173.2481675456636
 20
141.5128092094135
 30
0.0
  0
VERTEX
  5
4C8
330
4A7
100
AcDbEntity
  8
Livello 1
 62
     7
420
 16777215
370
     9
100
AcDbVertex
100
AcDb2dVertex
 10
173.0517971030044
 20
141.5128092094135
 30
0.0
  0
VERTEX
  5
4C9
330
4A7
100
AcDbEntity
  8
Livello 1
 62
     7
420
 16777215
370
     9
100
AcDbVertex
100
AcDb2dVertex
 10
172.9102036785607
 20
141.5128092094135
 30
0.0
  0
VERTEX
  5
4CA
330
4A7
100
AcDbEntity
  8
Livello 1
 62
     7
420
 16777215
370
     9
100
AcDbVertex
100
AcDb2dVertex
 10
172.8245930557522
 20
141.5128092094135
 30
0.0
  0
VERTEX
  5
4CB
330
4A7
100
AcDbEntity
  8
Livello 1
 62
     7
420
 16777215
370
     9
100
AcDbVertex
100
AcDb2dVertex
 10
172.7966877823217
 20
141.5128092094135
 30
0.0
  0
SEQEND
  5
4CC
330
4A7
100
AcDbEntity
  8
Livello 1
370
     9
  0
ENDBLK
  5
4A6
330
4A3
100
AcDbEntity
  8
0
100
AcDbBlockEnd
  0
BLOCK
  5
4CF
330
4CD
100
AcDbEntity
  8
0
100
AcDbBlockBegin
  2
block 108
 70
     0
 71
     0
 10
0.0
 20
0.0
 30
0.0
  3
block 108
  1

  0
MTEXT
  5
4D1
330
4CD
100
AcDbEntity
  8
Livello 1
 62
     7
420
 16777215
100
AcDbMText
 10
169.7965263789918
 20
129.4001979928236
 30
0.0
 40
1.079499999730125
 41
0.0
 71
     7
 72
     1
  1
\fFrutiger LT 45 Light|b0|i0|c0|p34;\W1;\U+00D8260
 11
-4.371139000186241E-8
 21
0.999999999999999
 31
0.0
 73
     1
 44
1.0
  0
ENDBLK
  5
4D0
330
4CD
100
AcDbEntity
  8
0
100
AcDbBlockEnd
  0
BLOCK
  5
4D4
330
4D2
100
AcDbEntity
  8
0
100
AcDbBlockBegin
  2
block 109
 70
     0
 71
     0
 10
0.0
 20
0.0
 30
0.0
  3
block 109
  1

  0
MTEXT
  5
4D6
330
4D2
100
AcDbEntity
  8
Livello 1
 62
     7
420
 16777215
100
AcDbMText
 10
169.7965263789918
 20
182.2615708637228
 30
0.0
 40
1.079499999730125
 41
0.0
 71
     7
 72
     1
  1
\fFrutiger LT 45 Light|b0|i0|c0|p34;\W1;1670
 11
-4.371139000186241E-8
 21
0.999999999999999
 31
0.0
 73
     1
 44
1.0
  0
ENDBLK
  5
4D5
330
4D2
100
AcDbEntity
  8
0
100
AcDbBlockEnd
  0
BLOCK
  5
4D9
330
4D7
100
AcDbEntity
  8
0
100
AcDbBlockBegin
  2
block 110
 70
     0
 71
     0
 10
0.0
 20
0.0
 30
0.0
  3
block 110
  1

  0
MTEXT
  5
4DB
330
4D7
100
AcDbEntity
  8
Livello 1
 62
     7
420
 16777215
100
AcDbMText
 10
194.0072794111336
 20
173.7525295247042
 30
0.0
 40
1.079499999730125
 41
0.0
 71
     7
 72
     1
  1
\fFrutiger LT 45 Light|b0|i0|c0|p34;\W1;1360
 11
-4.371139000186241E-8
 21
0.999999999999999
 31
0.0
 73
     1
 44
1.0
  0
ENDBLK
  5
4DA
330
4D7
100
AcDbEntity
  8
0
100
AcDbBlockEnd
  0
ENDSEC
  0
SECTION
  2
ENTITIES
  0
INSERT
  5
3D
330
1F
100
AcDbEntity
  8
Livello 1
100
AcDbBlockReference
  2
block 2
 10
0.0
 20
0.0
 30
0.0
  0
INSERT
  5
42
330
1F
100
AcDbEntity
  8
Livello 1
100
AcDbBlockReference
  2
block 3
 10
0.0
 20
0.0
 30
0.0
  0
INSERT
  5
47
330
1F
100
AcDbEntity
  8
Livello 1
100
AcDbBlockReference
  2
block 4
 10
0.0
 20
0.0
 30
0.0
  0
INSERT
  5
4C
330
1F
100
AcDbEntity
  8
Livello 1
100
AcDbBlockReference
  2
block 5
 10
0.0
 20
0.0
 30
0.0
  0
INSERT
  5
51
330
1F
100
AcDbEntity
  8
Livello 1
100
AcDbBlockReference
  2
block 6
 10
0.0
 20
0.0
 30
0.0
  0
INSERT
  5
56
330
1F
100
AcDbEntity
  8
Livello 1
100
AcDbBlockReference
  2
block 7
 10
0.0
 20
0.0
 30
0.0
  0
INSERT
  5
5B
330
1F
100
AcDbEntity
  8
Livello 1
100
AcDbBlockReference
  2
block 8
 10
0.0
 20
0.0
 30
0.0
  0
INSERT
  5
60
330
1F
100
AcDbEntity
  8
Livello 1
100
AcDbBlockReference
  2
block 9
 10
0.0
 20
0.0
 30
0.0
  0
INSERT
  5
65
330
1F
100
AcDbEntity
  8
Livello 1
100
AcDbBlockReference
  2
block 10
 10
0.0
 20
0.0
 30
0.0
  0
INSERT
  5
6A
330
1F
100
AcDbEntity
  8
Livello 1
100
AcDbBlockReference
  2
block 11
 10
0.0
 20
0.0
 30
0.0
  0
INSERT
  5
6F
330
1F
100
AcDbEntity
  8
Livello 1
100
AcDbBlockReference
  2
block 12
 10
0.0
 20
0.0
 30
0.0
  0
INSERT
  5
74
330
1F
100
AcDbEntity
  8
Livello 1
100
AcDbBlockReference
  2
block 13
 10
0.0
 20
0.0
 30
0.0
  0
INSERT
  5
79
330
1F
100
AcDbEntity
  8
Livello 1
100
AcDbBlockReference
  2
block 14
 10
0.0
 20
0.0
 30
0.0
  0
INSERT
  5
7E
330
1F
100
AcDbEntity
  8
Livello 1
100
AcDbBlockReference
  2
block 15
 10
0.0
 20
0.0
 30
0.0
  0
INSERT
  5
83
330
1F
100
AcDbEntity
  8
Livello 1
100
AcDbBlockReference
  2
block 16
 10
0.0
 20
0.0
 30
0.0
  0
INSERT
  5
88
330
1F
100
AcDbEntity
  8
Livello 1
100
AcDbBlockReference
  2
block 17
 10
0.0
 20
0.0
 30
0.0
  0
INSERT
  5
8D
330
1F
100
AcDbEntity
  8
Livello 1
100
AcDbBlockReference
  2
block 18
 10
0.0
 20
0.0
 30
0.0
  0
INSERT
  5
92
330
1F
100
AcDbEntity
  8
Livello 1
100
AcDbBlockReference
  2
block 19
 10
0.0
 20
0.0
 30
0.0
  0
INSERT
  5
B9
330
1F
100
AcDbEntity
  8
Livello 1
100
AcDbBlockReference
  2
block 20
 10
0.0
 20
0.0
 30
0.0
  0
INSERT
  5
C0
330
1F
100
AcDbEntity
  8
Livello 1
100
AcDbBlockReference
  2
block 21
 10
0.0
 20
0.0
 30
0.0
  0
INSERT
  5
C5
330
1F
100
AcDbEntity
  8
Livello 1
100
AcDbBlockReference
  2
block 22
 10
0.0
 20
0.0
 30
0.0
  0
INSERT
  5
D0
330
1F
100
AcDbEntity
  8
Livello 1
100
AcDbBlockReference
  2
block 23
 10
0.0
 20
0.0
 30
0.0
  0
INSERT
  5
DB
330
1F
100
AcDbEntity
  8
Livello 1
100
AcDbBlockReference
  2
block 24
 10
0.0
 20
0.0
 30
0.0
  0
INSERT
  5
E0
330
1F
100
AcDbEntity
  8
Livello 1
100
AcDbBlockReference
  2
block 25
 10
0.0
 20
0.0
 30
0.0
  0
INSERT
  5
ED
330
1F
100
AcDbEntity
  8
Livello 1
100
AcDbBlockReference
  2
block 26
 10
0.0
 20
0.0
 30
0.0
  0
INSERT
  5
F2
330
1F
100
AcDbEntity
  8
Livello 1
100
AcDbBlockReference
  2
block 27
 10
0.0
 20
0.0
 30
0.0
  0
INSERT
  5
F7
330
1F
100
AcDbEntity
  8
Livello 1
100
AcDbBlockReference
  2
block 28
 10
0.0
 20
0.0
 30
0.0
  0
INSERT
  5
106
330
1F
100
AcDbEntity
  8
Livello 1
100
AcDbBlockReference
  2
block 29
 10
0.0
 20
0.0
 30
0.0
  0
INSERT
  5
124
330
1F
100
AcDbEntity
  8
Livello 1
100
AcDbBlockReference
  2
block 30
 10
0.0
 20
0.0
 30
0.0
  0
INSERT
  5
143
330
1F
100
AcDbEntity
  8
Livello 1
100
AcDbBlockReference
  2
block 31
 10
0.0
 20
0.0
 30
0.0
  0
INSERT
  5
14D
330
1F
100
AcDbEntity
  8
Livello 1
100
AcDbBlockReference
  2
block 32
 10
0.0
 20
0.0
 30
0.0
  0
INSERT
  5
157
330
1F
100
AcDbEntity
  8
Livello 1
100
AcDbBlockReference
  2
block 33
 10
0.0
 20
0.0
 30
0.0
  0
INSERT
  5
15F
330
1F
100
AcDbEntity
  8
Livello 1
100
AcDbBlockReference
  2
block 34
 10
0.0
 20
0.0
 30
0.0
  0
INSERT
  5
167
330
1F
100
AcDbEntity
  8
Livello 1
100
AcDbBlockReference
  2
block 35
 10
0.0
 20
0.0
 30
0.0
  0
INSERT
  5
16F
330
1F
100
AcDbEntity
  8
Livello 1
100
AcDbBlockReference
  2
block 36
 10
0.0
 20
0.0
 30
0.0
  0
INSERT
  5
177
330
1F
100
AcDbEntity
  8
Livello 1
100
AcDbBlockReference
  2
block 37
 10
0.0
 20
0.0
 30
0.0
  0
SPLINE
  5
17E
330
1F
100
AcDbEntity
  8
Livello 1
 62
     7
420
 16777215
370
     9
100
AcDbSpline
210
0.0
220
0.0
230
1.0
 70
     8
 71
     3
 72
   185
 73
   181
 74
     0
 42
0.0000000001
 43
0.0000000001
 40
0.0
 40
0.0
 40
0.0
 40
0.0
 40
1.0
 40
1.0
 40
1.0
 40
2.0
 40
2.0
 40
2.0
 40
3.0
 40
3.0
 40
3.0
 40
4.0
 40
4.0
 40
4.0
 40
5.0
 40
5.0
 40
5.0
 40
6.0
 40
6.0
 40
6.0
 40
7.0
 40
7.0
 40
7.0
 40
8.0
 40
8.0
 40
8.0
 40
9.0
 40
9.0
 40
9.0
 40
10.0
 40
10.0
 40
10.0
 40
11.0
 40
11.0
 40
11.0
 40
12.0
 40
12.0
 40
12.0
 40
13.0
 40
13.0
 40
13.0
 40
14.0
 40
14.0
 40
14.0
 40
15.0
 40
15.0
 40
15.0
 40
16.0
 40
16.0
 40
16.0
 40
17.0
 40
17.0
 40
17.0
 40
18.0
 40
18.0
 40
18.0
 40
19.0
 40
19.0
 40
19.0
 40
20.0
 40
20.0
 40
20.0
 40
21.0
 40
21.0
 40
21.0
 40
22.0
 40
22.0
 40
22.0
 40
23.0
 40
23.0
 40
23.0
 40
24.0
 40
24.0
 40
24.0
 40
25.0
 40
25.0
 40
25.0
 40
26.0
 40
26.0
 40
26.0
 40
27.0
 40
27.0
 40
27.0
 40
28.0
 40
28.0
 40
28.0
 40
29.0
 40
29.0
 40
29.0
 40
30.0
 40
30.0
 40
30.0
 40
31.0
 40
31.0
 40
31.0
 40
32.0
 40
32.0
 40
32.0
 40
33.0
 40
33.0
 40
33.0
 40
34.0
 40
34.0
 40
34.0
 40
35.0
 40
35.0
 40
35.0
 40
36.0
 40
36.0
 40
36.0
 40
37.0
 40
37.0
 40
37.0
 40
38.0
 40
38.0
 40
38.0
 40
39.0
 40
39.0
 40
39.0
 40
40.0
 40
40.0
 40
40.0
 40
41.0
 40
41.0
 40
41.0
 40
42.0
 40
42.0
 40
42.0
 40
43.0
 40
43.0
 40
43.0
 40
44.0
 40
44.0
 40
44.0
 40
45.0
 40
45.0
 40
45.0
 40
46.0
 40
46.0
 40
46.0
 40
47.0
 40
47.0
 40
47.0
 40
48.0
 40
48.0
 40
48.0
 40
49.0
 40
49.0
 40
49.0
 40
50.0
 40
50.0
 40
50.0
 40
51.0
 40
51.0
 40
51.0
 40
52.0
 40
52.0
 40
52.0
 40
53.0
 40
53.0
 40
53.0
 40
54.0
 40
54.0
 40
54.0
 40
55.0
 40
55.0
 40
55.0
 40
56.0
 40
56.0
 40
56.0
 40
57.0
 40
57.0
 40
57.0
 40
58.0
 40
58.0
 40
58.0
 40
59.0
 40
59.0
 40
59.0
 40
60.0
 40
60.0
 40
60.0
 40
60.0
 10
186.345387051938
 20
130.6779839083027
 30
0.0
 10
186.345387051938
 20
130.6779839083027
 30
0.0
 10
186.3620957650414
 20
130.6890082138555
 30
0.0
 10
186.3620957650414
 20
130.6890082138555
 30
0.0
 10
186.3620957650414
 20
130.6890082138555
 30
0.0
 10
186.3751871278854
 20
130.7079562390244
 30
0.0
 10
186.3751871278854
 20
130.7079562390244
 30
0.0
 10
186.3751871278854
 20
130.7079562390244
 30
0.0
 10
186.3850056500183
 20
130.7262152450962
 30
0.0
 10
186.3850056500183
 20
130.7262152450962
 30
0.0
 10
186.3850056500183
 20
130.7262152450962
 30
0.0
 10
186.3920680957631
 20
130.75101993259
 30
0.0
 10
186.3920680957631
 20
130.75101993259
 30
0.0
 10
186.3920680957631
 20
130.75101993259
 30
0.0
 10
186.39396289828
 20
130.7620442381428
 30
0.0
 10
186.39396289828
 20
130.7620442381428
 30
0.0
 10
186.39396289828
 20
130.7620442381428
 30
0.0
 10
186.3960299555712
 20
130.7751356009868
 30
0.0
 10
186.3960299555712
 20
130.7751356009868
 30
0.0
 10
186.3960299555712
 20
130.7751356009868
 30
0.0
 10
186.3960299555712
 20
130.785815396991
 30
0.0
 10
186.3960299555712
 20
130.785815396991
 30
0.0
 10
186.3960299555712
 20
130.785815396991
 30
0.0
 10
186.397924758088
 20
130.8002847980291
 30
0.0
 10
186.397924758088
 20
130.8002847980291
 30
0.0
 10
186.397924758088
 20
130.8002847980291
 30
0.0
 10
186.397924758088
 20
130.8116536131304
 30
0.0
 10
186.397924758088
 20
130.8116536131304
 30
0.0
 10
186.397924758088
 20
130.8116536131304
 30
0.0
 10
186.397924758088
 20
130.8244004664259
 30
0.0
 10
186.397924758088
 20
130.8244004664259
 30
0.0
 10
186.397924758088
 20
130.8244004664259
 30
0.0
 10
186.397924758088
 20
130.8374918292698
 30
0.0
 10
186.397924758088
 20
130.8374918292698
 30
0.0
 10
186.397924758088
 20
130.8374918292698
 30
0.0
 10
186.3960299555712
 20
130.8505831921138
 30
0.0
 10
186.3960299555712
 20
130.8505831921138
 30
0.0
 10
186.3960299555712
 20
130.8505831921138
 30
0.0
 10
186.3882784907293
 20
130.875043370059
 30
0.0
 10
186.3882784907293
 20
130.875043370059
 30
0.0
 10
186.3882784907293
 20
130.875043370059
 30
0.0
 10
186.3770819304023
 20
130.9012260957469
 30
0.0
 10
186.3770819304023
 20
130.9012260957469
 30
0.0
 10
186.3770819304023
 20
130.9012260957469
 30
0.0
 10
186.3712252680774
 20
130.9122504012997
 30
0.0
 10
186.3712252680774
 20
130.9122504012997
 30
0.0
 10
186.3712252680774
 20
130.9122504012997
 30
0.0
 10
186.3641628223326
 20
130.922930197304
 30
0.0
 10
186.3641628223326
 20
130.922930197304
 30
0.0
 10
186.3550333192967
 20
130.929475878726
 30
0.0
 10
186.3471095996806
 20
130.9384331269876
 30
0.0
 10
186.3471095996806
 20
130.9384331269876
 30
0.0
 10
186.3400471539358
 20
130.9442897893125
 30
0.0
 10
186.3302286318029
 20
130.9508354707345
 30
0.0
 10
186.3302286318029
 20
130.9508354707345
 30
0.0
 10
186.3231661860581
 20
130.9553140948653
 30
0.0
 10
186.3133476639252
 20
130.9594482094477
 30
0.0
 10
186.3133476639252
 20
130.9594482094477
 30
0.0
 10
186.3133476639252
 20
130.9594482094477
 30
0.0
 10
186.2983614985643
 20
130.9656493813211
 30
0.0
 10
186.2983614985643
 20
130.9656493813211
 30
0.0
 10
186.2983614985643
 20
130.9656493813211
 30
0.0
 10
186.2852701357204
 20
130.9680609481608
 30
0.0
 10
186.2852701357204
 20
130.9680609481608
 30
0.0
 10
186.2852701357204
 20
130.9680609481608
 30
0.0
 10
186.2508191808679
 20
130.9766736868739
 30
0.0
 10
186.2508191808679
 20
130.9766736868739
 30
0.0
 10
186.2508191808679
 20
130.9766736868739
 30
0.0
 10
186.2184352833065
 20
130.978740744165
 30
0.0
 10
186.2184352833065
 20
130.978740744165
 30
0.0
 10
186.2184352833065
 20
130.978740744165
 30
0.0
 10
186.1650363032851
 20
130.9825303491988
 30
0.0
 10
186.1650363032851
 20
130.9825303491988
 30
0.0
 10
186.1650363032851
 20
130.9825303491988
 30
0.0
 10
186.107158699133
 20
130.9832193682959
 30
0.0
 10
186.107158699133
 20
130.9832193682959
 30
0.0
 10
186.107158699133
 20
130.9832193682959
 30
0.0
 10
186.025165426584
 20
130.9832193682959
 30
0.0
 10
186.025165426584
 20
130.9832193682959
 30
0.0
 10
186.025165426584
 20
130.9832193682959
 30
0.0
 10
185.9361097082903
 20
130.9825303491988
 30
0.0
 10
185.9361097082903
 20
130.9825303491988
 30
0.0
 10
185.9361097082903
 20
130.9825303491988
 30
0.0
 10
185.828278219602
 20
130.978740744165
 30
0.0
 10
185.828278219602
 20
130.978740744165
 30
0.0
 10
185.828278219602
 20
130.978740744165
 30
0.0
 10
185.7128675208461
 20
130.9721950627431
 30
0.0
 10
185.7128675208461
 20
130.9721950627431
 30
0.0
 10
185.7128675208461
 20
130.9721950627431
 30
0.0
 10
185.6024522105438
 20
130.9639268335785
 30
0.0
 10
185.6024522105438
 20
130.9639268335785
 30
0.0
 10
185.6024522105438
 20
130.9639268335785
 30
0.0
 10
185.4873860213365
 20
130.9525580184771
 30
0.0
 10
185.4873860213365
 20
130.9525580184771
 30
0.0
 10
185.4873860213365
 20
130.9525580184771
 30
0.0
 10
185.380760316068
 20
130.9405001842788
 30
0.0
 10
185.380760316068
 20
130.9405001842788
 30
0.0
 10
185.380760316068
 20
130.9405001842788
 30
0.0
 10
185.2713785344113
 20
130.922930197304
 30
0.0
 10
185.2713785344113
 20
130.922930197304
 30
0.0
 10
185.2713785344113
 20
130.922930197304
 30
0.0
 10
185.1745713512758
 20
130.9063937389748
 30
0.0
 10
185.1745713512758
 20
130.9063937389748
 30
0.0
 10
185.1745713512758
 20
130.9063937389748
 30
0.0
 10
185.0760416203977
 20
130.888134732903
 30
0.0
 10
185.0760416203977
 20
130.888134732903
 30
0.0
 10
185.0760416203977
 20
130.888134732903
 30
0.0
 10
184.9902587428149
 20
130.8674641599915
 30
0.0
 10
184.9902587428149
 20
130.8674641599915
 30
0.0
 10
184.9902587428149
 20
130.8674641599915
 30
0.0
 10
184.904303610458
 20
130.8464490775314
 30
0.0
 10
184.904303610458
 20
130.8464490775314
 30
0.0
 10
184.904303610458
 20
130.8464490775314
 30
0.0
 10
184.7391112819402
 20
130.8002847980291
 30
0.0
 10
184.7391112819402
 20
130.8002847980291
 30
0.0
 10
184.7391112819402
 20
130.8002847980291
 30
0.0
 10
184.5739189534225
 20
130.7492973848474
 30
0.0
 10
184.5739189534225
 20
130.7492973848474
 30
0.0
 10
184.5739189534225
 20
130.7492973848474
 30
0.0
 10
184.4159613254238
 20
130.6945203666319
 30
0.0
 10
184.4159613254238
 20
130.6945203666319
 30
0.0
 10
184.4159613254238
 20
130.6945203666319
 30
0.0
 10
184.2580036974251
 20
130.640087857965
 30
0.0
 10
184.2580036974251
 20
130.640087857965
 30
0.0
 10
184.2580036974251
 20
130.640087857965
 30
0.0
 10
184.0556043376667
 20
130.5670518336777
 30
0.0
 10
184.0556043376667
 20
130.5670518336777
 30
0.0
 10
184.0556043376667
 20
130.5670518336777
 30
0.0
 10
183.8545830161023
 20
130.4978054144242
 30
0.0
 10
183.8545830161023
 20
130.4978054144242
 30
0.0
 10
183.8545830161023
 20
130.4978054144242
 30
0.0
 10
183.6530449302152
 20
130.4344156574956
 30
0.0
 10
183.6530449302152
 20
130.4344156574956
 30
0.0
 10
183.6530449302152
 20
130.4344156574956
 30
0.0
 10
183.4530571372965
 20
130.3765380533434
 30
0.0
 10
183.4530571372965
 20
130.3765380533434
 30
0.0
 10
183.4530571372965
 20
130.3765380533434
 30
0.0
 10
183.2391167076624
 20
130.3248616210646
 30
0.0
 10
183.2391167076624
 20
130.3248616210646
 30
0.0
 10
183.2391167076624
 20
130.3248616210646
 30
0.0
 10
183.0258652971255
 20
130.2842094943387
 30
0.0
 10
183.0258652971255
 20
130.2842094943387
 30
0.0
 10
183.0258652971255
 20
130.2842094943387
 30
0.0
 10
182.8660128666099
 20
130.2573377495537
 30
0.0
 10
182.8660128666099
 20
130.2573377495537
 30
0.0
 10
182.8660128666099
 20
130.2573377495537
 30
0.0
 10
182.7046101431259
 20
130.2373561957393
 30
0.0
 10
182.7046101431259
 20
130.2373561957393
 30
0.0
 10
182.7046101431259
 20
130.2373561957393
 30
0.0
 10
182.5855820941105
 20
130.2259873806379
 30
0.0
 10
182.5855820941105
 20
130.2259873806379
 30
0.0
 10
182.5855820941105
 20
130.2259873806379
 30
0.0
 10
182.4655205164496
 20
130.2156520941822
 30
0.0
 10
182.4655205164496
 20
130.2156520941822
 30
0.0
 10
182.4655205164496
 20
130.2156520941822
 30
0.0
 10
182.3494207985967
 20
130.2115179795999
 30
0.0
 10
182.3494207985967
 20
130.2115179795999
 30
0.0
 10
182.3494207985967
 20
130.2115179795999
 30
0.0
 10
182.2324598068724
 20
130.2115179795999
 30
0.0
 10
182.2324598068724
 20
130.2115179795999
 30
0.0
 10
182.2324598068724
 20
130.2115179795999
 30
0.0
 10
182.0839761914582
 20
130.2115179795999
 30
0.0
 10
182.0839761914582
 20
130.2115179795999
 30
0.0
 10
182.0839761914582
 20
130.2115179795999
 30
0.0
 10
181.936181595141
 20
130.220130718313
 30
0.0
 10
181.936181595141
 20
130.220130718313
 30
0.0
 10
181.936181595141
 20
130.220130718313
 30
0.0
 10
181.7089775478887
 20
130.2408012912245
 30
0.0
 10
181.7089775478887
 20
130.2408012912245
 30
0.0
 10
181.7089775478887
 20
130.2408012912245
 30
0.0
 10
181.4824625197336
 20
130.2742187174314
 30
0.0
 10
181.4824625197336
 20
130.2742187174314
 30
0.0
 10
181.4824625197336
 20
130.2742187174314
 30
0.0
 10
181.2695556187451
 20
130.3193494682882
 30
0.0
 10
181.2695556187451
 20
130.3193494682882
 30
0.0
 10
181.2695556187451
 20
130.3193494682882
 30
0.0
 10
181.0576822464023
 20
130.371714919664
 30
0.0
 10
181.0576822464023
 20
130.371714919664
 30
0.0
 10
181.0576822464023
 20
130.371714919664
 30
0.0
 10
180.9362426305472
 20
130.4078884222591
 30
0.0
 10
180.9362426305472
 20
130.4078884222591
 30
0.0
  0
INSERT
  5
180
330
1F
100
AcDbEntity
  8
Livello 1
100
AcDbBlockReference
  2
block 38
 10
0.0
 20
0.0
 30
0.0
  0
INSERT
  5
1AF
330
1F
100
AcDbEntity
  8
Livello 1
100
AcDbBlockReference
  2
block 39
 10
0.0
 20
0.0
 30
0.0
  0
INSERT
  5
1B6
330
1F
100
AcDbEntity
  8
Livello 1
100
AcDbBlockReference
  2
block 40
 10
0.0
 20
0.0
 30
0.0
  0
INSERT
  5
1BE
330
1F
100
AcDbEntity
  8
Livello 1
100
AcDbBlockReference
  2
block 41
 10
0.0
 20
0.0
 30
0.0
  0
INSERT
  5
1C6
330
1F
100
AcDbEntity
  8
Livello 1
100
AcDbBlockReference
  2
block 42
 10
0.0
 20
0.0
 30
0.0
  0
INSERT
  5
1CE
330
1F
100
AcDbEntity
  8
Livello 1
100
AcDbBlockReference
  2
block 43
 10
0.0
 20
0.0
 30
0.0
  0
INSERT
  5
1D6
330
1F
100
AcDbEntity
  8
Livello 1
100
AcDbBlockReference
  2
block 44
 10
0.0
 20
0.0
 30
0.0
  0
INSERT
  5
1DE
330
1F
100
AcDbEntity
  8
Livello 1
100
AcDbBlockReference
  2
block 45
 10
0.0
 20
0.0
 30
0.0
  0
INSERT
  5
1E6
330
1F
100
AcDbEntity
  8
Livello 1
100
AcDbBlockReference
  2
block 46
 10
0.0
 20
0.0
 30
0.0
  0
INSERT
  5
1EF
330
1F
100
AcDbEntity
  8
Livello 1
100
AcDbBlockReference
  2
block 47
 10
0.0
 20
0.0
 30
0.0
  0
INSERT
  5
1F4
330
1F
100
AcDbEntity
  8
Livello 1
100
AcDbBlockReference
  2
block 48
 10
0.0
 20
0.0
 30
0.0
  0
INSERT
  5
1FF
330
1F
100
AcDbEntity
  8
Livello 1
100
AcDbBlockReference
  2
block 49
 10
0.0
 20
0.0
 30
0.0
  0
INSERT
  5
20A
330
1F
100
AcDbEntity
  8
Livello 1
100
AcDbBlockReference
  2
block 50
 10
0.0
 20
0.0
 30
0.0
  0
INSERT
  5
219
330
1F
100
AcDbEntity
  8
Livello 1
100
AcDbBlockReference
  2
block 51
 10
0.0
 20
0.0
 30
0.0
  0
INSERT
  5
222
330
1F
100
AcDbEntity
  8
Livello 1
100
AcDbBlockReference
  2
block 52
 10
0.0
 20
0.0
 30
0.0
  0
INSERT
  5
22B
330
1F
100
AcDbEntity
  8
Livello 1
100
AcDbBlockReference
  2
block 53
 10
0.0
 20
0.0
 30
0.0
  0
INSERT
  5
234
330
1F
100
AcDbEntity
  8
Livello 1
100
AcDbBlockReference
  2
block 54
 10
0.0
 20
0.0
 30
0.0
  0
INSERT
  5
23B
330
1F
100
AcDbEntity
  8
Livello 1
100
AcDbBlockReference
  2
block 55
 10
0.0
 20
0.0
 30
0.0
  0
INSERT
  5
242
330
1F
100
AcDbEntity
  8
Livello 1
100
AcDbBlockReference
  2
block 56
 10
0.0
 20
0.0
 30
0.0
  0
INSERT
  5
249
330
1F
100
AcDbEntity
  8
Livello 1
100
AcDbBlockReference
  2
block 57
 10
0.0
 20
0.0
 30
0.0
  0
INSERT
  5
251
330
1F
100
AcDbEntity
  8
Livello 1
100
AcDbBlockReference
  2
block 58
 10
0.0
 20
0.0
 30
0.0
  0
INSERT
  5
258
330
1F
100
AcDbEntity
  8
Livello 1
100
AcDbBlockReference
  2
block 59
 10
0.0
 20
0.0
 30
0.0
  0
INSERT
  5
260
330
1F
100
AcDbEntity
  8
Livello 1
100
AcDbBlockReference
  2
block 60
 10
0.0
 20
0.0
 30
0.0
  0
INSERT
  5
268
330
1F
100
AcDbEntity
  8
Livello 1
100
AcDbBlockReference
  2
block 61
 10
0.0
 20
0.0
 30
0.0
  0
INSERT
  5
270
330
1F
100
AcDbEntity
  8
Livello 1
100
AcDbBlockReference
  2
block 62
 10
0.0
 20
0.0
 30
0.0
  0
INSERT
  5
278
330
1F
100
AcDbEntity
  8
Livello 1
100
AcDbBlockReference
  2
block 63
 10
0.0
 20
0.0
 30
0.0
  0
INSERT
  5
280
330
1F
100
AcDbEntity
  8
Livello 1
100
AcDbBlockReference
  2
block 64
 10
0.0
 20
0.0
 30
0.0
  0
INSERT
  5
288
330
1F
100
AcDbEntity
  8
Livello 1
100
AcDbBlockReference
  2
block 65
 10
0.0
 20
0.0
 30
0.0
  0
INSERT
  5
29E
330
1F
100
AcDbEntity
  8
Livello 1
100
AcDbBlockReference
  2
block 66
 10
0.0
 20
0.0
 30
0.0
  0
INSERT
  5
2A3
330
1F
100
AcDbEntity
  8
Livello 1
100
AcDbBlockReference
  2
block 67
 10
0.0
 20
0.0
 30
0.0
  0
INSERT
  5
2AF
330
1F
100
AcDbEntity
  8
Livello 1
100
AcDbBlockReference
  2
block 68
 10
0.0
 20
0.0
 30
0.0
  0
INSERT
  5
2BB
330
1F
100
AcDbEntity
  8
Livello 1
100
AcDbBlockReference
  2
block 69
 10
0.0
 20
0.0
 30
0.0
  0
INSERT
  5
2C7
330
1F
100
AcDbEntity
  8
Livello 1
100
AcDbBlockReference
  2
block 70
 10
0.0
 20
0.0
 30
0.0
  0
INSERT
  5
2D3
330
1F
100
AcDbEntity
  8
Livello 1
100
AcDbBlockReference
  2
block 71
 10
0.0
 20
0.0
 30
0.0
  0
INSERT
  5
2E2
330
1F
100
AcDbEntity
  8
Livello 1
100
AcDbBlockReference
  2
block 72
 10
0.0
 20
0.0
 30
0.0
  0
INSERT
  5
2E9
330
1F
100
AcDbEntity
  8
Livello 1
100
AcDbBlockReference
  2
block 73
 10
0.0
 20
0.0
 30
0.0
  0
INSERT
  5
2F1
330
1F
100
AcDbEntity
  8
Livello 1
100
AcDbBlockReference
  2
block 74
 10
0.0
 20
0.0
 30
0.0
  0
INSERT
  5
2F9
330
1F
100
AcDbEntity
  8
Livello 1
100
AcDbBlockReference
  2
block 75
 10
0.0
 20
0.0
 30
0.0
  0
INSERT
  5
300
330
1F
100
AcDbEntity
  8
Livello 1
100
AcDbBlockReference
  2
block 76
 10
0.0
 20
0.0
 30
0.0
  0
INSERT
  5
308
330
1F
100
AcDbEntity
  8
Livello 1
100
AcDbBlockReference
  2
block 77
 10
0.0
 20
0.0
 30
0.0
  0
INSERT
  5
310
330
1F
100
AcDbEntity
  8
Livello 1
100
AcDbBlockReference
  2
block 78
 10
0.0
 20
0.0
 30
0.0
  0
INSERT
  5
318
330
1F
100
AcDbEntity
  8
Livello 1
100
AcDbBlockReference
  2
block 79
 10
0.0
 20
0.0
 30
0.0
  0
INSERT
  5
320
330
1F
100
AcDbEntity
  8
Livello 1
100
AcDbBlockReference
  2
block 80
 10
0.0
 20
0.0
 30
0.0
  0
INSERT
  5
328
330
1F
100
AcDbEntity
  8
Livello 1
100
AcDbBlockReference
  2
block 81
 10
0.0
 20
0.0
 30
0.0
  0
INSERT
  5
330
330
1F
100
AcDbEntity
  8
Livello 1
100
AcDbBlockReference
  2
block 82
 10
0.0
 20
0.0
 30
0.0
  0
INSERT
  5
338
330
1F
100
AcDbEntity
  8
Livello 1
100
AcDbBlockReference
  2
block 83
 10
0.0
 20
0.0
 30
0.0
  0
INSERT
  5
340
330
1F
100
AcDbEntity
  8
Livello 1
100
AcDbBlockReference
  2
block 84
 10
0.0
 20
0.0
 30
0.0
  0
INSERT
  5
348
330
1F
100
AcDbEntity
  8
Livello 1
100
AcDbBlockReference
  2
block 85
 10
0.0
 20
0.0
 30
0.0
  0
INSERT
  5
350
330
1F
100
AcDbEntity
  8
Livello 1
100
AcDbBlockReference
  2
block 86
 10
0.0
 20
0.0
 30
0.0
  0
INSERT
  5
358
330
1F
100
AcDbEntity
  8
Livello 1
100
AcDbBlockReference
  2
block 87
 10
0.0
 20
0.0
 30
0.0
  0
INSERT
  5
360
330
1F
100
AcDbEntity
  8
Livello 1
100
AcDbBlockReference
  2
block 88
 10
0.0
 20
0.0
 30
0.0
  0
INSERT
  5
368
330
1F
100
AcDbEntity
  8
Livello 1
100
AcDbBlockReference
  2
block 89
 10
0.0
 20
0.0
 30
0.0
  0
INSERT
  5
370
330
1F
100
AcDbEntity
  8
Livello 1
100
AcDbBlockReference
  2
block 90
 10
0.0
 20
0.0
 30
0.0
  0
INSERT
  5
378
330
1F
100
AcDbEntity
  8
Livello 1
100
AcDbBlockReference
  2
block 91
 10
0.0
 20
0.0
 30
0.0
  0
INSERT
  5
380
330
1F
100
AcDbEntity
  8
Livello 1
100
AcDbBlockReference
  2
block 92
 10
0.0
 20
0.0
 30
0.0
  0
INSERT
  5
388
330
1F
100
AcDbEntity
  8
Livello 1
100
AcDbBlockReference
  2
block 93
 10
0.0
 20
0.0
 30
0.0
  0
INSERT
  5
390
330
1F
100
AcDbEntity
  8
Livello 1
100
AcDbBlockReference
  2
block 94
 10
0.0
 20
0.0
 30
0.0
  0
INSERT
  5
398
330
1F
100
AcDbEntity
  8
Livello 1
100
AcDbBlockReference
  2
block 95
 10
0.0
 20
0.0
 30
0.0
  0
INSERT
  5
3A0
330
1F
100
AcDbEntity
  8
Livello 1
100
AcDbBlockReference
  2
block 96
 10
0.0
 20
0.0
 30
0.0
  0
INSERT
  5
3A8
330
1F
100
AcDbEntity
  8
Livello 1
100
AcDbBlockReference
  2
block 97
 10
0.0
 20
0.0
 30
0.0
  0
INSERT
  5
3B0
330
1F
100
AcDbEntity
  8
Livello 1
100
AcDbBlockReference
  2
block 98
 10
0.0
 20
0.0
 30
0.0
  0
INSERT
  5
3B8
330
1F
100
AcDbEntity
  8
Livello 1
100
AcDbBlockReference
  2
block 99
 10
0.0
 20
0.0
 30
0.0
  0
INSERT
  5
3C0
330
1F
100
AcDbEntity
  8
Livello 1
100
AcDbBlockReference
  2
block 100
 10
0.0
 20
0.0
 30
0.0
  0
INSERT
  5
40D
330
1F
100
AcDbEntity
  8
Livello 1
100
AcDbBlockReference
  2
block 101
 10
0.0
 20
0.0
 30
0.0
  0
INSERT
  5
458
330
1F
100
AcDbEntity
  8
Livello 1
100
AcDbBlockReference
  2
block 102
 10
0.0
 20
0.0
 30
0.0
  0
INSERT
  5
45F
330
1F
100
AcDbEntity
  8
Livello 1
100
AcDbBlockReference
  2
block 103
 10
0.0
 20
0.0
 30
0.0
  0
INSERT
  5
464
330
1F
100
AcDbEntity
  8
Livello 1
100
AcDbBlockReference
  2
block 104
 10
0.0
 20
0.0
 30
0.0
  0
INSERT
  5
475
330
1F
100
AcDbEntity
  8
Livello 1
100
AcDbBlockReference
  2
block 105
 10
0.0
 20
0.0
 30
0.0
  0
INSERT
  5
47A
330
1F
100
AcDbEntity
  8
Livello 1
100
AcDbBlockReference
  2
block 106
 10
0.0
 20
0.0
 30
0.0
  0
INSERT
  5
4A4
330
1F
100
AcDbEntity
  8
Livello 1
100
AcDbBlockReference
  2
block 107
 10
0.0
 20
0.0
 30
0.0
  0
INSERT
  5
4CE
330
1F
100
AcDbEntity
  8
Livello 1
100
AcDbBlockReference
  2
block 108
 10
0.0
 20
0.0
 30
0.0
  0
INSERT
  5
4D3
330
1F
100
AcDbEntity
  8
Livello 1
100
AcDbBlockReference
  2
block 109
 10
0.0
 20
0.0
 30
0.0
  0
INSERT
  5
4D8
330
1F
100
AcDbEntity
  8
Livello 1
100
AcDbBlockReference
  2
block 110
 10
0.0
 20
0.0
 30
0.0
  0
ENDSEC
  0
SECTION
  2
OBJECTS
  0
DICTIONARY
  5
C
330
0
100
AcDbDictionary
281
     1
  3
ACAD_GROUP
350
D
  3
ACAD_LAYOUT
350
1A
  3
ACAD_MLINESTYLE
350
17
  3
ACAD_PLOTSETTINGS
350
19
  3
ACAD_PLOTSTYLENAME
350
E
  3
ACAD_TABLESTYLE
350
4E5
  3
ACAD_VISUALSTYLE
350
2A
  0
DICTIONARY
  5
D
102
{ACAD_REACTORS
330
C
102
}
330
C
100
AcDbDictionary
281
     1
  0
DICTIONARY
  5
1A
102
{ACAD_REACTORS
330
C
102
}
330
C
100
AcDbDictionary
281
     1
  3
Layout1
350
1E
  3
Layout2
350
26
  3
Model
350
22
  0
DICTIONARY
  5
17
102
{ACAD_REACTORS
330
C
102
}
330
C
100
AcDbDictionary
281
     1
  3
Standard
350
18
  0
DICTIONARY
  5
19
102
{ACAD_REACTORS
330
C
102
}
330
C
100
AcDbDictionary
281
     1
  0
ACDBDICTIONARYWDFLT
  5
E
102
{ACAD_REACTORS
330
C
102
}
330
C
100
AcDbDictionary
281
     1
  3
Normal
350
F
100
AcDbDictionaryWithDefault
340
F
  0
DICTIONARY
  5
4E5
102
{ACAD_REACTORS
330
C
102
}
330
C
100
AcDbDictionary
281
     1
  0
DICTIONARY
  5
2A
102
{ACAD_REACTORS
330
C
102
}
330
C
100
AcDbDictionary
281
     1
  3
2dWireframe
350
2F
  3
3D Hidden
350
31
  3
3dWireframe
350
30
  3
Basic
350
32
  3
Brighten
350
36
  3
ColorChange
350
3A
  3
Conceptual
350
34
  3
Dim
350
35
  3
Facepattern
350
39
  3
Flat
350
2B
  3
FlatWithEdges
350
2C
  3
Gouraud
350
2D
  3
GouraudWithEdges
350
2E
  3
Linepattern
350
38
  3
Realistic
350
33
  3
Thicken
350
37
  0
LAYOUT
  5
1E
102
{ACAD_REACTORS
330
1A
102
}
330
1A
100
AcDbPlotSettings
  1

  2
none_device
  4

  6

 40
0.0
 41
0.0
 42
0.0
 43
0.0
 44
0.0
 45
0.0
 46
0.0
 47
0.0
 48
0.0
 49
0.0
140
0.0
141
0.0
142
1.0
143
1.0
 70
   688
 72
     0
 73
     0
 74
     5
  7

 75
    16
 76
     0
 77
     2
 78
   300
147
1.0
148
0.0
149
0.0
100
AcDbLayout
  1
Layout1
 70
     1
 71
     1
 10
0.0
 20
0.0
 11
12.0
 21
9.0
 12
0.0
 22
0.0
 32
0.0
 14
1.000000000000000E+20
 24
1.000000000000000E+20
 34
1.000000000000000E+20
 15
-1.000000000000000E+20
 25
-1.000000000000000E+20
 35
-1.000000000000000E+20
146
0.0
 13
0.0
 23
0.0
 33
0.0
 16
1.0
 26
0.0
 36
0.0
 17
0.0
 27
1.0
 37
0.0
 76
     0
330
1B
  0
LAYOUT
  5
26
102
{ACAD_REACTORS
330
1A
102
}
330
1A
100
AcDbPlotSettings
  1

  2
none_device
  4

  6

 40
0.0
 41
0.0
 42
0.0
 43
0.0
 44
0.0
 45
0.0
 46
0.0
 47
0.0
 48
0.0
 49
0.0
140
0.0
141
0.0
142
1.0
143
1.0
 70
   688
 72
     0
 73
     0
 74
     5
  7

 75
    16
 76
     0
 77
     2
 78
   300
147
1.0
148
0.0
149
0.0
100
AcDbLayout
  1
Layout2
 70
     1
 71
     2
 10
0.0
 20
0.0
 11
0.0
 21
0.0
 12
0.0
 22
0.0
 32
0.0
 14
0.0
 24
0.0
 34
0.0
 15
0.0
 25
0.0
 35
0.0
146
0.0
 13
0.0
 23
0.0
 33
0.0
 16
1.0
 26
0.0
 36
0.0
 17
0.0
 27
1.0
 37
0.0
 76
     0
330
23
  0
LAYOUT
  5
22
102
{ACAD_REACTORS
330
1A
102
}
330
1A
100
AcDbPlotSettings
  1

  2
none_device
  4

  6

 40
0.0
 41
0.0
 42
0.0
 43
0.0
 44
0.0
 45
0.0
 46
0.0
 47
0.0
 48
0.0
 49
0.0
140
0.0
141
0.0
142
1.0
143
1.0
 70
  1712
 72
     0
 73
     0
 74
     0
  7

 75
     0
 76
     0
 77
     2
 78
   300
147
1.0
148
0.0
149
0.0
100
AcDbLayout
  1
Model
 70
     1
 71
     0
 10
0.0
 20
0.0
 11
12.0
 21
9.0
 12
0.0
 22
0.0
 32
0.0
 14
1.000000000000000E+20
 24
1.000000000000000E+20
 34
1.000000000000000E+20
 15
-1.000000000000000E+20
 25
-1.000000000000000E+20
 35
-1.000000000000000E+20
146
0.0
 13
0.0
 23
0.0
 33
0.0
 16
1.0
 26
0.0
 36
0.0
 17
0.0
 27
1.0
 37
0.0
 76
     0
330
1F
331
29
  0
MLINESTYLE
  5
18
102
{ACAD_REACTORS
330
17
102
}
330
17
100
AcDbMlineStyle
  2
Standard
 70
     0
  3

 62
   256
 51
90.0
 52
90.0
 71
     2
 49
0.5
 62
   256
  6
BYLAYER
 49
-0.5
 62
   256
  6
BYLAYER
  0
ACDBPLACEHOLDER
  5
F
102
{ACAD_REACTORS
330
E
102
}
330
E
  0
VISUALSTYLE
  5
2F
102
{ACAD_REACTORS
330
2A
102
}
330
2A
100
AcDbVisualStyle
  2
2dWireframe
 70
     4
 71
     0
 72
     2
 73
     0
 90
        0
 40
-0.6
 41
-30.0
 62
     5
 63
     7
421
 16777215
 74
     1
 91
        4
 64
     7
 65
   257
 75
     1
175
     1
 42
1.0
 92
        0
 66
   257
 43
1.0
 76
     1
 77
     6
 78
     2
 67
     7
 79
     5
170
     0
171
     0
290
     0
174
     0
 93
        1
 44
0.0
173
     0
291
     0
 45
0.0
1001
ACAD
1000
AcDbSavedByObjectVersion
1070
     0
  0
VISUALSTYLE
  5
31
102
{ACAD_REACTORS
330
2A
102
}
330
2A
100
AcDbVisualStyle
  2
3D Hidden
 70
     6
 71
     1
 72
     2
 73
     2
 90
        0
 40
-0.6
 41
-30.0
 62
     5
 63
     7
421
 16777215
 74
     2
 91
        2
 64
     7
 65
   257
 75
     2
175
     1
 42
40.0
 92
        0
 66
   257
 43
1.0
 76
     1
 77
     6
 78
     2
 67
     7
 79
     3
170
     0
171
     0
290
     0
174
     0
 93
        1
 44
0.0
173
     0
291
     0
 45
0.0
1001
ACAD
1000
AcDbSavedByObjectVersion
1070
     0
  0
VISUALSTYLE
  5
30
102
{ACAD_REACTORS
330
2A
102
}
330
2A
100
AcDbVisualStyle
  2
3dWireframe
 70
     5
 71
     0
 72
     2
 73
     0
 90
        0
 40
-0.6
 41
-30.0
 62
     5
 63
     7
421
 16777215
 74
     1
 91
        4
 64
     7
 65
   257
 75
     1
175
     1
 42
1.0
 92
        0
 66
   257
 43
1.0
 76
     1
 77
     6
 78
     2
 67
     7
 79
     5
170
     0
171
     0
290
     0
174
     0
 93
        1
 44
0.0
173
     0
291
     0
 45
0.0
1001
ACAD
1000
AcDbSavedByObjectVersion
1070
     0
  0
VISUALSTYLE
  5
32
102
{ACAD_REACTORS
330
2A
102
}
330
2A
100
AcDbVisualStyle
  2
Basic
 70
     7
 71
     1
 72
     0
 73
     1
 90
        0
 40
-0.6
 41
-30.0
 62
     5
 63
     7
421
 16777215
 74
     0
 91
        4
 64
     7
 65
   257
 75
     1
175
     1
 42
1.0
 92
        8
 66
     7
 43
1.0
 76
     1
 77
     6
 78
     2
 67
     7
 79
     5
170
     0
171
     0
290
     0
174
     0
 93
        1
 44
0.0
173
     0
291
     1
 45
0.0
1001
ACAD
1000
AcDbSavedByObjectVersion
1070
     0
  0
VISUALSTYLE
  5
36
102
{ACAD_REACTORS
330
2A
102
}
330
2A
100
AcDbVisualStyle
  2
Brighten
 70
    12
 71
     2
 72
     2
 73
     0
 90
        0
 40
-0.6
 41
-30.0
 62
     5
 63
     7
421
 16777215
 74
     1
 91
        4
 64
     7
 65
   257
 75
     1
175
     1
 42
1.0
 92
        8
 66
     7
 43
1.0
 76
     1
 77
     6
 78
     2
 67
     7
 79
     5
170
     0
171
     0
290
     0
174
     0
 93
        1
 44
50.0
173
     0
291
     1
 45
0.0
1001
ACAD
1000
AcDbSavedByObjectVersion
1070
     0
  0
VISUALSTYLE
  5
3A
102
{ACAD_REACTORS
330
2A
102
}
330
2A
100
AcDbVisualStyle
  2
ColorChange
 70
    16
 71
     2
 72
     2
 73
     3
 90
        0
 40
-0.6
 41
-30.0
 62
     5
 63
     8
421
  8421504
 74
     1
 91
        4
 64
     7
 65
   257
 75
     1
175
     1
 42
1.0
 92
        8
 66
     8
424
  8421504
 43
1.0
 76
     1
 77
     6
 78
     2
 67
     7
 79
     5
170
     0
171
     0
290
     0
174
     0
 93
        1
 44
0.0
173
     0
291
     1
 45
0.0
1001
ACAD
1000
AcDbSavedByObjectVersion
1070
     0
  0
VISUALSTYLE
  5
34
102
{ACAD_REACTORS
330
2A
102
}
330
2A
100
AcDbVisualStyle
  2
Conceptual
 70
     9
 71
     3
 72
     2
 73
     0
 90
        0
 40
-0.6
 41
-30.0
 62
     5
 63
     7
421
 16777215
 74
     2
 91
        2
 64
     7
 65
   257
 75
     1
175
     1
 42
40.0
 92
        8
 66
     7
 43
1.0
 76
     1
 77
     6
 78
     2
 67
     7
 79
     3
170
     0
171
     0
290
     0
174
     0
 93
        1
 44
0.0
173
     0
291
     0
 45
0.0
1001
ACAD
1000
AcDbSavedByObjectVersion
1070
     0
  0
VISUALSTYLE
  5
35
102
{ACAD_REACTORS
330
2A
102
}
330
2A
100
AcDbVisualStyle
  2
Dim
 70
    11
 71
     2
 72
     2
 73
     0
 90
        0
 40
-0.6
 41
-30.0
 62
     5
 63
     7
421
 16777215
 74
     1
 91
        4
 64
     7
 65
   257
 75
     1
175
     1
 42
1.0
 92
        8
 66
     7
 43
1.0
 76
     1
 77
     6
 78
     2
 67
     7
 79
     5
170
     0
171
     0
290
     0
174
     0
 93
        1
 44
-50.0
173
     0
291
     1
 45
0.0
1001
ACAD
1000
AcDbSavedByObjectVersion
1070
     0
  0
VISUALSTYLE
  5
39
102
{ACAD_REACTORS
330
2A
102
}
330
2A
100
AcDbVisualStyle
  2
Facepattern
 70
    15
 71
     2
 72
     2
 73
     0
 90
        0
 40
-0.6
 41
-30.0
 62
     5
 63
     7
421
 16777215
 74
     1
 91
        4
 64
     7
 65
   257
 75
     1
175
     1
 42
1.0
 92
        8
 66
     7
 43
1.0
 76
     1
 77
     6
 78
     2
 67
     7
 79
     5
170
     0
171
     0
290
     0
174
     0
 93
        1
 44
0.0
173
     0
291
     1
 45
0.0
1001
ACAD
1000
AcDbSavedByObjectVersion
1070
     0
  0
VISUALSTYLE
  5
2B
102
{ACAD_REACTORS
330
2A
102
}
330
2A
100
AcDbVisualStyle
  2
Flat
 70
     0
 71
     2
 72
     1
 73
     1
 90
        2
 40
-0.6
 41
30.0
 62
     5
 63
     7
421
 16777215
 74
     0
 91
        4
 64
     7
 65
   257
 75
     1
175
     1
 42
1.0
 92
        8
 66
     7
 43
1.0
 76
     1
 77
     6
 78
     2
 67
     7
 79
     5
170
     0
171
     0
290
     0
174
     0
 93
       13
 44
0.0
173
     0
291
     1
 45
0.0
1001
ACAD
1000
AcDbSavedByObjectVersion
1070
     0
  0
VISUALSTYLE
  5
2C
102
{ACAD_REACTORS
330
2A
102
}
330
2A
100
AcDbVisualStyle
  2
FlatWithEdges
 70
     1
 71
     2
 72
     1
 73
     1
 90
        2
 40
-0.6
 41
30.0
 62
     5
 63
     7
421
 16777215
 74
     1
 91
        4
 64
     7
 65
   257
 75
     1
175
     1
 42
1.0
 92
        0
 66
   257
 43
1.0
 76
     1
 77
     6
 78
     2
 67
     7
 79
     5
170
     0
171
     0
290
     0
174
     0
 93
       13
 44
0.0
173
     0
291
     1
 45
0.0
1001
ACAD
1000
AcDbSavedByObjectVersion
1070
     0
  0
VISUALSTYLE
  5
2D
102
{ACAD_REACTORS
330
2A
102
}
330
2A
100
AcDbVisualStyle
  2
Gouraud
 70
     2
 71
     2
 72
     2
 73
     1
 90
        2
 40
-0.6
 41
30.0
 62
     5
 63
     7
421
 16777215
 74
     0
 91
        4
 64
     7
 65
   257
 75
     1
175
     1
 42
1.0
 92
        0
 66
     7
 43
1.0
 76
     1
 77
     6
 78
     2
 67
     7
 79
     5
170
     0
171
     0
290
     0
174
     0
 93
       13
 44
0.0
173
     0
291
     1
 45
0.0
1001
ACAD
1000
AcDbSavedByObjectVersion
1070
     0
  0
VISUALSTYLE
  5
2E
102
{ACAD_REACTORS
330
2A
102
}
330
2A
100
AcDbVisualStyle
  2
GouraudWithEdges
 70
     3
 71
     2
 72
     2
 73
     1
 90
        2
 40
-0.6
 41
30.0
 62
     5
 63
     7
421
 16777215
 74
     1
 91
        4
 64
     7
 65
   257
 75
     1
175
     1
 42
1.0
 92
        0
 66
   257
 43
1.0
 76
     1
 77
     6
 78
     2
 67
     7
 79
     5
170
     0
171
     0
290
     0
174
     0
 93
       13
 44
0.0
173
     0
291
     1
 45
0.0
1001
ACAD
1000
AcDbSavedByObjectVersion
1070
     0
  0
VISUALSTYLE
  5
38
102
{ACAD_REACTORS
330
2A
102
}
330
2A
100
AcDbVisualStyle
  2
Linepattern
 70
    14
 71
     2
 72
     2
 73
     0
 90
        0
 40
-0.6
 41
-30.0
 62
     5
 63
     7
421
 16777215
 74
     1
 91
        4
 64
     7
 65
   257
 75
     7
175
     7
 42
1.0
 92
        8
 66
     7
 43
1.0
 76
     1
 77
     6
 78
     2
 67
     7
 79
     5
170
     0
171
     0
290
     0
174
     0
 93
        1
 44
0.0
173
     0
291
     1
 45
0.0
1001
ACAD
1000
AcDbSavedByObjectVersion
1070
     0
  0
VISUALSTYLE
  5
33
102
{ACAD_REACTORS
330
2A
102
}
330
2A
100
AcDbVisualStyle
  2
Realistic
 70
     8
 71
     2
 72
     2
 73
     0
 90
        0
 40
-0.6
 41
-30.0
 62
     5
 63
     7
421
 16777215
 74
     1
 91
        0
 64
     7
 65
   257
 75
     1
175
     1
 42
1.0
 92
        8
 66
     8
424
  7895160
 43
1.0
 76
     1
 77
     6
 78
     2
 67
     7
 79
     5
170
     0
171
     0
290
     0
174
     0
 93
       13
 44
0.0
173
     0
291
     0
 45
0.0
1001
ACAD
1000
AcDbSavedByObjectVersion
1070
     0
  0
VISUALSTYLE
  5
37
102
{ACAD_REACTORS
330
2A
102
}
330
2A
100
AcDbVisualStyle
  2
Thicken
 70
    13
 71
     2
 72
     2
 73
     0
 90
        0
 40
-0.6
 41
-30.0
 62
     5
 63
     7
421
 16777215
 74
     1
 91
        4
 64
     7
 65
   257
 75
     1
175
     1
 42
1.0
 92
       12
 66
     7
 43
1.0
 76
     1
 77
     6
 78
     2
 67
     7
 79
     5
170
     0
171
     0
290
     0
174
     0
 93
        1
 44
0.0
173
     0
291
     1
 45
0.0
1001
ACAD
1000
AcDbSavedByObjectVersion
1070
     0
  0
ENDSEC
  0
EOF
