  0
SECTION
  2
HEADER
  9
$ACADVER
  1
AC1024
  9
$ACADMAINTVER
 70
     6
  9
$DWGCODEPAGE
  3
UNDEFINED
  9
$INSBASE
 10
0.0
 20
0.0
 30
0.0
  9
$EXTMIN
 10
1.000000000000000E+20
 20
1.000000000000000E+20
 30
1.000000000000000E+20
  9
$EXTMAX
 10
-1.000000000000000E+20
 20
-1.000000000000000E+20
 30
-1.000000000000000E+20
  9
$LIMMIN
 10
0.0
 20
0.0
  9
$LIMMAX
 10
12.0
 20
9.0
  9
$ORTHOMODE
 70
     0
  9
$REGENMODE
 70
     1
  9
$FILLMODE
 70
     1
  9
$QTEXTMODE
 70
     0
  9
$MIRRTEXT
 70
     1
  9
$LTSCALE
 40
1.0
  9
$ATTMODE
 70
     1
  9
$TEXTSIZE
 40
0.2
  9
$TRACEWID
 40
0.05
  9
$TEXTSTYLE
  7
Standard
  9
$CLAYER
  8
0
  9
$CELTYPE
  6
ByLayer
  9
$CECOLOR
 62
   256
  9
$CELTSCALE
 40
1.0
  9
$DISPSILH
 70
     0
  9
$DIMSCALE
 40
1.0
  9
$DIMASZ
 40
0.18
  9
$DIMEXO
 40
0.0625
  9
$DIMDLI
 40
0.38
  9
$DIMRND
 40
0.0
  9
$DIMDLE
 40
0.0
  9
$DIMEXE
 40
0.18
  9
$DIMTP
 40
0.0
  9
$DIMTM
 40
0.0
  9
$DIMTXT
 40
0.18
  9
$DIMCEN
 40
0.09
  9
$DIMTSZ
 40
0.0
  9
$DIMTOL
 70
     0
  9
$DIMLIM
 70
     0
  9
$DIMTIH
 70
     1
  9
$DIMTOH
 70
     1
  9
$DIMSE1
 70
     0
  9
$DIMSE2
 70
     0
  9
$DIMTAD
 70
     0
  9
$DIMZIN
 70
     0
  9
$DIMBLK
  1

  9
$DIMASO
 70
     1
  9
$DIMSHO
 70
     1
  9
$DIMPOST
  1

  9
$DIMAPOST
  1

  9
$DIMALT
 70
     0
  9
$DIMALTD
 70
     2
  9
$DIMALTF
 40
25.4
  9
$DIMLFAC
 40
1.0
  9
$DIMTOFL
 70
     0
  9
$DIMTVP
 40
0.0
  9
$DIMTIX
 70
     0
  9
$DIMSOXD
 70
     0
  9
$DIMSAH
 70
     0
  9
$DIMBLK1
  1

  9
$DIMBLK2
  1

  9
$DIMSTYLE
  2
Standard
  9
$DIMCLRD
 70
     0
  9
$DIMCLRE
 70
     0
  9
$DIMCLRT
 70
     0
  9
$DIMTFAC
 40
1.0
  9
$DIMGAP
 40
0.09
  9
$DIMJUST
 70
     0
  9
$DIMSD1
 70
     0
  9
$DIMSD2
 70
     0
  9
$DIMTOLJ
 70
     1
  9
$DIMTZIN
 70
     0
  9
$DIMALTZ
 70
     0
  9
$DIMALTTZ
 70
     0
  9
$DIMUPT
 70
     0
  9
$DIMDEC
 70
     4
  9
$DIMTDEC
 70
     4
  9
$DIMALTU
 70
     2
  9
$DIMALTTD
 70
     2
  9
$DIMTXSTY
  7
Standard
  9
$DIMAUNIT
 70
     0
  9
$DIMADEC
 70
     0
  9
$DIMALTRND
 40
0.0
  9
$DIMAZIN
 70
     0
  9
$DIMDSEP
 70
    46
  9
$DIMATFIT
 70
     3
  9
$DIMFRAC
 70
     0
  9
$DIMLDRBLK
  1

  9
$DIMLUNIT
 70
     2
  9
$DIMLWD
 70
    -2
  9
$DIMLWE
 70
    -2
  9
$DIMTMOVE
 70
     0
  9
$DIMFXL
 40
1.0
  9
$DIMFXLON
 70
     0
  9
$DIMJOGANG
 40
0.7853981633974483
  9
$DIMTFILL
 70
     0
  9
$DIMTFILLCLR
 70
     0
  9
$DIMARCSYM
 70
     0
  9
$DIMLTYPE
  6

  9
$DIMLTEX1
  6

  9
$DIMLTEX2
  6

  9
$DIMTXTDIRECTION
 70
     0
  9
$LUNITS
 70
     2
  9
$LUPREC
 70
     4
  9
$SKETCHINC
 40
0.1
  9
$FILLETRAD
 40
0.5
  9
$AUNITS
 70
     0
  9
$AUPREC
 70
     0
  9
$MENU
  1
.
  9
$ELEVATION
 40
0.0
  9
$PELEVATION
 40
0.0
  9
$THICKNESS
 40
0.0
  9
$LIMCHECK
 70
     0
  9
$CHAMFERA
 40
0.5
  9
$CHAMFERB
 40
0.5
  9
$CHAMFERC
 40
1.0
  9
$CHAMFERD
 40
0.0
  9
$SKPOLY
 70
     0
  9
$TDCREATE
 40
2458113.724837963
  9
$TDUCREATE
 40
2458113.64150463
  9
$TDUPDATE
 40
2458113.724837963
  9
$TDUUPDATE
 40
2458113.64150463
  9
$TDINDWG
 40
0.0000000116
  9
$TDUSRTIMER
 40
0.0000000116
  9
$USRTIMER
 70
     1
  9
$ANGBASE
 50
0.0
  9
$ANGDIR
 70
     0
  9
$PDMODE
 70
     0
  9
$PDSIZE
 40
0.0
  9
$PLINEWID
 40
0.0
  9
$SPLFRAME
 70
     0
  9
$SPLINETYPE
 70
     6
  9
$SPLINESEGS
 70
     8
  9
$HANDSEED
  5
79
  9
$SURFTAB1
 70
     6
  9
$SURFTAB2
 70
     6
  9
$SURFTYPE
 70
     6
  9
$SURFU
 70
     6
  9
$SURFV
 70
     6
  9
$UCSBASE
  2

  9
$UCSNAME
  2

  9
$UCSORG
 10
0.0
 20
0.0
 30
0.0
  9
$UCSXDIR
 10
1.0
 20
0.0
 30
0.0
  9
$UCSYDIR
 10
0.0
 20
1.0
 30
0.0
  9
$UCSORTHOREF
  2

  9
$UCSORTHOVIEW
 70
     0
  9
$UCSORGTOP
 10
0.0
 20
0.0
 30
0.0
  9
$UCSORGBOTTOM
 10
0.0
 20
0.0
 30
0.0
  9
$UCSORGLEFT
 10
0.0
 20
0.0
 30
0.0
  9
$UCSORGRIGHT
 10
0.0
 20
0.0
 30
0.0
  9
$UCSORGFRONT
 10
0.0
 20
0.0
 30
0.0
  9
$UCSORGBACK
 10
0.0
 20
0.0
 30
0.0
  9
$PUCSBASE
  2

  9
$PUCSNAME
  2

  9
$PUCSORG
 10
0.0
 20
0.0
 30
0.0
  9
$PUCSXDIR
 10
1.0
 20
0.0
 30
0.0
  9
$PUCSYDIR
 10
0.0
 20
1.0
 30
0.0
  9
$PUCSORTHOREF
  2

  9
$PUCSORTHOVIEW
 70
     0
  9
$PUCSORGTOP
 10
0.0
 20
0.0
 30
0.0
  9
$PUCSORGBOTTOM
 10
0.0
 20
0.0
 30
0.0
  9
$PUCSORGLEFT
 10
0.0
 20
0.0
 30
0.0
  9
$PUCSORGRIGHT
 10
0.0
 20
0.0
 30
0.0
  9
$PUCSORGFRONT
 10
0.0
 20
0.0
 30
0.0
  9
$PUCSORGBACK
 10
0.0
 20
0.0
 30
0.0
  9
$USERI1
 70
     0
  9
$USERI2
 70
     0
  9
$USERI3
 70
     0
  9
$USERI4
 70
     0
  9
$USERI5
 70
     0
  9
$USERR1
 40
0.0
  9
$USERR2
 40
0.0
  9
$USERR3
 40
0.0
  9
$USERR4
 40
0.0
  9
$USERR5
 40
0.0
  9
$WORLDVIEW
 70
     1
  9
$SHADEDGE
 70
     3
  9
$SHADEDIF
 70
    70
  9
$TILEMODE
 70
     1
  9
$MAXACTVP
 70
    64
  9
$PINSBASE
 10
0.0
 20
0.0
 30
0.0
  9
$PLIMCHECK
 70
     0
  9
$PEXTMIN
 10
1.000000000000000E+20
 20
1.000000000000000E+20
 30
1.000000000000000E+20
  9
$PEXTMAX
 10
-1.000000000000000E+20
 20
-1.000000000000000E+20
 30
-1.000000000000000E+20
  9
$PLIMMIN
 10
0.0
 20
0.0
  9
$PLIMMAX
 10
12.0
 20
9.0
  9
$UNITMODE
 70
     0
  9
$VISRETAIN
 70
     1
  9
$PLINEGEN
 70
     0
  9
$PSLTSCALE
 70
     1
  9
$TREEDEPTH
 70
  3020
  9
$CMLSTYLE
  2
Standard
  9
$CMLJUST
 70
     0
  9
$CMLSCALE
 40
1.0
  9
$PROXYGRAPHICS
 70
     1
  9
$MEASUREMENT
 70
     0
  9
$CELWEIGHT
370
    -1
  9
$ENDCAPS
280
     0
  9
$JOINSTYLE
280
     0
  9
$LWDISPLAY
290
     1
  9
$INSUNITS
 70
     1
  9
$HYPERLINKBASE
  1

  9
$STYLESHEET
  1

  9
$XEDIT
290
     1
  9
$CEPSNTYPE
380
     0
  9
$PSTYLEMODE
290
     1
  9
$FINGERPRINTGUID
  2
{1D79B8F9-EC7E-BDC0-546C-9901D5E737D2}
  9
$VERSIONGUID
  2
{FAEB1C32-E019-11D5-929B-00C0DF256EC4}
  9
$EXTNAMES
290
     1
  9
$PSVPSCALE
 40
0.0
  9
$OLESTARTUP
290
     0
  9
$SORTENTS
280
   127
  9
$INDEXCTL
280
     0
  9
$HIDETEXT
280
     1
  9
$XCLIPFRAME
280
     2
  9
$HALOGAP
280
     0
  9
$OBSCOLOR
 70
   257
  9
$OBSLTYPE
280
     0
  9
$INTERSECTIONDISPLAY
280
     0
  9
$INTERSECTIONCOLOR
 70
   257
  9
$DIMASSOC
280
     2
  9
$PROJECTNAME
  1

  9
$CAMERADISPLAY
290
     0
  9
$LENSLENGTH
 40
50.0
  9
$CAMERAHEIGHT
 40
0.0
  9
$STEPSPERSEC
 40
2.0
  9
$STEPSIZE
 40
6.0
  9
$3DDWFPREC
 40
2.0
  9
$PSOLWIDTH
 40
0.25
  9
$PSOLHEIGHT
 40
4.0
  9
$LOFTANG1
 40
1.570796326794897
  9
$LOFTANG2
 40
1.570796326794897
  9
$LOFTMAG1
 40
0.0
  9
$LOFTMAG2
 40
0.0
  9
$LOFTPARAM
 70
     7
  9
$LOFTNORMALS
280
     1
  9
$LATITUDE
 40
37.795
  9
$LONGITUDE
 40
-122.394
  9
$NORTHDIRECTION
 40
0.0
  9
$TIMEZONE
 70
 -8000
  9
$LIGHTGLYPHDISPLAY
280
     1
  9
$TILEMODELIGHTSYNCH
280
     1
  9
$CMATERIAL
347
3C
  9
$SOLIDHIST
280
     1
  9
$SHOWHIST
280
     1
  9
$DWFFRAME
280
     2
  9
$DGNFRAME
280
     2
  9
$REALWORLDSCALE
290
     1
  9
$INTERFERECOLOR
 62
   256
  9
$CSHADOW
280
     0
  9
$SHADOWPLANELOCATION
 40
0.0
  0
ENDSEC
  0
SECTION
  2
CLASSES
  0
CLASS
  1
ACDBDICTIONARYWDFLT
  2
AcDbDictionaryWithDefault
  3
ObjectDBX Classes
 90
        0
 91
        4
280
     0
281
     0
  0
CLASS
  1
VISUALSTYLE
  2
AcDbVisualStyle
  3
ObjectDBX Classes
 90
     4095
 91
        4
280
     0
281
     0
  0
CLASS
  1
MATERIAL
  2
AcDbMaterial
  3
ObjectDBX Classes
 90
     1153
 91
        4
280
     0
281
     0
  0
CLASS
  1
SUN
  2
AcDbSun
  3
SCENEOE
 90
     1024
 91
        4
280
     0
281
     0
  0
ENDSEC
  0
SECTION
  2
TABLES
  0
TABLE
  2
VPORT
  5
8
330
0
100
AcDbSymbolTable
 70
     1
  0
VPORT
  5
29
330
8
100
AcDbSymbolTableRecord
100
AcDbViewportTableRecord
  2
*Active
 70
     0
 10
0.0
 20
0.0
 11
1.0
 21
1.0
 12
0.0
 22
0.0
 13
0.0
 23
0.0
 14
0.5
 24
0.5
 15
0.5
 25
0.5
 16
0.0
 26
0.0
 36
1.0
 17
297.6379999999999
 27
-420.9449999999997
 37
0.0
 40
841.8899999999994
 41
0.7070709950231031
 42
50.0
 43
0.0
 44
0.0
 50
0.0
 51
0.0
 71
     0
 72
   100
 73
     1
 74
     3
 75
     0
 76
     0
 77
     0
 78
     0
281
     0
 65
     1
110
0.0
120
0.0
130
0.0
111
1.0
121
0.0
131
0.0
112
0.0
122
1.0
132
0.0
 79
     0
146
0.0
 60
     3
 61
     5
292
     1
282
     1
141
0.0
142
0.0
 63
   250
361
3F
  0
ENDTAB
  0
TABLE
  2
LTYPE
  5
5
330
0
100
AcDbSymbolTable
 70
     1
  0
LTYPE
  5
14
330
5
100
AcDbSymbolTableRecord
100
AcDbLinetypeTableRecord
  2
ByBlock
 70
     0
  3

 72
    65
 73
     0
 40
0.0
  0
LTYPE
  5
15
330
5
100
AcDbSymbolTableRecord
100
AcDbLinetypeTableRecord
  2
ByLayer
 70
     0
  3

 72
    65
 73
     0
 40
0.0
  0
LTYPE
  5
16
330
5
100
AcDbSymbolTableRecord
100
AcDbLinetypeTableRecord
  2
Continuous
 70
     0
  3
Solid line
 72
    65
 73
     0
 40
0.0
  0
ENDTAB
  0
TABLE
  2
LAYER
  5
2
330
0
100
AcDbSymbolTable
 70
     2
  0
LAYER
  5
10
330
2
100
AcDbSymbolTableRecord
100
AcDbLayerTableRecord
  2
0
 70
     0
 62
     7
  6
Continuous
370
    -3
390
F
347
3E
  0
LAYER
  5
40
330
2
100
AcDbSymbolTableRecord
100
AcDbLayerTableRecord
  2
Layer 1
 70
     0
 62
     7
  6
Continuous
370
    -3
390
F
347
3E
  0
ENDTAB
  0
TABLE
  2
STYLE
  5
3
330
0
100
AcDbSymbolTable
 70
     1
  0
STYLE
  5
11
330
3
100
AcDbSymbolTableRecord
100
AcDbTextStyleTableRecord
  2
Standard
 70
     0
 40
0.0
 41
1.0
 50
0.0
 71
     0
 42
0.2
  3
txt
  4

  0
ENDTAB
  0
TABLE
  2
VIEW
  5
6
330
0
100
AcDbSymbolTable
 70
     0
  0
ENDTAB
  0
TABLE
  2
UCS
  5
7
330
0
100
AcDbSymbolTable
 70
     0
  0
ENDTAB
  0
TABLE
  2
APPID
  5
9
330
0
100
AcDbSymbolTable
 70
     1
  0
APPID
  5
12
330
9
100
AcDbSymbolTableRecord
100
AcDbRegAppTableRecord
  2
ACAD
 70
     0
  0
ENDTAB
  0
TABLE
  2
DIMSTYLE
  5
A
330
0
100
AcDbSymbolTable
 70
     1
100
AcDbDimStyleTable
  0
DIMSTYLE
105
27
330
A
100
AcDbSymbolTableRecord
100
AcDbDimStyleTableRecord
  2
Standard
 70
     0
178
     0
340
11
  0
ENDTAB
  0
TABLE
  2
BLOCK_RECORD
  5
1
330
0
100
AcDbSymbolTable
 70
     2
  0
BLOCK_RECORD
  5
1F
330
1
100
AcDbSymbolTableRecord
100
AcDbBlockTableRecord
  2
*Model_Space
340
22
 70
     0
280
     1
281
     0
  0
BLOCK_RECORD
  5
1B
330
1
100
AcDbSymbolTableRecord
100
AcDbBlockTableRecord
  2
*Paper_Space
340
1E
 70
     0
280
     1
281
     0
  0
BLOCK_RECORD
  5
23
330
1
100
AcDbSymbolTableRecord
100
AcDbBlockTableRecord
  2
*Paper_Space0
340
26
 70
     0
280
     1
281
     0
  0
BLOCK_RECORD
  5
41
330
1
100
AcDbSymbolTableRecord
100
AcDbBlockTableRecord
  2
block 2
340
0
102
{BLKREFS
331
42
102
}
 70
     0
280
     1
281
     0
  0
ENDTAB
  0
ENDSEC
  0
SECTION
  2
BLOCKS
  0
BLOCK
  5
20
330
1F
100
AcDbEntity
  8
0
100
AcDbBlockBegin
  2
*Model_Space
 70
     0
 10
0.0
 20
0.0
 30
0.0
  3
*Model_Space
  1

  0
ENDBLK
  5
21
330
1F
100
AcDbEntity
  8
0
100
AcDbBlockEnd
  0
BLOCK
  5
1C
330
1B
100
AcDbEntity
 67
     1
  8
0
100
AcDbBlockBegin
  2
*Paper_Space
 70
     0
 10
0.0
 20
0.0
 30
0.0
  3
*Paper_Space
  1

  0
ENDBLK
  5
1D
330
1B
100
AcDbEntity
 67
     1
  8
0
100
AcDbBlockEnd
  0
BLOCK
  5
24
330
23
100
AcDbEntity
  8
0
100
AcDbBlockBegin
  2
*Paper_Space0
 70
     0
 10
0.0
 20
0.0
 30
0.0
  3
*Paper_Space0
  1

  0
ENDBLK
  5
25
330
23
100
AcDbEntity
  8
0
100
AcDbBlockEnd
  0
BLOCK
  5
43
330
41
100
AcDbEntity
  8
0
100
AcDbBlockBegin
  2
block 2
 70
     0
 10
0.0
 20
0.0
 30
0.0
  3
block 2
  1

  0
POLYLINE
  5
45
330
41
100
AcDbEntity
  8
Layer 1
 62
     8
420
  7369332
370
     9
100
AcDb2dPolyline
 66
     1
 10
0.0
 20
0.0
 30
0.0
  0
VERTEX
  5
46
330
45
100
AcDbEntity
  8
Layer 1
 62
     8
420
  7369332
370
     9
100
AcDbVertex
100
AcDb2dVertex
 10
334.9490317827076
 20
-646.2244609801601
 30
0.0
  0
VERTEX
  5
47
330
45
100
AcDbEntity
  8
Layer 1
 62
     8
420
  7369332
370
     9
100
AcDbVertex
100
AcDb2dVertex
 10
332.049720193625
 20
-646.2244609801601
 30
0.0
  0
VERTEX
  5
48
330
45
100
AcDbEntity
  8
Layer 1
 62
     8
420
  7369332
370
     9
100
AcDbVertex
100
AcDb2dVertex
 10
331.3675299401912
 20
-645.895998113845
 30
0.0
  0
SEQEND
  5
49
330
45
100
AcDbEntity
  8
Layer 1
 62
     8
420
  7369332
370
     9
  0
SPLINE
  5
4A
330
41
100
AcDbEntity
  8
Layer 1
 62
     8
420
  7369332
370
     9
100
AcDbSpline
210
0.0
220
0.0
230
1.0
 70
     8
 71
     3
 72
    11
 73
     7
 74
     0
 42
0.0000000001
 43
0.0000000001
 12
1.0
 22
0.0
 32
0.0
 13
1.0
 23
0.0
 33
0.0
 40
0.0
 40
0.0
 40
0.0
 40
0.0
 40
1.0
 40
1.0
 40
1.0
 40
2.0
 40
2.0
 40
2.0
 40
2.0
 10
354.3157026109711
 20
-657.5185202859193
 30
0.0
 10
354.8336554072812
 20
-657.6827513425796
 30
0.0
 10
359.1478885927754
 20
-659.8619740145332
 30
0.0
 10
361.750327002499
 20
-659.1924160214985
 30
0.0
 10
364.3590785304386
 20
-658.516541145269
 30
0.0
 10
364.5485684604319
 20
-657.5185202859193
 30
0.0
 10
364.7128059175575
 20
-656.8363285264932
 30
0.0
  0
SPLINE
  5
4B
330
41
100
AcDbEntity
  8
Layer 1
 62
     8
420
  7369332
370
     9
100
AcDbSpline
210
0.0
220
0.0
230
1.0
 70
     8
 71
     3
 72
    20
 73
    16
 74
     0
 42
0.0000000001
 43
0.0000000001
 12
1.0
 22
0.0
 32
0.0
 13
1.0
 23
0.0
 33
0.0
 40
0.0
 40
0.0
 40
0.0
 40
0.0
 40
1.0
 40
1.0
 40
1.0
 40
2.0
 40
2.0
 40
2.0
 40
3.0
 40
3.0
 40
3.0
 40
4.0
 40
4.0
 40
4.0
 40
5.0
 40
5.0
 40
5.0
 40
5.0
 10
390.5665912477016
 20
-474.8175259101063
 30
0.0
 10
390.5665912477016
 20
-474.8175259101063
 30
0.0
 10
458.135148552019
 20
-503.4190477524498
 30
0.0
 10
471.7916039530246
 20
-509.9819799126126
 30
0.0
 10
485.4480593540302
 20
-516.5701765935792
 30
0.0
 10
510.6954720890208
 20
-529.7023660800587
 30
0.0
 10
511.7187514452053
 20
-548.1152139004589
 30
0.0
 10
512.7420308013916
 20
-566.5217546266103
 30
0.0
 10
502.161750683028
 20
-583.608124745313
 30
0.0
 10
493.2932653404368
 20
-591.8260095214246
 30
0.0
 10
484.4121537614119
 20
-600.0438882735689
 30
0.0
 10
449.2666391135572
 20
-622.3982904897603
 30
0.0
 10
429.8115605343846
 20
-627.6473772086283
 30
0.0
 10
410.3690840957752
 20
-632.9027770457124
 30
0.0
 10
389.5433118915171
 20
-637.5075687863591
 30
0.0
 10
384.0857657681663
 20
-639.1561992481384
 30
0.0
  0
SPLINE
  5
4C
330
41
100
AcDbEntity
  8
Layer 1
 62
     8
420
  7369332
370
     9
100
AcDbSpline
210
0.0
220
0.0
230
1.0
 70
     8
 71
     3
 72
    20
 73
    16
 74
     0
 42
0.0000000001
 43
0.0000000001
 12
1.0
 22
0.0
 32
0.0
 13
1.0
 23
0.0
 33
0.0
 40
0.0
 40
0.0
 40
0.0
 40
0.0
 40
1.0
 40
1.0
 40
1.0
 40
2.0
 40
2.0
 40
2.0
 40
3.0
 40
3.0
 40
3.0
 40
4.0
 40
4.0
 40
4.0
 40
5.0
 40
5.0
 40
5.0
 40
5.0
 10
297.4032430832995
 20
-474.8175259101063
 30
0.0
 10
297.4032430832995
 20
-474.8175259101063
 30
0.0
 10
240.4149899932181
 20
-497.8351790250799
 30
0.0
 10
231.5401794844747
 20
-501.7640951365011
 30
0.0
 10
222.6780072601014
 20
-505.7119626505082
 30
0.0
 10
195.3650844101539
 20
-515.2500120100995
 30
0.0
 10
183.4267248552014
 20
-531.0288437817562
 30
0.0
 10
171.4820642299674
 20
-546.8013624351952
 30
0.0
 10
173.5349481084904
 20
-567.5071432255572
 30
0.0
 10
188.2147069615512
 20
-584.2650504779449
 30
0.0
 10
202.8755023640924
 20
-601.0355960147026
 30
0.0
 10
242.8026558802412
 20
-623.0425839619893
 30
0.0
 10
268.7385659629163
 20
-630.6161722538873
 30
0.0
 10
294.6807951877763
 20
-638.1708106491915
 30
0.0
 10
303.2018662614646
 20
-639.1561992481384
 30
0.0
 10
303.2018662614646
 20
-639.1561992481384
 30
0.0
  0
SPLINE
  5
4D
330
41
100
AcDbEntity
  8
Layer 1
 62
     8
420
  7369332
370
     9
100
AcDbSpline
210
0.0
220
0.0
230
1.0
 70
     8
 71
     3
 72
    14
 73
    10
 74
     0
 42
0.0000000001
 43
0.0000000001
 12
1.0
 22
0.0
 32
0.0
 13
1.0
 23
0.0
 33
0.0
 40
0.0
 40
0.0
 40
0.0
 40
0.0
 40
1.0
 40
1.0
 40
1.0
 40
2.0
 40
2.0
 40
2.0
 40
3.0
 40
3.0
 40
3.0
 40
3.0
 10
385.4501462750359
 20
-475.8092396752072
 30
0.0
 10
385.4501462750359
 20
-475.8092396752072
 30
0.0
 10
455.065286387593
 20
-507.682739848402
 30
0.0
 10
463.946397966618
 20
-515.5721617581985
 30
0.0
 10
472.8211964274269
 20
-523.467896786211
 30
0.0
 10
504.7642011406861
 20
-540.465835058134
 30
0.0
 10
494.3291950289258
 20
-572.0361368858175
 30
0.0
 10
483.8941889171656
 20
-603.5685419322945
 30
0.0
 10
475.3604675111728
 20
-602.1978422832399
 30
0.0
 10
473.4402193548849
 20
-605.4319358808243
 30
0.0
  0
SPLINE
  5
4E
330
41
100
AcDbEntity
  8
Layer 1
 62
     8
420
  7369332
370
     9
100
AcDbSpline
210
0.0
220
0.0
230
1.0
 70
     8
 71
     3
 72
    17
 73
    13
 74
     0
 42
0.0000000001
 43
0.0000000001
 12
1.0
 22
0.0
 32
0.0
 13
1.0
 23
0.0
 33
0.0
 40
0.0
 40
0.0
 40
0.0
 40
0.0
 40
1.0
 40
1.0
 40
1.0
 40
2.0
 40
2.0
 40
2.0
 40
3.0
 40
3.0
 40
3.0
 40
4.0
 40
4.0
 40
4.0
 40
4.0
 10
382.2350101040065
 20
-476.9019994755836
 30
0.0
 10
382.2350101040065
 20
-476.9019994755836
 30
0.0
 10
445.729365242365
 20
-515.8437704167554
 30
0.0
 10
454.844182674773
 20
-525.4513002205404
 30
0.0
 10
463.971674535358
 20
-535.0398786217393
 30
0.0
 10
479.4472959135655
 20
-549.7133123086478
 30
0.0
 10
476.6806320946525
 20
-566.5912410947712
 30
0.0
 10
473.9329317262618
 20
-583.4691638569275
 30
0.0
 10
461.0849891827093
 20
-604.610778715034
 30
0.0
 10
451.1237319918037
 20
-612.361233712476
 30
0.0
 10
441.1561375868114
 20
-620.1053695677329
 30
0.0
 10
422.5664381207862
 20
-629.6939509809163
 30
0.0
 10
422.5664381207862
 20
-629.6939509809163
 30
0.0
  0
SPLINE
  5
4F
330
41
100
AcDbEntity
  8
Layer 1
 62
     8
420
  7369332
370
     9
100
AcDbSpline
210
0.0
220
0.0
230
1.0
 70
     8
 71
     3
 72
    17
 73
    13
 74
     0
 42
0.0000000001
 43
0.0000000001
 12
1.0
 22
0.0
 32
0.0
 13
1.0
 23
0.0
 33
0.0
 40
0.0
 40
0.0
 40
0.0
 40
0.0
 40
1.0
 40
1.0
 40
1.0
 40
2.0
 40
2.0
 40
2.0
 40
3.0
 40
3.0
 40
3.0
 40
4.0
 40
4.0
 40
4.0
 40
4.0
 10
373.2401901094636
 20
-476.4472140052512
 30
0.0
 10
373.2401901094636
 20
-476.4472140052512
 30
0.0
 10
441.636199625882
 20
-524.983876465838
 30
0.0
 10
449.2097969537317
 20
-532.2605885663925
 30
0.0
 10
456.7707439492769
 20
-539.5499269033808
 30
0.0
 10
468.2858956729178
 20
-555.4993092503792
 30
0.0
 10
463.0052373389954
 20
-574.7964875865146
 30
0.0
 10
457.7308680274218
 20
-594.0999790408641
 30
0.0
 10
451.6101071490921
 20
-597.6814869073496
 30
0.0
 10
441.1561375868114
 20
-611.4326932973199
 30
0.0
 10
435.5533415527261
 20
-618.8167856352575
 30
0.0
 10
414.9928407929365
 20
-631.5383935268583
 30
0.0
 10
414.9928407929365
 20
-631.5383935268583
 30
0.0
  0
SPLINE
  5
50
330
41
100
AcDbEntity
  8
Layer 1
 62
     8
420
  7369332
370
     9
100
AcDbSpline
210
0.0
220
0.0
230
1.0
 70
     8
 71
     3
 72
    14
 73
    10
 74
     0
 42
0.0000000001
 43
0.0000000001
 12
1.0
 22
0.0
 32
0.0
 13
1.0
 23
0.0
 33
0.0
 40
0.0
 40
0.0
 40
0.0
 40
0.0
 40
1.0
 40
1.0
 40
1.0
 40
2.0
 40
2.0
 40
2.0
 40
3.0
 40
3.0
 40
3.0
 40
3.0
 10
363.7526818394144
 20
-476.9019994755836
 30
0.0
 10
363.7526818394144
 20
-476.9019994755836
 30
0.0
 10
417.2920688092127
 20
-526.9041125741896
 30
0.0
 10
423.532875317147
 20
-547.4014460080034
 30
0.0
 10
431.4538628180289
 20
-573.4826361212508
 30
0.0
 10
432.0413201544015
 20
-586.1284444264729
 30
0.0
 10
410.204870734522
 20
-615.0205172940077
 30
0.0
 10
388.3557950782069
 20
-643.9062740313402
 30
0.0
 10
383.6878224576576
 20
-637.8991974726596
 30
0.0
 10
383.6878224576576
 20
-637.8991974726596
 30
0.0
  0
SPLINE
  5
51
330
41
100
AcDbEntity
  8
Layer 1
 62
     8
420
  7369332
370
     9
100
AcDbSpline
210
0.0
220
0.0
230
1.0
 70
     8
 71
     3
 72
    14
 73
    10
 74
     0
 42
0.0000000001
 43
0.0000000001
 12
1.0
 22
0.0
 32
0.0
 13
1.0
 23
0.0
 33
0.0
 40
0.0
 40
0.0
 40
0.0
 40
0.0
 40
1.0
 40
1.0
 40
1.0
 40
2.0
 40
2.0
 40
2.0
 40
3.0
 40
3.0
 40
3.0
 40
3.0
 10
369.8734547656786
 20
-476.4472140052512
 30
0.0
 10
369.8734547656786
 20
-476.4472140052512
 30
0.0
 10
436.2671094451816
 20
-531.5973376676084
 30
0.0
 10
440.208663840971
 20
-537.3580700885359
 30
0.0
 10
450.1572947954428
 20
-551.9178074078627
 30
0.0
 10
458.0909326286292
 20
-580.8035641451952
 30
0.0
 10
433.4814821757464
 20
-607.2763784267663
 30
0.0
 10
408.8910192692583
 20
-633.7365664719036
 30
0.0
 10
398.4370497069758
 20
-635.1325336537448
 30
0.0
 10
398.4370497069758
 20
-635.1325336537448
 30
0.0
  0
SPLINE
  5
52
330
41
100
AcDbEntity
  8
Layer 1
 62
     8
420
  7369332
370
     9
100
AcDbSpline
210
0.0
220
0.0
230
1.0
 70
     8
 71
     3
 72
    14
 73
    10
 74
     0
 42
0.0000000001
 43
0.0000000001
 12
1.0
 22
0.0
 32
0.0
 13
1.0
 23
0.0
 33
0.0
 40
0.0
 40
0.0
 40
0.0
 40
0.0
 40
1.0
 40
1.0
 40
1.0
 40
2.0
 40
2.0
 40
2.0
 40
3.0
 40
3.0
 40
3.0
 40
3.0
 10
358.4783245757753
 20
-477.3694352782222
 30
0.0
 10
358.4783245757753
 20
-477.3694352782222
 30
0.0
 10
398.4370497069758
 20
-537.610727344505
 30
0.0
 10
398.2349335405488
 20
-567.4376627813635
 30
0.0
 10
398.108598888597
 20
-587.4296636313338
 30
0.0
 10
390.5223753243117
 20
-614.9384015774285
 30
0.0
 10
369.3997058448222
 20
-635.5936442902312
 30
0.0
 10
362.2177507572014
 20
-642.6113724626703
 30
0.0
 10
362.2177507572014
 20
-641.3922719863731
 30
0.0
 10
362.2177507572014
 20
-641.3922719863731
 30
0.0
  0
SPLINE
  5
53
330
41
100
AcDbEntity
  8
Layer 1
 62
     8
420
  7369332
370
     9
100
AcDbSpline
210
0.0
220
0.0
230
1.0
 70
     8
 71
     3
 72
    14
 73
    10
 74
     0
 42
0.0000000001
 43
0.0000000001
 12
1.0
 22
0.0
 32
0.0
 13
1.0
 23
0.0
 33
0.0
 40
0.0
 40
0.0
 40
0.0
 40
0.0
 40
1.0
 40
1.0
 40
1.0
 40
2.0
 40
2.0
 40
2.0
 40
3.0
 40
3.0
 40
3.0
 40
3.0
 10
347.5695815910949
 20
-477.8368590329246
 30
0.0
 10
347.5695815910949
 20
-477.8368590329246
 30
0.0
 10
366.2287855971845
 20
-541.2427702765672
 30
0.0
 10
367.5426370624482
 20
-564.1088181948162
 30
0.0
 10
368.818585722538
 20
-586.1284444264729
 30
0.0
 10
368.5659164186327
 20
-608.1228061373258
 30
0.0
 10
349.963566620303
 20
-637.8991974726596
 30
0.0
 10
343.2995643289905
 20
-648.5679154617701
 30
0.0
 10
347.2284804404098
 20
-641.6323014999161
 30
0.0
 10
347.2284804404098
 20
-641.6323014999161
 30
0.0
  0
SPLINE
  5
54
330
41
100
AcDbEntity
  8
Layer 1
 62
     8
420
  7369332
370
     9
100
AcDbSpline
210
0.0
220
0.0
230
1.0
 70
     8
 71
     3
 72
    14
 73
    10
 74
     0
 42
0.0000000001
 43
0.0000000001
 12
1.0
 22
0.0
 32
0.0
 13
1.0
 23
0.0
 33
0.0
 40
0.0
 40
0.0
 40
0.0
 40
0.0
 40
1.0
 40
1.0
 40
1.0
 40
2.0
 40
2.0
 40
2.0
 40
3.0
 40
3.0
 40
3.0
 40
3.0
 10
342.4026075768234
 20
-477.3694352782222
 30
0.0
 10
342.4026075768234
 20
-477.3694352782222
 30
0.0
 10
330.0347270723396
 20
-549.7133123086478
 30
0.0
 10
330.9948511504845
 20
-580.3424535087088
 30
0.0
 10
331.9549752286293
 20
-610.9842149212363
 30
0.0
 10
336.6418872038303
 20
-635.1325336537448
 30
0.0
 10
338.5494970757481
 20
-638.3603081091442
 30
0.0
 10
340.4949977049037
 20
-641.6007193429214
 30
0.0
 10
340.3497236983003
 20
-644.0831377248996
 30
0.0
 10
340.3497236983003
 20
-644.0831377248996
 30
0.0
  0
SPLINE
  5
55
330
41
100
AcDbEntity
  8
Layer 1
 62
     8
420
  7369332
370
     9
100
AcDbSpline
210
0.0
220
0.0
230
1.0
 70
     8
 71
     3
 72
    11
 73
     7
 74
     0
 42
0.0000000001
 43
0.0000000001
 12
1.0
 22
0.0
 32
0.0
 13
1.0
 23
0.0
 33
0.0
 40
0.0
 40
0.0
 40
0.0
 40
0.0
 40
1.0
 40
1.0
 40
1.0
 40
2.0
 40
2.0
 40
2.0
 40
2.0
 10
337.6083244001911
 20
-478.297969669411
 30
0.0
 10
337.6083244001911
 20
-478.297969669411
 30
0.0
 10
300.8141943504743
 20
-555.7140757491125
 30
0.0
 10
316.7193607740846
 20
-607.7438082054359
 30
0.0
 10
324.2740066993483
 20
-632.4795662024153
 30
0.0
 10
333.6162409627941
 20
-641.9102308066504
 30
0.0
 10
333.6162409627941
 20
-641.9102308066504
 30
0.0
  0
SPLINE
  5
56
330
41
100
AcDbEntity
  8
Layer 1
 62
     8
420
  7369332
370
     9
100
AcDbSpline
210
0.0
220
0.0
230
1.0
 70
     8
 71
     3
 72
    14
 73
    10
 74
     0
 42
0.0000000001
 43
0.0000000001
 12
1.0
 22
0.0
 32
0.0
 13
1.0
 23
0.0
 33
0.0
 40
0.0
 40
0.0
 40
0.0
 40
0.0
 40
1.0
 40
1.0
 40
1.0
 40
2.0
 40
2.0
 40
2.0
 40
3.0
 40
3.0
 40
3.0
 40
3.0
 10
329.567303317639
 20
-477.3694352782222
 30
0.0
 10
329.567303317639
 20
-477.3694352782222
 30
0.0
 10
306.1643451765249
 20
-512.622309079572
 30
0.0
 10
300.9973832101878
 20
-541.8617932040252
 30
0.0
 10
295.8493605985004
 20
-571.1012833524437
 30
0.0
 10
293.7964646720429
 20
-597.21405712868
 30
0.0
 10
301.9638204065486
 20
-616.3975330732628
 30
0.0
 10
310.1248509749003
 20
-635.5936442902312
 30
0.0
 10
321.0335939595789
 20
-640.6658643035553
 30
0.0
 10
321.0335939595789
 20
-640.6658643035553
 30
0.0
  0
SPLINE
  5
57
330
41
100
AcDbEntity
  8
Layer 1
 62
     8
420
  7369332
370
     9
100
AcDbSpline
210
0.0
220
0.0
230
1.0
 70
     8
 71
     3
 72
    14
 73
    10
 74
     0
 42
0.0000000001
 43
0.0000000001
 12
1.0
 22
0.0
 32
0.0
 13
1.0
 23
0.0
 33
0.0
 40
0.0
 40
0.0
 40
0.0
 40
0.0
 40
1.0
 40
1.0
 40
1.0
 40
2.0
 40
2.0
 40
2.0
 40
3.0
 40
3.0
 40
3.0
 40
3.0
 10
321.5199691168691
 20
-476.4472140052512
 30
0.0
 10
321.5199691168691
 20
-476.4472140052512
 30
0.0
 10
284.5489874215291
 20
-520.8212424530975
 30
0.0
 10
277.3670202859721
 20
-545.5570034620614
 30
0.0
 10
270.1661137957635
 20
-570.2927584470563
 30
0.0
 10
266.1803495005515
 20
-599.7406899280577
 30
0.0
 10
296.8094846766444
 20
-629.2391564746322
 30
0.0
 10
303.8714302784665
 20
-636.0547549267176
 30
0.0
 10
314.3190626266605
 20
-639.2825308881074
 30
0.0
 10
314.3190626266605
 20
-639.2825308881074
 30
0.0
  0
SPLINE
  5
58
330
41
100
AcDbEntity
  8
Layer 1
 62
     8
420
  7369332
370
     9
100
AcDbSpline
210
0.0
220
0.0
230
1.0
 70
     8
 71
     3
 72
    14
 73
    10
 74
     0
 42
0.0000000001
 43
0.0000000001
 12
1.0
 22
0.0
 32
0.0
 13
1.0
 23
0.0
 33
0.0
 40
0.0
 40
0.0
 40
0.0
 40
0.0
 40
1.0
 40
1.0
 40
1.0
 40
2.0
 40
2.0
 40
2.0
 40
3.0
 40
3.0
 40
3.0
 40
3.0
 10
314.8117509021668
 20
-476.4472140052512
 30
0.0
 10
314.8117509021668
 20
-476.4472140052512
 30
0.0
 10
241.2361411350403
 20
-537.2380485548001
 30
0.0
 10
251.20371746813
 20
-573.4131556770571
 30
0.0
 10
261.1649806830019
 20
-609.5756184909769
 30
0.0
 10
275.314136407449
 20
-617.6798008755377
 30
0.0
 10
280.1210578684513
 20
-624.1479850587202
 30
0.0
 10
284.9216662112349
 20
-630.6288045142901
 30
0.0
 10
309.1584137785394
 20
-639.2825308881074
 30
0.0
 10
309.1584137785394
 20
-639.2825308881074
 30
0.0
  0
SPLINE
  5
59
330
41
100
AcDbEntity
  8
Layer 1
 62
     8
420
  7369332
370
     9
100
AcDbSpline
210
0.0
220
0.0
230
1.0
 70
     8
 71
     3
 72
    14
 73
    10
 74
     0
 42
0.0000000001
 43
0.0000000001
 12
1.0
 22
0.0
 32
0.0
 13
1.0
 23
0.0
 33
0.0
 40
0.0
 40
0.0
 40
0.0
 40
0.0
 40
1.0
 40
1.0
 40
1.0
 40
2.0
 40
2.0
 40
2.0
 40
3.0
 40
3.0
 40
3.0
 40
3.0
 10
310.6049130139727
 20
-475.9924164869826
 30
0.0
 10
310.6049130139727
 20
-475.9924164869826
 30
0.0
 10
244.7165848943441
 20
-523.4805230226448
 30
0.0
 10
234.6289930514868
 20
-539.0888162668944
 30
0.0
 10
224.5540394929994
 20
-554.6907843449917
 30
0.0
 10
221.6673541403497
 20
-586.7222028331289
 30
0.0
 10
251.20371746813
 20
-612.7086449693943
 30
0.0
 10
267.873192873737
 20
-627.3883947865052
 30
0.0
 10
297.2832215495637
 20
-637.8991974726596
 30
0.0
 10
297.2832215495637
 20
-637.8991974726596
 30
0.0
  0
SPLINE
  5
5A
330
41
100
AcDbEntity
  8
Layer 1
 62
     8
420
  7369332
370
     9
100
AcDbSpline
210
0.0
220
0.0
230
1.0
 70
     8
 71
     3
 72
    14
 73
    10
 74
     0
 42
0.0000000001
 43
0.0000000001
 12
1.0
 22
0.0
 32
0.0
 13
1.0
 23
0.0
 33
0.0
 40
0.0
 40
0.0
 40
0.0
 40
0.0
 40
1.0
 40
1.0
 40
1.0
 40
2.0
 40
2.0
 40
2.0
 40
3.0
 40
3.0
 40
3.0
 40
3.0
 10
301.4774332013239
 20
-475.9924164869826
 30
0.0
 10
301.4774332013239
 20
-475.9924164869826
 30
0.0
 10
230.7948219050631
 20
-513.5508434707608
 30
0.0
 10
220.8398778323754
 20
-524.983876465838
 30
0.0
 10
210.8786206414707
 20
-536.4358488155649
 30
0.0
 10
187.7220066381105
 20
-562.8328695347263
 30
0.0
 10
216.5130184104464
 20
-594.9085039462516
 30
0.0
 10
234.1552501545993
 20
-614.5467713851358
 30
0.0
 10
248.3233572816334
 20
-622.4109227501613
 30
0.0
 10
248.3233572816334
 20
-622.4109227501613
 30
0.0
  0
SPLINE
  5
5B
330
41
100
AcDbEntity
  8
Layer 1
 62
     8
420
  7369332
370
     9
100
AcDbSpline
210
0.0
220
0.0
230
1.0
 70
     8
 71
     3
 72
    14
 73
    10
 74
     0
 42
0.0000000001
 43
0.0000000001
 12
1.0
 22
0.0
 32
0.0
 13
1.0
 23
0.0
 33
0.0
 40
0.0
 40
0.0
 40
0.0
 40
0.0
 40
1.0
 40
1.0
 40
1.0
 40
2.0
 40
2.0
 40
2.0
 40
3.0
 40
3.0
 40
3.0
 40
3.0
 10
297.2832215495637
 20
-474.2553571904064
 30
0.0
 10
297.2832215495637
 20
-474.2553571904064
 30
0.0
 10
205.5979502596147
 20
-514.9278622620004
 30
0.0
 10
192.7626460004303
 20
-536.4358488155649
 30
0.0
 10
183.4898921811782
 20
-551.9557102130348
 30
0.0
 10
183.2751377303812
 20
-574.7964875865146
 30
0.0
 10
204.637838229406
 20
-594.447393309767
 30
0.0
 10
226.0005387284318
 20
-614.0982930090522
 30
0.0
 10
224.5540394929994
 20
-611.4326932973199
 30
0.0
 10
224.5540394929994
 20
-611.4326932973199
 30
0.0
  0
SPLINE
  5
5C
330
41
100
AcDbEntity
  8
Layer 1
 62
     8
420
  7369332
370
     9
100
AcDbSpline
210
0.0
220
0.0
230
1.0
 70
     8
 71
     3
 72
    11
 73
     7
 74
     0
 42
0.0000000001
 43
0.0000000001
 12
1.0
 22
0.0
 32
0.0
 13
1.0
 23
0.0
 33
0.0
 40
0.0
 40
0.0
 40
0.0
 40
0.0
 40
1.0
 40
1.0
 40
1.0
 40
2.0
 40
2.0
 40
2.0
 40
2.0
 10
353.7914246485088
 20
-477.8368590329246
 30
0.0
 10
353.7914246485088
 20
-477.8368590329246
 30
0.0
 10
380.0684298579017
 20
-540.3647649269842
 30
0.0
 10
380.8011371050088
 20
-568.8967942771997
 30
0.0
 10
381.3380653997756
 20
-589.7731196189343
 30
0.0
 10
379.253579786362
 20
-616.5175485830314
 30
0.0
 10
356.090652664785
 20
-641.1459248366355
 30
0.0
  0
SPLINE
  5
5D
330
41
100
AcDbEntity
  8
Layer 1
 62
     8
420
  7369332
370
     9
100
AcDbSpline
210
0.0
220
0.0
230
1.0
 70
     8
 71
     3
 72
    11
 73
     7
 74
     0
 42
0.0000000001
 43
0.0000000001
 12
1.0
 22
0.0
 32
0.0
 13
1.0
 23
0.0
 33
0.0
 40
0.0
 40
0.0
 40
0.0
 40
0.0
 40
1.0
 40
1.0
 40
1.0
 40
2.0
 40
2.0
 40
2.0
 40
2.0
 10
362.3251340065672
 20
-477.3694352782222
 30
0.0
 10
362.3251340065672
 20
-477.3694352782222
 30
0.0
 10
428.2134500782595
 20
-549.2522016721632
 30
0.0
 10
411.1713079308829
 20
-588.5477000004521
 30
0.0
 10
394.122828569416
 20
-627.8431892927892
 30
0.0
 10
380.6811396671437
 20
-634.6651068870597
 30
0.0
 10
377.4470400455921
 20
-638.3603081091442
 30
0.0
  0
SPLINE
  5
5E
330
41
100
AcDbEntity
  8
Layer 1
 62
     8
420
  7369332
370
     9
100
AcDbSpline
210
0.0
220
0.0
230
1.0
 70
     8
 71
     3
 72
    14
 73
    10
 74
     0
 42
0.0000000001
 43
0.0000000001
 12
1.0
 22
0.0
 32
0.0
 13
1.0
 23
0.0
 33
0.0
 40
0.0
 40
0.0
 40
0.0
 40
0.0
 40
1.0
 40
1.0
 40
1.0
 40
2.0
 40
2.0
 40
2.0
 40
3.0
 40
3.0
 40
3.0
 40
3.0
 10
344.6828962384461
 20
-477.8368590329246
 30
0.0
 10
344.6828962384461
 20
-477.8368590329246
 30
0.0
 10
354.7704880813035
 20
-550.0796779801367
 30
0.0
 10
354.7704880813035
 20
-562.883398576334
 30
0.0
 10
354.7704880813035
 20
-575.7187088594837
 30
0.0
 10
346.9695100662229
 20
-631.5383935268583
 30
0.0
 10
344.6828962384461
 20
-638.3603081091442
 30
0.0
 10
342.4026075768234
 20
-645.1822241974223
 30
0.0
 10
343.6659300004794
 20
-643.5904434254262
 30
0.0
 10
343.6659300004794
 20
-643.5904434254262
 30
0.0
  0
SPLINE
  5
5F
330
41
100
AcDbEntity
  8
Layer 1
 62
     8
420
  7369332
370
     9
100
AcDbSpline
210
0.0
220
0.0
230
1.0
 70
     8
 71
     3
 72
    14
 73
    10
 74
     0
 42
0.0000000001
 43
0.0000000001
 12
1.0
 22
0.0
 32
0.0
 13
1.0
 23
0.0
 33
0.0
 40
0.0
 40
0.0
 40
0.0
 40
0.0
 40
1.0
 40
1.0
 40
1.0
 40
2.0
 40
2.0
 40
2.0
 40
3.0
 40
3.0
 40
3.0
 40
3.0
 10
305.3116043477476
 20
-476.9019994755836
 30
0.0
 10
305.3116043477476
 20
-476.9019994755836
 30
0.0
 10
225.5204766893603
 20
-526.3798346117273
 30
0.0
 10
218.4395796849512
 20
-543.2577633978508
 30
0.0
 10
211.3523695623262
 20
-560.1230538996042
 30
0.0
 10
210.1269499438422
 20
-594.9716712722293
 30
0.0
 10
245.5693257231214
 20
-617.3323866066348
 30
0.0
 10
264.7022666021294
 20
-629.4033879077906
 30
0.0
 10
271.8021150091245
 20
-630.8751516640259
 30
0.0
 10
271.8021150091245
 20
-630.8751516640259
 30
0.0
  0
SPLINE
  5
60
330
41
100
AcDbEntity
  8
Layer 1
 62
     8
420
  7369332
370
     9
100
AcDbSpline
210
0.0
220
0.0
230
1.0
 70
     8
 71
     3
 72
    14
 73
    10
 74
     0
 42
0.0000000001
 43
0.0000000001
 12
1.0
 22
0.0
 32
0.0
 13
1.0
 23
0.0
 33
0.0
 40
0.0
 40
0.0
 40
0.0
 40
0.0
 40
1.0
 40
1.0
 40
1.0
 40
2.0
 40
2.0
 40
2.0
 40
3.0
 40
3.0
 40
3.0
 40
3.0
 10
305.3116043477476
 20
-482.909076034266
 30
0.0
 10
305.3116043477476
 20
-482.909076034266
 30
0.0
 10
236.9219139735123
 20
-535.4946761400079
 30
0.0
 10
240.2760230808644
 20
-564.2793687701596
 30
0.0
 10
243.6301321882147
 20
-593.0577422581264
 30
0.0
 10
257.3181772761773
 20
-608.6660294784069
 30
0.0
 10
269.1996765994018
 20
-620.1053695677329
 30
0.0
 10
281.0811819465944
 20
-631.5383935268583
 30
0.0
 10
295.3566602750598
 20
-635.1325336537448
 30
0.0
 10
295.3566602750598
 20
-635.1325336537448
 30
0.0
  0
SPLINE
  5
61
330
41
100
AcDbEntity
  8
Layer 1
 62
     8
420
  7369332
370
     9
100
AcDbSpline
210
0.0
220
0.0
230
1.0
 70
     8
 71
     3
 72
     8
 73
     4
 74
     0
 42
0.0000000001
 43
0.0000000001
 12
1.0
 22
0.0
 32
0.0
 13
1.0
 23
0.0
 33
0.0
 40
0.0
 40
0.0
 40
0.0
 40
0.0
 40
1.0
 40
1.0
 40
1.0
 40
1.0
 10
337.2040559235284
 20
-644.51898233459
 30
0.0
 10
337.2040559235284
 20
-644.51898233459
 30
0.0
 10
342.2952243274558
 20
-642.781920026031
 30
0.0
 10
342.7437087275066
 20
-644.9421931778852
 30
0.0
  0
SPLINE
  5
62
330
41
100
AcDbEntity
  8
Layer 1
 62
     8
420
  7369332
370
     9
100
AcDbSpline
210
0.0
220
0.0
230
1.0
 70
     8
 71
     3
 72
    56
 73
    52
 74
     0
 42
0.0000000001
 43
0.0000000001
 12
1.0
 22
0.0
 32
0.0
 13
1.0
 23
0.0
 33
0.0
 40
0.0
 40
0.0
 40
0.0
 40
0.0
 40
1.0
 40
1.0
 40
1.0
 40
2.0
 40
2.0
 40
2.0
 40
3.0
 40
3.0
 40
3.0
 40
4.0
 40
4.0
 40
4.0
 40
5.0
 40
5.0
 40
5.0
 40
6.0
 40
6.0
 40
6.0
 40
7.0
 40
7.0
 40
7.0
 40
8.0
 40
8.0
 40
8.0
 40
9.0
 40
9.0
 40
9.0
 40
10.0
 40
10.0
 40
10.0
 40
11.0
 40
11.0
 40
11.0
 40
12.0
 40
12.0
 40
12.0
 40
13.0
 40
13.0
 40
13.0
 40
14.0
 40
14.0
 40
14.0
 40
15.0
 40
15.0
 40
15.0
 40
16.0
 40
16.0
 40
16.0
 40
17.0
 40
17.0
 40
17.0
 40
17.0
 10
349.2308473252597
 20
-79.3423072816031
 30
0.0
 10
349.2308473252597
 20
-79.3423072816031
 30
0.0
 10
348.125437192577
 20
-90.91425297332444
 30
0.0
 10
348.125437192577
 20
-90.91425297332444
 30
0.0
 10
348.125437192577
 20
-90.91425297332444
 30
0.0
 10
345.9209541413002
 20
-91.62806905752223
 30
0.0
 10
345.9209541413002
 20
-91.62806905752223
 30
0.0
 10
345.9209541413002
 20
-91.62806905752223
 30
0.0
 10
345.9209541413002
 20
-394.8053306827051
 30
0.0
 10
345.9209541413002
 20
-394.8053306827051
 30
0.0
 10
345.9209541413002
 20
-394.8053306827051
 30
0.0
 10
348.8644816537726
 20
-396.2202402311823
 30
0.0
 10
348.8644816537726
 20
-397.9951902849953
 30
0.0
 10
348.8644816537726
 20
-399.7701644346798
 30
0.0
 10
351.4353303765383
 20
-433.6902353681799
 30
0.0
 10
352.1617365533639
 20
-436.8738059481238
 30
0.0
 10
352.8881427301894
 20
-440.0573524321971
 30
0.0
 10
357.031825340342
 20
-459.4998047749359
 30
0.0
 10
383.0877629807201
 20
-470.913874319489
 30
0.0
 10
387.1240623415069
 20
-472.6698970665875
 30
0.0
 10
390.3391985125363
 20
-475.1459887764213
 30
0.0
 10
390.3391985125363
 20
-475.1459887764213
 30
0.0
 10
390.3391985125363
 20
-475.1459887764213
 30
0.0
 10
346.6663117207099
 20
-479.2138778241642
 30
0.0
 10
325.5499553594382
 20
-477.1736201820768
 30
0.0
 10
304.4462372825346
 20
-475.1459887764213
 30
0.0
 10
306.6444072155973
 20
-478.5948548967062
 30
0.0
 10
297.5611553742729
 20
-475.1459887764213
 30
0.0
 10
297.0747802169844
 20
-474.9564988464281
 30
0.0
 10
313.9842866421277
 20
-467.1049797418054
 30
0.0
 10
319.4039179123702
 20
-462.512812731602
 30
0.0
 10
324.8172360643966
 20
-457.920657769333
 30
0.0
 10
332.8077160574067
 20
-451.2819320467588
 30
0.0
 10
335.3722516619564
 20
-432.0163433975813
 30
0.0
 10
337.9367872665061
 20
-412.7507547484029
 30
0.0
 10
338.6695065615477
 20
-402.5873572951996
 30
0.0
 10
338.6695065615477
 20
-400.4649929724837
 30
0.0
 10
338.6695065615477
 20
-398.3489176721141
 30
0.0
 10
341.2340421660992
 20
-395.5127854569437
 30
0.0
 10
341.2340421660992
 20
-395.5127854569437
 30
0.0
 10
341.2340421660992
 20
-395.5127854569437
 30
0.0
 10
341.973086627293
 20
-394.4579164138031
 30
0.0
 10
341.973086627293
 20
-394.4579164138031
 30
0.0
 10
341.973086627293
 20
-394.4579164138031
 30
0.0
 10
341.973086627293
 20
-91.98179644464108
 30
0.0
 10
341.973086627293
 20
-91.98179644464108
 30
0.0
 10
341.973086627293
 20
-91.98179644464108
 30
0.0
 10
339.7749166942303
 20
-91.62806905752223
 30
0.0
 10
339.7749166942303
 20
-89.85938393018387
 30
0.0
 10
339.7749166942303
 20
-89.85938393018387
 30
0.0
 10
339.7749166942303
 20
-79.3423072816031
 30
0.0
 10
339.7749166942303
 20
-79.3423072816031
 30
0.0
  0
SPLINE
  5
63
330
41
100
AcDbEntity
  8
Layer 1
 62
     8
420
  7369332
370
     9
100
AcDbSpline
210
0.0
220
0.0
230
1.0
 70
     8
 71
     3
 72
    17
 73
    13
 74
     0
 42
0.0000000001
 43
0.0000000001
 12
1.0
 22
0.0
 32
0.0
 13
1.0
 23
0.0
 33
0.0
 40
0.0
 40
0.0
 40
0.0
 40
0.0
 40
1.0
 40
1.0
 40
1.0
 40
2.0
 40
2.0
 40
2.0
 40
3.0
 40
3.0
 40
3.0
 40
4.0
 40
4.0
 40
4.0
 40
4.0
 10
338.7200356031553
 20
-83.12593733848371
 30
0.0
 10
313.4284189927093
 20
-82.27318446177105
 30
0.0
 10
293.7838384356091
 20
-76.33557629934694
 30
0.0
 10
293.7838384356091
 20
-69.12835669092237
 30
0.0
 10
293.7838384356091
 20
-61.33999286433937
 30
0.0
 10
316.681470016847
 20
-55.02971796014572
 30
0.0
 10
344.9481917787853
 20
-55.02971796014572
 30
0.0
 10
373.202299352226
 20
-55.02971796014572
 30
0.0
 10
396.1062320037454
 20
-61.33999286433937
 30
0.0
 10
396.1062320037454
 20
-69.12835669092237
 30
0.0
 10
396.1062320037454
 20
-76.51875311112417
 30
0.0
 10
375.4825880138505
 20
-82.58267182962936
 30
0.0
 10
349.2182090408915
 20
-83.18275540243667
 30
0.0
  0
SPLINE
  5
64
330
41
100
AcDbEntity
  8
Layer 1
 62
     8
420
  7369332
370
     9
100
AcDbSpline
210
0.0
220
0.0
230
1.0
 70
     8
 71
     3
 72
    14
 73
    10
 74
     0
 42
0.0000000001
 43
0.0000000001
 12
1.0
 22
0.0
 32
0.0
 13
1.0
 23
0.0
 33
0.0
 40
0.0
 40
0.0
 40
0.0
 40
0.0
 40
1.0
 40
1.0
 40
1.0
 40
2.0
 40
2.0
 40
2.0
 40
3.0
 40
3.0
 40
3.0
 40
3.0
 10
325.0509419177797
 20
-648.0373213691073
 30
0.0
 10
325.0509419177797
 20
-648.0373213691073
 30
0.0
 10
325.3920430684648
 20
-643.438845758661
 30
0.0
 10
328.1271172004217
 20
-642.4471410295137
 30
0.0
 10
330.8558902620971
 20
-641.4554378063567
 30
0.0
 10
335.6375472022955
 20
-641.4554378063567
 30
0.0
 10
336.8124257312375
 20
-643.9125901615407
 30
0.0
 10
338.0062677106998
 20
-646.3886924133185
 30
0.0
 10
339.8949261800317
 20
-651.6504098865971
 30
0.0
 10
332.5613719196535
 20
-652.9579437156681
 30
0.0
  0
SPLINE
  5
65
330
41
100
AcDbEntity
  8
Layer 1
 62
     8
420
  7369332
370
     9
100
AcDbSpline
210
0.0
220
0.0
230
1.0
 70
     8
 71
     3
 72
    23
 73
    19
 74
     0
 42
0.0000000001
 43
0.0000000001
 12
1.0
 22
0.0
 32
0.0
 13
1.0
 23
0.0
 33
0.0
 40
0.0
 40
0.0
 40
0.0
 40
0.0
 40
1.0
 40
1.0
 40
1.0
 40
2.0
 40
2.0
 40
2.0
 40
3.0
 40
3.0
 40
3.0
 40
4.0
 40
4.0
 40
4.0
 40
5.0
 40
5.0
 40
5.0
 40
6.0
 40
6.0
 40
6.0
 40
6.0
 10
330.0031494333198
 20
-645.895998113845
 30
0.0
 10
329.3209591798841
 20
-647.2161657093093
 30
0.0
 10
327.7797149794551
 20
-649.6733180644933
 30
0.0
 10
327.7797149794551
 20
-651.4735454400416
 30
0.0
 10
327.7797149794551
 20
-653.2864065819831
 30
0.0
 10
329.3209591798841
 20
-654.2717944279339
 30
0.0
 10
330.3442505840067
 20
-655.7498754438657
 30
0.0
 10
331.3675299401912
 20
-657.2216407060951
 30
0.0
 10
332.5613719196535
 20
-658.2196611889449
 30
0.0
 10
332.5613719196535
 20
-658.2196611889449
 30
0.0
 10
332.5613719196535
 20
-658.2196611889449
 30
0.0
 10
328.9798580292008
 20
-659.3692804680541
 30
0.0
 10
327.097512678085
 20
-658.7123554884183
 30
0.0
 10
325.2214924931213
 20
-658.0554305087826
 30
0.0
 10
321.9810797533537
 20
-657.3921882694522
 30
0.0
 10
321.6399906506049
 20
-656.413117306698
 30
0.0
 10
321.2988894999198
 20
-655.4214129540487
 30
0.0
 10
320.2692849775813
 20
-654.4360258610923
 30
0.0
 10
321.4694400752614
 20
-654.1075629947773
 30
0.0
  0
SPLINE
  5
66
330
41
100
AcDbEntity
  8
Layer 1
 62
     8
420
  7369332
370
     9
100
AcDbSpline
210
0.0
220
0.0
230
1.0
 70
     8
 71
     3
 72
    26
 73
    22
 74
     0
 42
0.0000000001
 43
0.0000000001
 12
1.0
 22
0.0
 32
0.0
 13
1.0
 23
0.0
 33
0.0
 40
0.0
 40
0.0
 40
0.0
 40
0.0
 40
1.0
 40
1.0
 40
1.0
 40
2.0
 40
2.0
 40
2.0
 40
3.0
 40
3.0
 40
3.0
 40
4.0
 40
4.0
 40
4.0
 40
5.0
 40
5.0
 40
5.0
 40
6.0
 40
6.0
 40
6.0
 40
7.0
 40
7.0
 40
7.0
 40
7.0
 10
324.1982010890024
 20
-655.4214129540487
 30
0.0
 10
324.1982010890024
 20
-655.4214129540487
 30
0.0
 10
324.5393022396875
 20
-653.9370146784222
 30
0.0
 10
323.5160108355667
 20
-652.1367873028739
 30
0.0
 10
322.4927314793822
 20
-650.330243044129
 30
0.0
 10
321.9810797533537
 20
-650.1596954807701
 30
0.0
 10
321.9810797533537
 20
-648.5236995383802
 30
0.0
 10
321.9810797533537
 20
-646.8750705825914
 30
0.0
 10
323.0043711574745
 20
-647.0456181459504
 30
0.0
 10
321.6399906506049
 20
-644.9042948906899
 30
0.0
 10
320.2692849775813
 20
-642.7756038958287
 30
0.0
 10
316.6877831350648
 20
-638.99196781498
 30
0.0
 10
316.1761434569707
 20
-639.9773549079364
 30
0.0
 10
315.6644917309441
 20
-640.9627435068833
 30
0.0
 10
315.1528520528518
 20
-641.790216802874
 30
0.0
 10
316.0055928816291
 20
-642.9272015625938
 30
0.0
 10
316.8583337104064
 20
-644.0894538551001
 30
0.0
 10
317.5405239638421
 20
-645.0685248178561
 30
0.0
 10
318.0521636419344
 20
-646.0602295470035
 30
0.0
 10
318.5638033200266
 20
-647.0456181459504
 30
0.0
 10
318.5638033200266
 20
-648.3531519750213
 30
0.0
 10
318.5638033200266
 20
-648.3531519750213
 30
0.0
  0
SPLINE
  5
67
330
41
100
AcDbEntity
  8
Layer 1
 62
     8
420
  7369332
370
     9
100
AcDbSpline
210
0.0
220
0.0
230
1.0
 70
     8
 71
     3
 72
    23
 73
    19
 74
     0
 42
0.0000000001
 43
0.0000000001
 12
1.0
 22
0.0
 32
0.0
 13
1.0
 23
0.0
 33
0.0
 40
0.0
 40
0.0
 40
0.0
 40
0.0
 40
1.0
 40
1.0
 40
1.0
 40
2.0
 40
2.0
 40
2.0
 40
3.0
 40
3.0
 40
3.0
 40
4.0
 40
4.0
 40
4.0
 40
5.0
 40
5.0
 40
5.0
 40
6.0
 40
6.0
 40
6.0
 40
6.0
 10
311.9061261948664
 20
-640.2995016440509
 30
0.0
 10
311.2239359414307
 20
-640.1479039772858
 30
0.0
 10
308.8425771486582
 20
-638.99196781498
 30
0.0
 10
308.5014880459075
 20
-639.9773549079364
 30
0.0
 10
308.1603868952225
 20
-640.9627435068833
 30
0.0
 10
308.6657134550987
 20
-641.4554378063567
 30
0.0
 10
309.6890048592177
 20
-642.9272015625938
 30
0.0
 10
310.7186093815562
 20
-644.417916721417
 30
0.0
 10
313.4410572770794
 20
-645.4033053203639
 30
0.0
 10
313.1125944107625
 20
-646.3886924133185
 30
0.0
 10
312.7588670236437
 20
-647.3803971424677
 30
0.0
 10
310.8828347907456
 20
-647.0456181459504
 30
0.0
 10
311.7418887377407
 20
-648.5236995383802
 30
0.0
 10
312.5883164483021
 20
-650.0080970610106
 30
0.0
 10
316.0055928816291
 20
-651.6504098865971
 30
0.0
 10
317.3762865067165
 20
-651.808325189555
 30
0.0
 10
318.7343538953683
 20
-651.966239739515
 30
0.0
 10
320.9578003971692
 20
-651.6504098865971
 30
0.0
 10
320.9578003971692
 20
-651.6504098865971
 30
0.0
  0
SPLINE
  5
68
330
41
100
AcDbEntity
  8
Layer 1
 62
     8
420
  7369332
370
     9
100
AcDbSpline
210
0.0
220
0.0
230
1.0
 70
     8
 71
     3
 72
    23
 73
    19
 74
     0
 42
0.0000000001
 43
0.0000000001
 12
1.0
 22
0.0
 32
0.0
 13
1.0
 23
0.0
 33
0.0
 40
0.0
 40
0.0
 40
0.0
 40
0.0
 40
1.0
 40
1.0
 40
1.0
 40
2.0
 40
2.0
 40
2.0
 40
3.0
 40
3.0
 40
3.0
 40
4.0
 40
4.0
 40
4.0
 40
5.0
 40
5.0
 40
5.0
 40
6.0
 40
6.0
 40
6.0
 40
6.0
 10
303.031315686123
 20
-638.99196781498
 30
0.0
 10
303.031315686123
 20
-638.99196781498
 30
0.0
 10
302.5196760080307
 20
-640.4700492074098
 30
0.0
 10
303.031315686123
 20
-643.2619820651016
 30
0.0
 10
303.5429674121515
 20
-646.0602295470035
 30
0.0
 10
307.1370954911035
 20
-649.180624518016
 30
0.0
 10
308.8425771486582
 20
-649.6733180644933
 30
0.0
 10
310.5417456879968
 20
-650.1596954807701
 30
0.0
 10
313.4410572770794
 20
-651.966239739515
 30
0.0
 10
314.6412123747596
 20
-652.7873961523092
 30
0.0
 10
315.8350423062875
 20
-653.6211855785004
 30
0.0
 10
316.1761434569707
 20
-654.5939404110541
 30
0.0
 10
317.8816130665909
 20
-654.4360258610923
 30
0.0
 10
319.5870947241474
 20
-654.2717944279339
 30
0.0
 10
319.757645299489
 20
-652.1367873028739
 30
0.0
 10
319.757645299489
 20
-652.1367873028739
 30
0.0
 10
319.757645299489
 20
-652.1367873028739
 30
0.0
 10
318.9049044707117
 20
-651.3156308900798
 30
0.0
 10
318.9049044707117
 20
-651.3156308900798
 30
0.0
  0
SPLINE
  5
69
330
41
100
AcDbEntity
  8
Layer 1
 62
     8
420
  7369332
370
     9
100
AcDbSpline
210
0.0
220
0.0
230
1.0
 70
     8
 71
     3
 72
    26
 73
    22
 74
     0
 42
0.0000000001
 43
0.0000000001
 12
1.0
 22
0.0
 32
0.0
 13
1.0
 23
0.0
 33
0.0
 40
0.0
 40
0.0
 40
0.0
 40
0.0
 40
1.0
 40
1.0
 40
1.0
 40
2.0
 40
2.0
 40
2.0
 40
3.0
 40
3.0
 40
3.0
 40
4.0
 40
4.0
 40
4.0
 40
5.0
 40
5.0
 40
5.0
 40
6.0
 40
6.0
 40
6.0
 40
7.0
 40
7.0
 40
7.0
 40
7.0
 10
333.7552018511815
 20
-654.4360258610923
 30
0.0
 10
333.7552018511815
 20
-654.4360258610923
 30
0.0
 10
333.0730115977458
 20
-655.5793275040087
 30
0.0
 10
334.2668415292737
 20
-656.242569366841
 30
0.0
 10
335.4480452243661
 20
-656.8994943464768
 30
0.0
 10
336.4713366284868
 20
-656.242569366841
 30
0.0
 10
337.3367036936979
 20
-655.5793275040087
 30
0.0
 10
338.1957696886293
 20
-654.9287194075696
 30
0.0
 10
341.2593066869013
 20
-653.9370146784222
 30
0.0
 10
342.6173740755548
 20
-653.9370146784222
 30
0.0
 10
343.9817545824244
 20
-653.9370146784222
 30
0.0
 10
349.1045126733079
 20
-654.1075629947773
 30
0.0
 10
350.1341171956446
 20
-654.7581718442125
 30
0.0
 10
351.1574085997654
 20
-655.4214129540487
 30
0.0
 10
356.4443920998383
 20
-656.5647153499594
 30
0.0
 10
353.3745299354123
 20
-657.550103195912
 30
0.0
 10
350.2983426048359
 20
-658.5418071720633
 30
0.0
 10
345.8640999335403
 20
-658.0554305087826
 30
0.0
 10
343.9817545824244
 20
-657.2216407060951
 30
0.0
 10
342.1057343974626
 20
-656.413117306698
 30
0.0
 10
340.5708033152496
 20
-655.2571815208903
 30
0.0
 10
340.5708033152496
 20
-655.2571815208903
 30
0.0
  0
SPLINE
  5
6A
330
41
100
AcDbEntity
  8
Layer 1
 62
     8
420
  7369332
370
     9
100
AcDbSpline
210
0.0
220
0.0
230
1.0
 70
     8
 71
     3
 72
    17
 73
    13
 74
     0
 42
0.0000000001
 43
0.0000000001
 12
1.0
 22
0.0
 32
0.0
 13
1.0
 23
0.0
 33
0.0
 40
0.0
 40
0.0
 40
0.0
 40
0.0
 40
1.0
 40
1.0
 40
1.0
 40
2.0
 40
2.0
 40
2.0
 40
3.0
 40
3.0
 40
3.0
 40
4.0
 40
4.0
 40
4.0
 40
4.0
 10
336.3007860531434
 20
-652.307335619229
 30
0.0
 10
336.3007860531434
 20
-652.307335619229
 30
0.0
 10
337.8357171353564
 20
-653.2864065819831
 30
0.0
 10
338.8716347759109
 20
-652.465250169189
 30
0.0
 10
339.8949261800317
 20
-651.6504098865971
 30
0.0
 10
340.2360273307168
 20
-650.330243044129
 30
0.0
 10
341.0824429933418
 20
-648.0373213691073
 30
0.0
 10
341.9351838221191
 20
-645.7254505504861
 30
0.0
 10
345.8640999335403
 20
-642.9272015625938
 30
0.0
 10
345.8640999335403
 20
-642.9272015625938
 30
0.0
 10
345.8640999335403
 20
-642.9272015625938
 30
0.0
 10
350.4752062983953
 20
-642.1123620329963
 30
0.0
 10
348.2517718445306
 20
-645.895998113845
 30
0.0
  0
SPLINE
  5
6B
330
41
100
AcDbEntity
  8
Layer 1
 62
     8
420
  7369332
370
     9
100
AcDbSpline
210
0.0
220
0.0
230
1.0
 70
     8
 71
     3
 72
    17
 73
    13
 74
     0
 42
0.0000000001
 43
0.0000000001
 12
1.0
 22
0.0
 32
0.0
 13
1.0
 23
0.0
 33
0.0
 40
0.0
 40
0.0
 40
0.0
 40
0.0
 40
1.0
 40
1.0
 40
1.0
 40
2.0
 40
2.0
 40
2.0
 40
3.0
 40
3.0
 40
3.0
 40
4.0
 40
4.0
 40
4.0
 40
4.0
 10
345.0050459865452
 20
-647.3803971424677
 30
0.0
 10
345.0050459865452
 20
-647.3803971424677
 30
0.0
 10
344.8344954112035
 20
-649.5090866313349
 30
0.0
 10
345.5230108307896
 20
-649.6733180644933
 30
0.0
 10
346.2052010842253
 20
-649.8375494976517
 30
0.0
 10
348.5928729952157
 20
-649.5090866313349
 30
0.0
 10
348.7634115226228
 20
-648.2015528022639
 30
0.0
 10
348.9339620979663
 20
-646.8750705825914
 30
0.0
 10
349.7930160449596
 20
-645.4033053203639
 30
0.0
 10
350.6394437555209
 20
-644.7526957179325
 30
0.0
 10
351.504810820732
 20
-644.0894538551001
 30
0.0
 10
353.5450684628195
 20
-642.6050563324698
 30
0.0
 10
354.5683598669402
 20
-642.2765934661547
 30
0.0
  0
SPLINE
  5
6C
330
41
100
AcDbEntity
  8
Layer 1
 62
     8
420
  7369332
370
     9
100
AcDbSpline
210
0.0
220
0.0
230
1.0
 70
     8
 71
     3
 72
    17
 73
    13
 74
     0
 42
0.0000000001
 43
0.0000000001
 12
1.0
 22
0.0
 32
0.0
 13
1.0
 23
0.0
 33
0.0
 40
0.0
 40
0.0
 40
0.0
 40
0.0
 40
1.0
 40
1.0
 40
1.0
 40
2.0
 40
2.0
 40
2.0
 40
3.0
 40
3.0
 40
3.0
 40
4.0
 40
4.0
 40
4.0
 40
4.0
 10
345.3461471372302
 20
-651.1450833267209
 30
0.0
 10
345.3461471372302
 20
-651.1450833267209
 30
0.0
 10
348.5928729952157
 20
-652.307335619229
 30
0.0
 10
350.4752062983953
 20
-650.330243044129
 30
0.0
 10
352.3449254130755
 20
-648.3531519750213
 30
0.0
 10
356.4443920998383
 20
-641.790216802874
 30
0.0
 10
360.543858786601
 20
-641.6196677335229
 30
0.0
 10
364.6370003072116
 20
-641.4554378063567
 30
0.0
 10
367.0309853364197
 20
-641.2912063732001
 30
0.0
 10
366.0013808140829
 20
-643.438845758661
 30
0.0
 10
364.9781014578966
 20
-645.5675367535223
 30
0.0
 10
360.7143973140082
 20
-650.4944744772874
 30
0.0
 10
358.4909628601436
 20
-651.4735454400416
 30
0.0
  0
SPLINE
  5
6D
330
41
100
AcDbEntity
  8
Layer 1
 62
     8
420
  7369332
370
     9
100
AcDbSpline
210
0.0
220
0.0
230
1.0
 70
     8
 71
     3
 72
    29
 73
    25
 74
     0
 42
0.0000000001
 43
0.0000000001
 12
1.0
 22
0.0
 32
0.0
 13
1.0
 23
0.0
 33
0.0
 40
0.0
 40
0.0
 40
0.0
 40
0.0
 40
1.0
 40
1.0
 40
1.0
 40
2.0
 40
2.0
 40
2.0
 40
3.0
 40
3.0
 40
3.0
 40
4.0
 40
4.0
 40
4.0
 40
5.0
 40
5.0
 40
5.0
 40
6.0
 40
6.0
 40
6.0
 40
7.0
 40
7.0
 40
7.0
 40
8.0
 40
8.0
 40
8.0
 40
8.0
 10
357.126582353274
 20
-646.2244609801601
 30
0.0
 10
357.126582353274
 20
-647.0456181459504
 30
0.0
 10
356.9560317779324
 20
-647.70254237259
 30
0.0
 10
356.7854812025889
 20
-648.6942471017392
 30
0.0
 10
356.6149306272455
 20
-649.6733180644933
 30
0.0
 10
355.4274138139353
 20
-650.330243044129
 30
0.0
 10
354.7389104422837
 20
-651.4735454400416
 30
0.0
 10
354.056720188848
 20
-652.6168478359541
 30
0.0
 10
353.8861696135064
 20
-653.6211855785004
 30
0.0
 10
354.5683598669402
 20
-653.6211855785004
 30
0.0
 10
355.2505501203759
 20
-653.6211855785004
 30
0.0
 10
356.7854812025889
 20
-655.0992669709285
 30
0.0
 10
357.8087726067097
 20
-654.2717944279339
 30
0.0
 10
358.8320640108286
 20
-653.4506380151415
 30
0.0
 10
358.8320640108286
 20
-652.465250169189
 30
0.0
 10
360.543858786601
 20
-651.808325189555
 30
0.0
 10
362.2493283962212
 20
-651.1450833267209
 30
0.0
 10
362.7609801222497
 20
-650.1596954807701
 30
0.0
 10
363.9548100537759
 20
-650.829253473803
 30
0.0
 10
365.1486520332401
 20
-651.4735454400416
 30
0.0
 10
367.7131755898554
 20
-654.9287194075696
 30
0.0
 10
365.8245171205217
 20
-655.7498754438657
 30
0.0
 10
363.9548100537759
 20
-656.5647153499594
 30
0.0
 10
362.5904295469063
 20
-656.7352632898182
 30
0.0
 10
362.4198789715647
 20
-656.0783379336826
 30
0.0
  0
SPLINE
  5
6E
330
41
100
AcDbEntity
  8
Layer 1
 62
     8
420
  7369332
370
     9
100
AcDbSpline
210
0.0
220
0.0
230
1.0
 70
     8
 71
     3
 72
    20
 73
    16
 74
     0
 42
0.0000000001
 43
0.0000000001
 12
1.0
 22
0.0
 32
0.0
 13
1.0
 23
0.0
 33
0.0
 40
0.0
 40
0.0
 40
0.0
 40
0.0
 40
1.0
 40
1.0
 40
1.0
 40
2.0
 40
2.0
 40
2.0
 40
3.0
 40
3.0
 40
3.0
 40
4.0
 40
4.0
 40
4.0
 40
5.0
 40
5.0
 40
5.0
 40
5.0
 10
365.8245171205217
 20
-657.2216407060951
 30
0.0
 10
365.8245171205217
 20
-657.2216407060951
 30
0.0
 10
367.3720864871048
 20
-659.5271950180158
 30
0.0
 10
368.2248273158821
 20
-659.8619740145332
 30
0.0
 10
369.0712429785071
 20
-660.1841199976516
 30
0.0
 10
370.953588329623
 20
-661.4979707099192
 30
0.0
 10
370.953588329623
 20
-659.6977433343709
 30
0.0
 10
370.953588329623
 20
-657.8911986991279
 30
0.0
 10
369.5892078227516
 20
-657.3921882694522
 30
0.0
 10
369.2481066720666
 20
-656.7352632898182
 30
0.0
 10
368.9070175693178
 20
-656.0783379336826
 30
0.0
 10
368.0542767405386
 20
-655.5793275040087
 30
0.0
 10
367.883726165197
 20
-654.4360258610923
 30
0.0
 10
367.7131755898554
 20
-653.2864065819831
 30
0.0
 10
366.1719313894246
 20
-653.2864065819831
 30
0.0
 10
368.2248273158821
 20
-652.307335619229
 30
0.0
  0
SPLINE
  5
6F
330
41
100
AcDbEntity
  8
Layer 1
 62
     8
420
  7369332
370
     9
100
AcDbSpline
210
0.0
220
0.0
230
1.0
 70
     8
 71
     3
 72
    20
 73
    16
 74
     0
 42
0.0000000001
 43
0.0000000001
 12
1.0
 22
0.0
 32
0.0
 13
1.0
 23
0.0
 33
0.0
 40
0.0
 40
0.0
 40
0.0
 40
0.0
 40
1.0
 40
1.0
 40
1.0
 40
2.0
 40
2.0
 40
2.0
 40
3.0
 40
3.0
 40
3.0
 40
4.0
 40
4.0
 40
4.0
 40
5.0
 40
5.0
 40
5.0
 40
5.0
 10
370.5998609425042
 20
-655.2571815208903
 30
0.0
 10
370.5998609425042
 20
-655.2571815208903
 30
0.0
 10
376.2279455932621
 20
-655.4214129540487
 30
0.0
 10
377.7691777457549
 20
-653.785417011657
 30
0.0
 10
379.3104219461857
 20
-652.1367873028739
 30
0.0
 10
382.2034204170523
 20
-647.8604576755479
 30
0.0
 10
381.3570047544272
 20
-647.2161657093093
 30
0.0
 10
380.4979387594958
 20
-646.5529238464769
 30
0.0
 10
379.6515230968707
 20
-646.8750705825914
 30
0.0
 10
378.4640062835606
 20
-648.0373213691073
 30
0.0
 10
377.2638632338167
 20
-649.180624518016
 30
0.0
 10
375.3815178827008
 20
-650.1596954807701
 30
0.0
 10
374.35822647858
 20
-650.829253473803
 30
0.0
 10
373.3349471223955
 20
-651.4735454400416
 30
0.0
 10
372.3179688364926
 20
-652.307335619229
 30
0.0
 10
373.6760362251462
 20
-652.465250169189
 30
0.0
  0
SPLINE
  5
70
330
41
100
AcDbEntity
  8
Layer 1
 62
     8
420
  7369332
370
     9
100
AcDbSpline
210
0.0
220
0.0
230
1.0
 70
     8
 71
     3
 72
    20
 73
    16
 74
     0
 42
0.0000000001
 43
0.0000000001
 12
1.0
 22
0.0
 32
0.0
 13
1.0
 23
0.0
 33
0.0
 40
0.0
 40
0.0
 40
0.0
 40
0.0
 40
1.0
 40
1.0
 40
1.0
 40
2.0
 40
2.0
 40
2.0
 40
3.0
 40
3.0
 40
3.0
 40
4.0
 40
4.0
 40
4.0
 40
5.0
 40
5.0
 40
5.0
 40
5.0
 10
377.4280765950716
 20
-648.2015528022639
 30
0.0
 10
377.4280765950716
 20
-648.2015528022639
 30
0.0
 10
378.1102788964417
 20
-643.0977506319432
 30
0.0
 10
378.1102788964417
 20
-641.6196677335229
 30
0.0
 10
378.1102788964417
 20
-640.1479039772858
 30
0.0
 10
377.2638632338167
 20
-639.4846621144534
 30
0.0
 10
377.2638632338167
 20
-639.4846621144534
 30
0.0
 10
377.2638632338167
 20
-639.4846621144534
 30
0.0
 10
370.953588329623
 20
-640.4700492074098
 30
0.0
 10
370.2713980761873
 20
-640.9627435068833
 30
0.0
 10
369.5892078227516
 20
-641.4554378063567
 30
0.0
 10
368.3953778912255
 20
-642.1123620329963
 30
0.0
 10
368.0542767405386
 20
-643.5904434254262
 30
0.0
 10
367.7131755898554
 20
-645.0685248178561
 30
0.0
 10
366.5193456583274
 20
-645.7254505504861
 30
0.0
 10
367.3720864871048
 20
-647.3803971424677
 30
0.0
  0
SPLINE
  5
71
330
41
100
AcDbEntity
  8
Layer 1
 62
     8
420
  7369332
370
     9
100
AcDbSpline
210
0.0
220
0.0
230
1.0
 70
     8
 71
     3
 72
    14
 73
    10
 74
     0
 42
0.0000000001
 43
0.0000000001
 12
1.0
 22
0.0
 32
0.0
 13
1.0
 23
0.0
 33
0.0
 40
0.0
 40
0.0
 40
0.0
 40
0.0
 40
1.0
 40
1.0
 40
1.0
 40
2.0
 40
2.0
 40
2.0
 40
3.0
 40
3.0
 40
3.0
 40
3.0
 10
371.970566615526
 20
-643.9125901615407
 30
0.0
 10
372.3179688364926
 20
-644.5821481545736
 30
0.0
 10
372.8296205625211
 20
-647.3803971424677
 30
0.0
 10
371.970566615526
 20
-648.5236995383802
 30
0.0
 10
371.1241389049646
 20
-649.6733180644933
 30
0.0
 10
371.8063291584003
 20
-650.658705910444
 30
0.0
 10
368.0542767405386
 20
-650.330243044129
 30
0.0
 10
364.2959112044628
 20
-650.0080970610106
 30
0.0
 10
365.1486520332401
 20
-649.0227092150581
 30
0.0
 10
365.3191905606473
 20
-648.0373213691073
 30
0.0
  0
SPLINE
  5
72
330
41
100
AcDbEntity
  8
Layer 1
 62
     8
420
  7369332
370
     9
100
AcDbSpline
210
0.0
220
0.0
230
1.0
 70
     8
 71
     3
 72
    20
 73
    16
 74
     0
 42
0.0000000001
 43
0.0000000001
 12
1.0
 22
0.0
 32
0.0
 13
1.0
 23
0.0
 33
0.0
 40
0.0
 40
0.0
 40
0.0
 40
0.0
 40
1.0
 40
1.0
 40
1.0
 40
2.0
 40
2.0
 40
2.0
 40
3.0
 40
3.0
 40
3.0
 40
4.0
 40
4.0
 40
4.0
 40
5.0
 40
5.0
 40
5.0
 40
5.0
 10
380.8390399101809
 20
-646.8750705825914
 30
0.0
 10
380.8390399101809
 20
-646.8750705825914
 30
0.0
 10
378.9630076772828
 20
-646.5529238464769
 30
0.0
 10
381.6917927868944
 20
-646.2244609801601
 30
0.0
 10
384.4205538006354
 20
-645.895998113845
 30
0.0
 10
384.0857657681663
 20
-644.417916721417
 30
0.0
 10
384.2626294617257
 20
-643.0977506319432
 30
0.0
 10
384.4205538006354
 20
-641.790216802874
 30
0.0
 10
384.5974174941948
 20
-640.4700492074098
 30
0.0
 10
383.9215524069114
 20
-639.8194411109707
 30
0.0
 10
383.2267238691074
 20
-639.1625153783389
 30
0.0
 10
382.7340114977305
 20
-638.821420251621
 30
0.0
 10
382.7340114977305
 20
-638.821420251621
 30
0.0
 10
382.7340114977305
 20
-638.821420251621
 30
0.0
 10
381.0095904855243
 20
-639.1625153783389
 30
0.0
 10
380.3274122800249
 20
-640.2995016440509
 30
0.0
  0
SPLINE
  5
73
330
41
100
AcDbEntity
  8
Layer 1
 62
     8
420
  7369332
370
     9
100
AcDbSpline
210
0.0
220
0.0
230
1.0
 70
     8
 71
     3
 72
    11
 73
     7
 74
     0
 42
0.0000000001
 43
0.0000000001
 12
1.0
 22
0.0
 32
0.0
 13
1.0
 23
0.0
 33
0.0
 40
0.0
 40
0.0
 40
0.0
 40
0.0
 40
1.0
 40
1.0
 40
1.0
 40
2.0
 40
2.0
 40
2.0
 40
2.0
 10
381.6917927868944
 20
-642.7756038958287
 30
0.0
 10
381.6917927868944
 20
-642.7756038958287
 30
0.0
 10
381.3570047544272
 20
-644.2473691580581
 30
0.0
 10
380.3274122800249
 20
-643.438845758661
 30
0.0
 10
379.3104219461857
 20
-642.6050563324698
 30
0.0
 10
378.4640062835606
 20
-641.790216802874
 30
0.0
 10
378.4640062835606
 20
-641.790216802874
 30
0.0
  0
SPLINE
  5
74
330
41
100
AcDbEntity
  8
Layer 1
 62
     8
420
  7369332
370
     9
100
AcDbSpline
210
0.0
220
0.0
230
1.0
 70
     8
 71
     3
 72
    14
 73
    10
 74
     0
 42
0.0000000001
 43
0.0000000001
 12
1.0
 22
0.0
 32
0.0
 13
1.0
 23
0.0
 33
0.0
 40
0.0
 40
0.0
 40
0.0
 40
0.0
 40
1.0
 40
1.0
 40
1.0
 40
2.0
 40
2.0
 40
2.0
 40
3.0
 40
3.0
 40
3.0
 40
3.0
 10
305.5895381724549
 20
-643.9125901615407
 30
0.0
 10
306.2717284258906
 20
-643.9631222151311
 30
0.0
 10
306.6633586181833
 20
-643.9125901615407
 30
0.0
 10
307.3013329482274
 20
-644.0894538551001
 30
0.0
 10
307.983523201663
 20
-644.2473691580581
 30
0.0
 10
308.1919765821785
 20
-644.8221791741107
 30
0.0
 10
308.8425771486582
 20
-645.0685248178561
 30
0.0
 10
309.3036877851428
 20
-645.2390738872054
 30
0.0
 10
309.7395339008253
 20
-645.3148719675919
 30
0.0
 10
310.2006445373117
 20
-645.4033053203639
 30
0.0
  0
SPLINE
  5
75
330
41
100
AcDbEntity
  8
Layer 1
 62
     8
420
  7369332
370
     9
100
AcDbSpline
210
0.0
220
0.0
230
1.0
 70
     8
 71
     3
 72
    14
 73
    10
 74
     0
 42
0.0000000001
 43
0.0000000001
 12
1.0
 22
0.0
 32
0.0
 13
1.0
 23
0.0
 33
0.0
 40
0.0
 40
0.0
 40
0.0
 40
0.0
 40
1.0
 40
1.0
 40
1.0
 40
2.0
 40
2.0
 40
2.0
 40
3.0
 40
3.0
 40
3.0
 40
3.0
 10
313.7821463798282
 20
-644.7526957179325
 30
0.0
 10
314.1295606487311
 20
-644.7526957179325
 30
0.0
 10
314.3443271474644
 20
-644.6579477409523
 30
0.0
 10
314.6412123747596
 20
-644.7526957179325
 30
0.0
 10
314.9823014775084
 20
-644.8221791741107
 30
0.0
 10
315.1970679762417
 20
-645.0685248178561
 30
0.0
 10
315.4939411556006
 20
-645.2390738872054
 30
0.0
 10
315.8350423062875
 20
-645.4412051135532
 30
0.0
 10
316.0055928816291
 20
-645.6433348339087
 30
0.0
 10
316.353007150532
 20
-645.895998113845
 30
0.0
  0
SPLINE
  5
76
330
41
100
AcDbEntity
  8
Layer 1
 62
     8
420
  7369332
370
     9
100
AcDbSpline
210
0.0
220
0.0
230
1.0
 70
     8
 71
     3
 72
    17
 73
    13
 74
     0
 42
0.0000000001
 43
0.0000000001
 12
1.0
 22
0.0
 32
0.0
 13
1.0
 23
0.0
 33
0.0
 40
0.0
 40
0.0
 40
0.0
 40
0.0
 40
1.0
 40
1.0
 40
1.0
 40
2.0
 40
2.0
 40
2.0
 40
3.0
 40
3.0
 40
3.0
 40
4.0
 40
4.0
 40
4.0
 40
4.0
 10
331.8791816662178
 20
-651.6504098865971
 30
0.0
 10
331.5759833207048
 20
-651.1450833267209
 30
0.0
 10
331.2727849751936
 20
-650.8671532669923
 30
0.0
 10
331.1969793648477
 20
-650.330243044129
 30
0.0
 10
331.102234399852
 20
-649.7996497044624
 30
0.0
 10
331.1969793648477
 20
-649.4269709147557
 30
0.0
 10
331.1969793648477
 20
-648.8521616516991
 30
0.0
 10
331.1969793648477
 20
-648.3531519750213
 30
0.0
 10
331.102234399852
 20
-647.986789315517
 30
0.0
 10
331.0264408374405
 20
-647.531994809231
 30
0.0
 10
330.9695866296806
 20
-647.291965295688
 30
0.0
 10
330.7611452971014
 20
-647.1214162263368
 30
0.0
 10
330.6853396867555
 20
-646.8750705825914
 30
0.0
  0
ENDBLK
  5
44
330
41
100
AcDbEntity
  8
0
100
AcDbBlockEnd
  0
ENDSEC
  0
SECTION
  2
ENTITIES
  0
INSERT
  5
42
330
1F
100
AcDbEntity
  8
Layer 1
100
AcDbBlockReference
  2
block 2
 10
0.0
 20
0.0
 30
0.0
  0
ENDSEC
  0
SECTION
  2
OBJECTS
  0
DICTIONARY
  5
C
330
0
100
AcDbDictionary
281
     1
  3
ACAD_GROUP
350
D
  3
ACAD_LAYOUT
350
1A
  3
ACAD_MATERIAL
350
3B
  3
ACAD_MLEADERSTYLE
350
78
  3
ACAD_MLINESTYLE
350
17
  3
ACAD_PLOTSETTINGS
350
19
  3
ACAD_PLOTSTYLENAME
350
E
  3
ACAD_TABLESTYLE
350
77
  3
ACAD_VISUALSTYLE
350
2A
  0
SUN
  5
3F
330
29
100
AcDbSun
 90
        1
290
     0
 63
     7
421
 16777215
 40
1.0
291
     1
 91
  2455826
 92
 54000000
292
     0
 70
     2
 71
   256
280
     1
  0
DICTIONARY
  5
D
102
{ACAD_REACTORS
330
C
102
}
330
C
100
AcDbDictionary
281
     1
  0
DICTIONARY
  5
1A
102
{ACAD_REACTORS
330
C
102
}
330
C
100
AcDbDictionary
281
     1
  3
Layout1
350
1E
  3
Layout2
350
26
  3
Model
350
22
  0
DICTIONARY
  5
3B
102
{ACAD_REACTORS
330
C
102
}
330
C
100
AcDbDictionary
281
     1
  3
ByBlock
350
3D
  3
ByLayer
350
3C
  3
Global
350
3E
  0
DICTIONARY
  5
78
102
{ACAD_REACTORS
330
C
102
}
330
C
100
AcDbDictionary
281
     1
  0
DICTIONARY
  5
17
102
{ACAD_REACTORS
330
C
102
}
330
C
100
AcDbDictionary
281
     1
  3
Standard
350
18
  0
DICTIONARY
  5
19
102
{ACAD_REACTORS
330
C
102
}
330
C
100
AcDbDictionary
281
     1
  0
ACDBDICTIONARYWDFLT
  5
E
102
{ACAD_REACTORS
330
C
102
}
330
C
100
AcDbDictionary
281
     1
  3
Normal
350
F
100
AcDbDictionaryWithDefault
340
F
  0
DICTIONARY
  5
77
102
{ACAD_REACTORS
330
C
102
}
330
C
100
AcDbDictionary
281
     1
  0
DICTIONARY
  5
2A
102
{ACAD_REACTORS
330
C
102
}
330
C
100
AcDbDictionary
281
     1
  3
2dWireframe
350
2F
  3
3D Hidden
350
31
  3
3dWireframe
350
30
  3
Basic
350
32
  3
Brighten
350
36
  3
ColorChange
350
3A
  3
Conceptual
350
34
  3
Dim
350
35
  3
Facepattern
350
39
  3
Flat
350
2B
  3
FlatWithEdges
350
2C
  3
Gouraud
350
2D
  3
GouraudWithEdges
350
2E
  3
Linepattern
350
38
  3
Realistic
350
33
  3
Thicken
350
37
  0
LAYOUT
  5
1E
102
{ACAD_REACTORS
330
1A
102
}
330
1A
100
AcDbPlotSettings
  1

  2
none_device
  4

  6

 40
0.0
 41
0.0
 42
0.0
 43
0.0
 44
0.0
 45
0.0
 46
0.0
 47
0.0
 48
0.0
 49
0.0
140
0.0
141
0.0
142
1.0
143
1.0
 70
   688
 72
     0
 73
     0
 74
     5
  7

 75
    16
 76
     0
 77
     2
 78
   300
147
1.0
148
0.0
149
0.0
100
AcDbLayout
  1
Layout1
 70
     1
 71
     1
 10
0.0
 20
0.0
 11
12.0
 21
9.0
 12
0.0
 22
0.0
 32
0.0
 14
1.000000000000000E+20
 24
1.000000000000000E+20
 34
1.000000000000000E+20
 15
-1.000000000000000E+20
 25
-1.000000000000000E+20
 35
-1.000000000000000E+20
146
0.0
 13
0.0
 23
0.0
 33
0.0
 16
1.0
 26
0.0
 36
0.0
 17
0.0
 27
1.0
 37
0.0
 76
     0
330
1B
  0
LAYOUT
  5
26
102
{ACAD_REACTORS
330
1A
102
}
330
1A
100
AcDbPlotSettings
  1

  2
none_device
  4

  6

 40
0.0
 41
0.0
 42
0.0
 43
0.0
 44
0.0
 45
0.0
 46
0.0
 47
0.0
 48
0.0
 49
0.0
140
0.0
141
0.0
142
1.0
143
1.0
 70
   688
 72
     0
 73
     0
 74
     5
  7

 75
    16
 76
     0
 77
     2
 78
   300
147
1.0
148
0.0
149
0.0
100
AcDbLayout
  1
Layout2
 70
     1
 71
     2
 10
0.0
 20
0.0
 11
0.0
 21
0.0
 12
0.0
 22
0.0
 32
0.0
 14
0.0
 24
0.0
 34
0.0
 15
0.0
 25
0.0
 35
0.0
146
0.0
 13
0.0
 23
0.0
 33
0.0
 16
1.0
 26
0.0
 36
0.0
 17
0.0
 27
1.0
 37
0.0
 76
     0
330
23
  0
LAYOUT
  5
22
102
{ACAD_REACTORS
330
1A
102
}
330
1A
100
AcDbPlotSettings
  1

  2
none_device
  4

  6

 40
0.0
 41
0.0
 42
0.0
 43
0.0
 44
0.0
 45
0.0
 46
0.0
 47
0.0
 48
0.0
 49
0.0
140
0.0
141
0.0
142
1.0
143
1.0
 70
  1712
 72
     0
 73
     0
 74
     0
  7

 75
     0
 76
     0
 77
     2
 78
   300
147
1.0
148
0.0
149
0.0
100
AcDbLayout
  1
Model
 70
     1
 71
     0
 10
0.0
 20
0.0
 11
12.0
 21
9.0
 12
0.0
 22
0.0
 32
0.0
 14
1.000000000000000E+20
 24
1.000000000000000E+20
 34
1.000000000000000E+20
 15
-1.000000000000000E+20
 25
-1.000000000000000E+20
 35
-1.000000000000000E+20
146
0.0
 13
0.0
 23
0.0
 33
0.0
 16
1.0
 26
0.0
 36
0.0
 17
0.0
 27
1.0
 37
0.0
 76
     0
330
1F
331
29
  0
MATERIAL
  5
3D
102
{ACAD_REACTORS
330
3B
102
}
330
3B
100
AcDbMaterial
  1
ByBlock
 72
     1
 94
      127
  0
MATERIAL
  5
3C
102
{ACAD_REACTORS
330
3B
102
}
330
3B
100
AcDbMaterial
  1
ByLayer
 72
     1
 94
      127
  0
MATERIAL
  5
3E
102
{ACAD_REACTORS
330
3B
102
}
330
3B
100
AcDbMaterial
  1
Global
 72
     1
 94
      127
  0
MLINESTYLE
  5
18
102
{ACAD_REACTORS
330
17
102
}
330
17
100
AcDbMlineStyle
  2
Standard
 70
     0
  3

 62
   256
 51
90.0
 52
90.0
 71
     2
 49
0.5
 62
   256
  6
BYLAYER
 49
-0.5
 62
   256
  6
BYLAYER
  0
ACDBPLACEHOLDER
  5
F
102
{ACAD_REACTORS
330
E
102
}
330
E
  0
VISUALSTYLE
  5
2F
102
{ACAD_REACTORS
330
2A
102
}
330
2A
100
AcDbVisualStyle
  2
2dWireframe
 70
     4
177
     2
291
     0
 71
     0
176
     1
 72
     2
176
     1
 73
     0
176
     1
 90
        0
176
     1
 40
-0.6
176
     1
 41
-30.0
176
     1
 62
     5
 63
     7
421
 16777215
176
     1
 74
     1
176
     1
 91
        4
176
     1
 64
     7
176
     1
 65
   257
176
     1
 75
     1
176
     1
175
     1
176
     1
 42
1.0
176
     1
 92
        0
176
     1
 66
   257
176
     1
 43
1.0
176
     1
 76
     1
176
     1
 77
     6
176
     1
 78
     2
176
     1
 67
     7
176
     1
 79
     5
176
     1
170
     0
176
     1
171
     0
176
     1
290
     0
176
     1
 93
        1
176
     1
 44
0.0
176
     1
173
     0
176
     1
  0
VISUALSTYLE
  5
31
102
{ACAD_REACTORS
330
2A
102
}
330
2A
100
AcDbVisualStyle
  2
3D Hidden
 70
     6
177
     2
291
     0
 71
     1
176
     1
 72
     2
176
     1
 73
     2
176
     1
 90
        0
176
     1
 40
-0.6
176
     1
 41
-30.0
176
     1
 62
     5
 63
     7
421
 16777215
176
     1
 74
     2
176
     1
 91
        2
176
     1
 64
     7
176
     1
 65
   257
176
     1
 75
     2
176
     1
175
     1
176
     1
 42
40.0
176
     1
 92
        0
176
     1
 66
   257
176
     1
 43
1.0
176
     1
 76
     1
176
     1
 77
     6
176
     1
 78
     2
176
     1
 67
     7
176
     1
 79
     3
176
     1
170
     0
176
     1
171
     0
176
     1
290
     0
176
     1
 93
        1
176
     1
 44
0.0
176
     1
173
     0
176
     1
  0
VISUALSTYLE
  5
30
102
{ACAD_REACTORS
330
2A
102
}
330
2A
100
AcDbVisualStyle
  2
3dWireframe
 70
     5
177
     2
291
     0
 71
     0
176
     1
 72
     2
176
     1
 73
     0
176
     1
 90
        0
176
     1
 40
-0.6
176
     1
 41
-30.0
176
     1
 62
     5
 63
     7
421
 16777215
176
     1
 74
     1
176
     1
 91
        4
176
     1
 64
     7
176
     1
 65
   257
176
     1
 75
     1
176
     1
175
     1
176
     1
 42
1.0
176
     1
 92
        0
176
     1
 66
   257
176
     1
 43
1.0
176
     1
 76
     1
176
     1
 77
     6
176
     1
 78
     2
176
     1
 67
     7
176
     1
 79
     5
176
     1
170
     0
176
     1
171
     0
176
     1
290
     0
176
     1
 93
        1
176
     1
 44
0.0
176
     1
173
     0
176
     1
  0
VISUALSTYLE
  5
32
102
{ACAD_REACTORS
330
2A
102
}
330
2A
100
AcDbVisualStyle
  2
Basic
 70
     7
177
     2
291
     1
 71
     1
176
     1
 72
     0
176
     1
 73
     1
176
     1
 90
        0
176
     1
 40
-0.6
176
     1
 41
-30.0
176
     1
 62
     5
 63
     7
421
 16777215
176
     1
 74
     0
176
     1
 91
        4
176
     1
 64
     7
176
     1
 65
   257
176
     1
 75
     1
176
     1
175
     1
176
     1
 42
1.0
176
     1
 92
        8
176
     1
 66
     7
176
     1
 43
1.0
176
     1
 76
     1
176
     1
 77
     6
176
     1
 78
     2
176
     1
 67
     7
176
     1
 79
     5
176
     1
170
     0
176
     1
171
     0
176
     1
290
     0
176
     1
 93
        1
176
     1
 44
0.0
176
     1
173
     0
176
     1
  0
VISUALSTYLE
  5
36
102
{ACAD_REACTORS
330
2A
102
}
330
2A
100
AcDbVisualStyle
  2
Brighten
 70
    12
177
     2
291
     1
 71
     2
176
     1
 72
     2
176
     1
 73
     0
176
     1
 90
        0
176
     1
 40
-0.6
176
     1
 41
-30.0
176
     1
 62
     5
 63
     7
421
 16777215
176
     1
 74
     1
176
     1
 91
        4
176
     1
 64
     7
176
     1
 65
   257
176
     1
 75
     1
176
     1
175
     1
176
     1
 42
1.0
176
     1
 92
        8
176
     1
 66
     7
176
     1
 43
1.0
176
     1
 76
     1
176
     1
 77
     6
176
     1
 78
     2
176
     1
 67
     7
176
     1
 79
     5
176
     1
170
     0
176
     1
171
     0
176
     1
290
     0
176
     1
 93
        1
176
     1
 44
50.0
176
     1
173
     0
176
     1
  0
VISUALSTYLE
  5
3A
102
{ACAD_REACTORS
330
2A
102
}
330
2A
100
AcDbVisualStyle
  2
ColorChange
 70
    16
177
     2
291
     1
 71
     2
176
     1
 72
     2
176
     1
 73
     3
176
     1
 90
        0
176
     1
 40
-0.6
176
     1
 41
-30.0
176
     1
 62
     5
 63
     8
421
  8421504
176
     1
 74
     1
176
     1
 91
        4
176
     1
 64
     7
176
     1
 65
   257
176
     1
 75
     1
176
     1
175
     1
176
     1
 42
1.0
176
     1
 92
        8
176
     1
 66
     8
424
  8421504
176
     1
 43
1.0
176
     1
 76
     1
176
     1
 77
     6
176
     1
 78
     2
176
     1
 67
     7
176
     1
 79
     5
176
     1
170
     0
176
     1
171
     0
176
     1
290
     0
176
     1
 93
        1
176
     1
 44
0.0
176
     1
173
     0
176
     1
  0
VISUALSTYLE
  5
34
102
{ACAD_REACTORS
330
2A
102
}
330
2A
100
AcDbVisualStyle
  2
Conceptual
 70
     9
177
     2
291
     0
 71
     3
176
     1
 72
     2
176
     1
 73
     0
176
     1
 90
        0
176
     1
 40
-0.6
176
     1
 41
-30.0
176
     1
 62
     5
 63
     7
421
 16777215
176
     1
 74
     2
176
     1
 91
        2
176
     1
 64
     7
176
     1
 65
   257
176
     1
 75
     1
176
     1
175
     1
176
     1
 42
40.0
176
     1
 92
        8
176
     1
 66
     7
176
     1
 43
1.0
176
     1
 76
     1
176
     1
 77
     6
176
     1
 78
     2
176
     1
 67
     7
176
     1
 79
     3
176
     1
170
     0
176
     1
171
     0
176
     1
290
     0
176
     1
 93
        1
176
     1
 44
0.0
176
     1
173
     0
176
     1
  0
VISUALSTYLE
  5
35
102
{ACAD_REACTORS
330
2A
102
}
330
2A
100
AcDbVisualStyle
  2
Dim
 70
    11
177
     2
291
     1
 71
     2
176
     1
 72
     2
176
     1
 73
     0
176
     1
 90
        0
176
     1
 40
-0.6
176
     1
 41
-30.0
176
     1
 62
     5
 63
     7
421
 16777215
176
     1
 74
     1
176
     1
 91
        4
176
     1
 64
     7
176
     1
 65
   257
176
     1
 75
     1
176
     1
175
     1
176
     1
 42
1.0
176
     1
 92
        8
176
     1
 66
     7
176
     1
 43
1.0
176
     1
 76
     1
176
     1
 77
     6
176
     1
 78
     2
176
     1
 67
     7
176
     1
 79
     5
176
     1
170
     0
176
     1
171
     0
176
     1
290
     0
176
     1
 93
        1
176
     1
 44
-50.0
176
     1
173
     0
176
     1
  0
VISUALSTYLE
  5
39
102
{ACAD_REACTORS
330
2A
102
}
330
2A
100
AcDbVisualStyle
  2
Facepattern
 70
    15
177
     2
291
     1
 71
     2
176
     1
 72
     2
176
     1
 73
     0
176
     1
 90
        0
176
     1
 40
-0.6
176
     1
 41
-30.0
176
     1
 62
     5
 63
     7
421
 16777215
176
     1
 74
     1
176
     1
 91
        4
176
     1
 64
     7
176
     1
 65
   257
176
     1
 75
     1
176
     1
175
     1
176
     1
 42
1.0
176
     1
 92
        8
176
     1
 66
     7
176
     1
 43
1.0
176
     1
 76
     1
176
     1
 77
     6
176
     1
 78
     2
176
     1
 67
     7
176
     1
 79
     5
176
     1
170
     0
176
     1
171
     0
176
     1
290
     0
176
     1
 93
        1
176
     1
 44
0.0
176
     1
173
     0
176
     1
  0
VISUALSTYLE
  5
2B
102
{ACAD_REACTORS
330
2A
102
}
330
2A
100
AcDbVisualStyle
  2
Flat
 70
     0
177
     2
291
     1
 71
     2
176
     1
 72
     1
176
     1
 73
     1
176
     1
 90
        2
176
     1
 40
-0.6
176
     1
 41
30.0
176
     1
 62
     5
 63
     7
421
 16777215
176
     1
 74
     0
176
     1
 91
        4
176
     1
 64
     7
176
     1
 65
   257
176
     1
 75
     1
176
     1
175
     1
176
     1
 42
1.0
176
     1
 92
        8
176
     1
 66
     7
176
     1
 43
1.0
176
     1
 76
     1
176
     1
 77
     6
176
     1
 78
     2
176
     1
 67
     7
176
     1
 79
     5
176
     1
170
     0
176
     1
171
     0
176
     1
290
     0
176
     1
 93
       13
176
     1
 44
0.0
176
     1
173
     0
176
     1
  0
VISUALSTYLE
  5
2C
102
{ACAD_REACTORS
330
2A
102
}
330
2A
100
AcDbVisualStyle
  2
FlatWithEdges
 70
     1
177
     2
291
     1
 71
     2
176
     1
 72
     1
176
     1
 73
     1
176
     1
 90
        2
176
     1
 40
-0.6
176
     1
 41
30.0
176
     1
 62
     5
 63
     7
421
 16777215
176
     1
 74
     1
176
     1
 91
        4
176
     1
 64
     7
176
     1
 65
   257
176
     1
 75
     1
176
     1
175
     1
176
     1
 42
1.0
176
     1
 92
        0
176
     1
 66
   257
176
     1
 43
1.0
176
     1
 76
     1
176
     1
 77
     6
176
     1
 78
     2
176
     1
 67
     7
176
     1
 79
     5
176
     1
170
     0
176
     1
171
     0
176
     1
290
     0
176
     1
 93
       13
176
     1
 44
0.0
176
     1
173
     0
176
     1
  0
VISUALSTYLE
  5
2D
102
{ACAD_REACTORS
330
2A
102
}
330
2A
100
AcDbVisualStyle
  2
Gouraud
 70
     2
177
     2
291
     1
 71
     2
176
     1
 72
     2
176
     1
 73
     1
176
     1
 90
        2
176
     1
 40
-0.6
176
     1
 41
30.0
176
     1
 62
     5
 63
     7
421
 16777215
176
     1
 74
     0
176
     1
 91
        4
176
     1
 64
     7
176
     1
 65
   257
176
     1
 75
     1
176
     1
175
     1
176
     1
 42
1.0
176
     1
 92
        0
176
     1
 66
     7
176
     1
 43
1.0
176
     1
 76
     1
176
     1
 77
     6
176
     1
 78
     2
176
     1
 67
     7
176
     1
 79
     5
176
     1
170
     0
176
     1
171
     0
176
     1
290
     0
176
     1
 93
       13
176
     1
 44
0.0
176
     1
173
     0
176
     1
  0
VISUALSTYLE
  5
2E
102
{ACAD_REACTORS
330
2A
102
}
330
2A
100
AcDbVisualStyle
  2
GouraudWithEdges
 70
     3
177
     2
291
     1
 71
     2
176
     1
 72
     2
176
     1
 73
     1
176
     1
 90
        2
176
     1
 40
-0.6
176
     1
 41
30.0
176
     1
 62
     5
 63
     7
421
 16777215
176
     1
 74
     1
176
     1
 91
        4
176
     1
 64
     7
176
     1
 65
   257
176
     1
 75
     1
176
     1
175
     1
176
     1
 42
1.0
176
     1
 92
        0
176
     1
 66
   257
176
     1
 43
1.0
176
     1
 76
     1
176
     1
 77
     6
176
     1
 78
     2
176
     1
 67
     7
176
     1
 79
     5
176
     1
170
     0
176
     1
171
     0
176
     1
290
     0
176
     1
 93
       13
176
     1
 44
0.0
176
     1
173
     0
176
     1
  0
VISUALSTYLE
  5
38
102
{ACAD_REACTORS
330
2A
102
}
330
2A
100
AcDbVisualStyle
  2
Linepattern
 70
    14
177
     2
291
     1
 71
     2
176
     1
 72
     2
176
     1
 73
     0
176
     1
 90
        0
176
     1
 40
-0.6
176
     1
 41
-30.0
176
     1
 62
     5
 63
     7
421
 16777215
176
     1
 74
     1
176
     1
 91
        4
176
     1
 64
     7
176
     1
 65
   257
176
     1
 75
     7
176
     1
175
     7
176
     1
 42
1.0
176
     1
 92
        8
176
     1
 66
     7
176
     1
 43
1.0
176
     1
 76
     1
176
     1
 77
     6
176
     1
 78
     2
176
     1
 67
     7
176
     1
 79
     5
176
     1
170
     0
176
     1
171
     0
176
     1
290
     0
176
     1
 93
        1
176
     1
 44
0.0
176
     1
173
     0
176
     1
  0
VISUALSTYLE
  5
33
102
{ACAD_REACTORS
330
2A
102
}
330
2A
100
AcDbVisualStyle
  2
Realistic
 70
     8
177
     2
291
     0
 71
     2
176
     1
 72
     2
176
     1
 73
     0
176
     1
 90
        0
176
     1
 40
-0.6
176
     1
 41
-30.0
176
     1
 62
     5
 63
     7
421
 16777215
176
     1
 74
     1
176
     1
 91
        0
176
     1
 64
     7
176
     1
 65
   257
176
     1
 75
     1
176
     1
175
     1
176
     1
 42
1.0
176
     1
 92
        8
176
     1
 66
     8
424
  7895160
176
     1
 43
1.0
176
     1
 76
     1
176
     1
 77
     6
176
     1
 78
     2
176
     1
 67
     7
176
     1
 79
     5
176
     1
170
     0
176
     1
171
     0
176
     1
290
     0
176
     1
 93
       13
176
     1
 44
0.0
176
     1
173
     0
176
     1
  0
VISUALSTYLE
  5
37
102
{ACAD_REACTORS
330
2A
102
}
330
2A
100
AcDbVisualStyle
  2
Thicken
 70
    13
177
     2
291
     1
 71
     2
176
     1
 72
     2
176
     1
 73
     0
176
     1
 90
        0
176
     1
 40
-0.6
176
     1
 41
-30.0
176
     1
 62
     5
 63
     7
421
 16777215
176
     1
 74
     1
176
     1
 91
        4
176
     1
 64
     7
176
     1
 65
   257
176
     1
 75
     1
176
     1
175
     1
176
     1
 42
1.0
176
     1
 92
       12
176
     1
 66
     7
176
     1
 43
1.0
176
     1
 76
     1
176
     1
 77
     6
176
     1
 78
     2
176
     1
 67
     7
176
     1
 79
     5
176
     1
170
     0
176
     1
171
     0
176
     1
290
     0
176
     1
 93
        1
176
     1
 44
0.0
176
     1
173
     0
176
     1
  0
ENDSEC
  0
EOF
