  0
SECTION
  2
HEADER
  9
$ACADVER
  1
AC1024
  9
$ACADMAINTVER
 70
     6
  9
$DWGCODEPAGE
  3
UNDEFINED
  9
$INSBASE
 10
0.0
 20
0.0
 30
0.0
  9
$EXTMIN
 10
1.000000000000000E+20
 20
1.000000000000000E+20
 30
1.000000000000000E+20
  9
$EXTMAX
 10
-1.000000000000000E+20
 20
-1.000000000000000E+20
 30
-1.000000000000000E+20
  9
$LIMMIN
 10
0.0
 20
0.0
  9
$LIMMAX
 10
12.0
 20
9.0
  9
$ORTHOMODE
 70
     0
  9
$REGENMODE
 70
     1
  9
$FILLMODE
 70
     1
  9
$QTEXTMODE
 70
     0
  9
$MIRRTEXT
 70
     1
  9
$LTSCALE
 40
1.0
  9
$ATTMODE
 70
     1
  9
$TEXTSIZE
 40
0.2
  9
$TRACEWID
 40
0.05
  9
$TEXTSTYLE
  7
Standard
  9
$CLAYER
  8
0
  9
$CELTYPE
  6
ByLayer
  9
$CECOLOR
 62
   256
  9
$CELTSCALE
 40
1.0
  9
$DISPSILH
 70
     0
  9
$DIMSCALE
 40
1.0
  9
$DIMASZ
 40
0.18
  9
$DIMEXO
 40
0.0625
  9
$DIMDLI
 40
0.38
  9
$DIMRND
 40
0.0
  9
$DIMDLE
 40
0.0
  9
$DIMEXE
 40
0.18
  9
$DIMTP
 40
0.0
  9
$DIMTM
 40
0.0
  9
$DIMTXT
 40
0.18
  9
$DIMCEN
 40
0.09
  9
$DIMTSZ
 40
0.0
  9
$DIMTOL
 70
     0
  9
$DIMLIM
 70
     0
  9
$DIMTIH
 70
     1
  9
$DIMTOH
 70
     1
  9
$DIMSE1
 70
     0
  9
$DIMSE2
 70
     0
  9
$DIMTAD
 70
     0
  9
$DIMZIN
 70
     0
  9
$DIMBLK
  1

  9
$DIMASO
 70
     1
  9
$DIMSHO
 70
     1
  9
$DIMPOST
  1

  9
$DIMAPOST
  1

  9
$DIMALT
 70
     0
  9
$DIMALTD
 70
     2
  9
$DIMALTF
 40
25.4
  9
$DIMLFAC
 40
1.0
  9
$DIMTOFL
 70
     0
  9
$DIMTVP
 40
0.0
  9
$DIMTIX
 70
     0
  9
$DIMSOXD
 70
     0
  9
$DIMSAH
 70
     0
  9
$DIMBLK1
  1

  9
$DIMBLK2
  1

  9
$DIMSTYLE
  2
Standard
  9
$DIMCLRD
 70
     0
  9
$DIMCLRE
 70
     0
  9
$DIMCLRT
 70
     0
  9
$DIMTFAC
 40
1.0
  9
$DIMGAP
 40
0.09
  9
$DIMJUST
 70
     0
  9
$DIMSD1
 70
     0
  9
$DIMSD2
 70
     0
  9
$DIMTOLJ
 70
     1
  9
$DIMTZIN
 70
     0
  9
$DIMALTZ
 70
     0
  9
$DIMALTTZ
 70
     0
  9
$DIMUPT
 70
     0
  9
$DIMDEC
 70
     4
  9
$DIMTDEC
 70
     4
  9
$DIMALTU
 70
     2
  9
$DIMALTTD
 70
     2
  9
$DIMTXSTY
  7
Standard
  9
$DIMAUNIT
 70
     0
  9
$DIMADEC
 70
     0
  9
$DIMALTRND
 40
0.0
  9
$DIMAZIN
 70
     0
  9
$DIMDSEP
 70
    46
  9
$DIMATFIT
 70
     3
  9
$DIMFRAC
 70
     0
  9
$DIMLDRBLK
  1

  9
$DIMLUNIT
 70
     2
  9
$DIMLWD
 70
    -2
  9
$DIMLWE
 70
    -2
  9
$DIMTMOVE
 70
     0
  9
$DIMFXL
 40
1.0
  9
$DIMFXLON
 70
     0
  9
$DIMJOGANG
 40
0.7853981633974483
  9
$DIMTFILL
 70
     0
  9
$DIMTFILLCLR
 70
     0
  9
$DIMARCSYM
 70
     0
  9
$DIMLTYPE
  6

  9
$DIMLTEX1
  6

  9
$DIMLTEX2
  6

  9
$DIMTXTDIRECTION
 70
     0
  9
$LUNITS
 70
     2
  9
$LUPREC
 70
     4
  9
$SKETCHINC
 40
0.1
  9
$FILLETRAD
 40
0.5
  9
$AUNITS
 70
     0
  9
$AUPREC
 70
     0
  9
$MENU
  1
.
  9
$ELEVATION
 40
0.0
  9
$PELEVATION
 40
0.0
  9
$THICKNESS
 40
0.0
  9
$LIMCHECK
 70
     0
  9
$CHAMFERA
 40
0.5
  9
$CHAMFERB
 40
0.5
  9
$CHAMFERC
 40
1.0
  9
$CHAMFERD
 40
0.0
  9
$SKPOLY
 70
     0
  9
$TDCREATE
 40
2458113.725162037
  9
$TDUCREATE
 40
2458113.641828704
  9
$TDUPDATE
 40
2458113.725162037
  9
$TDUUPDATE
 40
2458113.641828704
  9
$TDINDWG
 40
0.0000000116
  9
$TDUSRTIMER
 40
0.0000000116
  9
$USRTIMER
 70
     1
  9
$ANGBASE
 50
0.0
  9
$ANGDIR
 70
     0
  9
$PDMODE
 70
     0
  9
$PDSIZE
 40
0.0
  9
$PLINEWID
 40
0.0
  9
$SPLFRAME
 70
     0
  9
$SPLINETYPE
 70
     6
  9
$SPLINESEGS
 70
     8
  9
$HANDSEED
  5
A6
  9
$SURFTAB1
 70
     6
  9
$SURFTAB2
 70
     6
  9
$SURFTYPE
 70
     6
  9
$SURFU
 70
     6
  9
$SURFV
 70
     6
  9
$UCSBASE
  2

  9
$UCSNAME
  2

  9
$UCSORG
 10
0.0
 20
0.0
 30
0.0
  9
$UCSXDIR
 10
1.0
 20
0.0
 30
0.0
  9
$UCSYDIR
 10
0.0
 20
1.0
 30
0.0
  9
$UCSORTHOREF
  2

  9
$UCSORTHOVIEW
 70
     0
  9
$UCSORGTOP
 10
0.0
 20
0.0
 30
0.0
  9
$UCSORGBOTTOM
 10
0.0
 20
0.0
 30
0.0
  9
$UCSORGLEFT
 10
0.0
 20
0.0
 30
0.0
  9
$UCSORGRIGHT
 10
0.0
 20
0.0
 30
0.0
  9
$UCSORGFRONT
 10
0.0
 20
0.0
 30
0.0
  9
$UCSORGBACK
 10
0.0
 20
0.0
 30
0.0
  9
$PUCSBASE
  2

  9
$PUCSNAME
  2

  9
$PUCSORG
 10
0.0
 20
0.0
 30
0.0
  9
$PUCSXDIR
 10
1.0
 20
0.0
 30
0.0
  9
$PUCSYDIR
 10
0.0
 20
1.0
 30
0.0
  9
$PUCSORTHOREF
  2

  9
$PUCSORTHOVIEW
 70
     0
  9
$PUCSORGTOP
 10
0.0
 20
0.0
 30
0.0
  9
$PUCSORGBOTTOM
 10
0.0
 20
0.0
 30
0.0
  9
$PUCSORGLEFT
 10
0.0
 20
0.0
 30
0.0
  9
$PUCSORGRIGHT
 10
0.0
 20
0.0
 30
0.0
  9
$PUCSORGFRONT
 10
0.0
 20
0.0
 30
0.0
  9
$PUCSORGBACK
 10
0.0
 20
0.0
 30
0.0
  9
$USERI1
 70
     0
  9
$USERI2
 70
     0
  9
$USERI3
 70
     0
  9
$USERI4
 70
     0
  9
$USERI5
 70
     0
  9
$USERR1
 40
0.0
  9
$USERR2
 40
0.0
  9
$USERR3
 40
0.0
  9
$USERR4
 40
0.0
  9
$USERR5
 40
0.0
  9
$WORLDVIEW
 70
     1
  9
$SHADEDGE
 70
     3
  9
$SHADEDIF
 70
    70
  9
$TILEMODE
 70
     1
  9
$MAXACTVP
 70
    64
  9
$PINSBASE
 10
0.0
 20
0.0
 30
0.0
  9
$PLIMCHECK
 70
     0
  9
$PEXTMIN
 10
1.000000000000000E+20
 20
1.000000000000000E+20
 30
1.000000000000000E+20
  9
$PEXTMAX
 10
-1.000000000000000E+20
 20
-1.000000000000000E+20
 30
-1.000000000000000E+20
  9
$PLIMMIN
 10
0.0
 20
0.0
  9
$PLIMMAX
 10
12.0
 20
9.0
  9
$UNITMODE
 70
     0
  9
$VISRETAIN
 70
     1
  9
$PLINEGEN
 70
     0
  9
$PSLTSCALE
 70
     1
  9
$TREEDEPTH
 70
  3020
  9
$CMLSTYLE
  2
Standard
  9
$CMLJUST
 70
     0
  9
$CMLSCALE
 40
1.0
  9
$PROXYGRAPHICS
 70
     1
  9
$MEASUREMENT
 70
     0
  9
$CELWEIGHT
370
    -1
  9
$ENDCAPS
280
     0
  9
$JOINSTYLE
280
     0
  9
$LWDISPLAY
290
     1
  9
$INSUNITS
 70
     1
  9
$HYPERLINKBASE
  1

  9
$STYLESHEET
  1

  9
$XEDIT
290
     1
  9
$CEPSNTYPE
380
     0
  9
$PSTYLEMODE
290
     1
  9
$FINGERPRINTGUID
  2
{6C5998DA-F80D-9C0F-4DEF-6B4B4266E913}
  9
$VERSIONGUID
  2
{FAEB1C32-E019-11D5-929B-00C0DF256EC4}
  9
$EXTNAMES
290
     1
  9
$PSVPSCALE
 40
0.0
  9
$OLESTARTUP
290
     0
  9
$SORTENTS
280
   127
  9
$INDEXCTL
280
     0
  9
$HIDETEXT
280
     1
  9
$XCLIPFRAME
280
     2
  9
$HALOGAP
280
     0
  9
$OBSCOLOR
 70
   257
  9
$OBSLTYPE
280
     0
  9
$INTERSECTIONDISPLAY
280
     0
  9
$INTERSECTIONCOLOR
 70
   257
  9
$DIMASSOC
280
     2
  9
$PROJECTNAME
  1

  9
$CAMERADISPLAY
290
     0
  9
$LENSLENGTH
 40
50.0
  9
$CAMERAHEIGHT
 40
0.0
  9
$STEPSPERSEC
 40
2.0
  9
$STEPSIZE
 40
6.0
  9
$3DDWFPREC
 40
2.0
  9
$PSOLWIDTH
 40
0.25
  9
$PSOLHEIGHT
 40
4.0
  9
$LOFTANG1
 40
1.570796326794897
  9
$LOFTANG2
 40
1.570796326794897
  9
$LOFTMAG1
 40
0.0
  9
$LOFTMAG2
 40
0.0
  9
$LOFTPARAM
 70
     7
  9
$LOFTNORMALS
280
     1
  9
$LATITUDE
 40
37.795
  9
$LONGITUDE
 40
-122.394
  9
$NORTHDIRECTION
 40
0.0
  9
$TIMEZONE
 70
 -8000
  9
$LIGHTGLYPHDISPLAY
280
     1
  9
$TILEMODELIGHTSYNCH
280
     1
  9
$CMATERIAL
347
3C
  9
$SOLIDHIST
280
     1
  9
$SHOWHIST
280
     1
  9
$DWFFRAME
280
     2
  9
$DGNFRAME
280
     2
  9
$REALWORLDSCALE
290
     1
  9
$INTERFERECOLOR
 62
   256
  9
$CSHADOW
280
     0
  9
$SHADOWPLANELOCATION
 40
0.0
  0
ENDSEC
  0
SECTION
  2
CLASSES
  0
CLASS
  1
ACDBDICTIONARYWDFLT
  2
AcDbDictionaryWithDefault
  3
ObjectDBX Classes
 90
        0
 91
        4
280
     0
281
     0
  0
CLASS
  1
VISUALSTYLE
  2
AcDbVisualStyle
  3
ObjectDBX Classes
 90
     4095
 91
        4
280
     0
281
     0
  0
CLASS
  1
MATERIAL
  2
AcDbMaterial
  3
ObjectDBX Classes
 90
     1153
 91
        4
280
     0
281
     0
  0
CLASS
  1
SUN
  2
AcDbSun
  3
SCENEOE
 90
     1024
 91
        4
280
     0
281
     0
  0
ENDSEC
  0
SECTION
  2
TABLES
  0
TABLE
  2
VPORT
  5
8
330
0
100
AcDbSymbolTable
 70
     1
  0
VPORT
  5
29
330
8
100
AcDbSymbolTableRecord
100
AcDbViewportTableRecord
  2
*Active
 70
     0
 10
0.0
 20
0.0
 11
1.0
 21
1.0
 12
0.0
 22
0.0
 13
0.0
 23
0.0
 14
0.5
 24
0.5
 15
0.5
 25
0.5
 16
0.0
 26
0.0
 36
1.0
 17
297.6379999999999
 27
-420.9449999999997
 37
0.0
 40
841.8899999999994
 41
0.7070709950231031
 42
50.0
 43
0.0
 44
0.0
 50
0.0
 51
0.0
 71
     0
 72
   100
 73
     1
 74
     3
 75
     0
 76
     0
 77
     0
 78
     0
281
     0
 65
     1
110
0.0
120
0.0
130
0.0
111
1.0
121
0.0
131
0.0
112
0.0
122
1.0
132
0.0
 79
     0
146
0.0
 60
     3
 61
     5
292
     1
282
     1
141
0.0
142
0.0
 63
   250
361
3F
  0
ENDTAB
  0
TABLE
  2
LTYPE
  5
5
330
0
100
AcDbSymbolTable
 70
     1
  0
LTYPE
  5
14
330
5
100
AcDbSymbolTableRecord
100
AcDbLinetypeTableRecord
  2
ByBlock
 70
     0
  3

 72
    65
 73
     0
 40
0.0
  0
LTYPE
  5
15
330
5
100
AcDbSymbolTableRecord
100
AcDbLinetypeTableRecord
  2
ByLayer
 70
     0
  3

 72
    65
 73
     0
 40
0.0
  0
LTYPE
  5
16
330
5
100
AcDbSymbolTableRecord
100
AcDbLinetypeTableRecord
  2
Continuous
 70
     0
  3
Solid line
 72
    65
 73
     0
 40
0.0
  0
ENDTAB
  0
TABLE
  2
LAYER
  5
2
330
0
100
AcDbSymbolTable
 70
     2
  0
LAYER
  5
10
330
2
100
AcDbSymbolTableRecord
100
AcDbLayerTableRecord
  2
0
 70
     0
 62
     7
  6
Continuous
370
    -3
390
F
347
3E
  0
LAYER
  5
40
330
2
100
AcDbSymbolTableRecord
100
AcDbLayerTableRecord
  2
Layer 1
 70
     0
 62
     7
  6
Continuous
370
    -3
390
F
347
3E
  0
ENDTAB
  0
TABLE
  2
STYLE
  5
3
330
0
100
AcDbSymbolTable
 70
     1
  0
STYLE
  5
11
330
3
100
AcDbSymbolTableRecord
100
AcDbTextStyleTableRecord
  2
Standard
 70
     0
 40
0.0
 41
1.0
 50
0.0
 71
     0
 42
0.2
  3
txt
  4

  0
ENDTAB
  0
TABLE
  2
VIEW
  5
6
330
0
100
AcDbSymbolTable
 70
     0
  0
ENDTAB
  0
TABLE
  2
UCS
  5
7
330
0
100
AcDbSymbolTable
 70
     0
  0
ENDTAB
  0
TABLE
  2
APPID
  5
9
330
0
100
AcDbSymbolTable
 70
     1
  0
APPID
  5
12
330
9
100
AcDbSymbolTableRecord
100
AcDbRegAppTableRecord
  2
ACAD
 70
     0
  0
ENDTAB
  0
TABLE
  2
DIMSTYLE
  5
A
330
0
100
AcDbSymbolTable
 70
     1
100
AcDbDimStyleTable
  0
DIMSTYLE
105
27
330
A
100
AcDbSymbolTableRecord
100
AcDbDimStyleTableRecord
  2
Standard
 70
     0
178
     0
340
11
  0
ENDTAB
  0
TABLE
  2
BLOCK_RECORD
  5
1
330
0
100
AcDbSymbolTable
 70
     2
  0
BLOCK_RECORD
  5
1F
330
1
100
AcDbSymbolTableRecord
100
AcDbBlockTableRecord
  2
*Model_Space
340
22
 70
     0
280
     1
281
     0
  0
BLOCK_RECORD
  5
1B
330
1
100
AcDbSymbolTableRecord
100
AcDbBlockTableRecord
  2
*Paper_Space
340
1E
 70
     0
280
     1
281
     0
  0
BLOCK_RECORD
  5
23
330
1
100
AcDbSymbolTableRecord
100
AcDbBlockTableRecord
  2
*Paper_Space0
340
26
 70
     0
280
     1
281
     0
  0
BLOCK_RECORD
  5
41
330
1
100
AcDbSymbolTableRecord
100
AcDbBlockTableRecord
  2
block 2
340
0
102
{BLKREFS
331
42
102
}
 70
     0
280
     1
281
     0
  0
ENDTAB
  0
ENDSEC
  0
SECTION
  2
BLOCKS
  0
BLOCK
  5
20
330
1F
100
AcDbEntity
  8
0
100
AcDbBlockBegin
  2
*Model_Space
 70
     0
 10
0.0
 20
0.0
 30
0.0
  3
*Model_Space
  1

  0
ENDBLK
  5
21
330
1F
100
AcDbEntity
  8
0
100
AcDbBlockEnd
  0
BLOCK
  5
1C
330
1B
100
AcDbEntity
 67
     1
  8
0
100
AcDbBlockBegin
  2
*Paper_Space
 70
     0
 10
0.0
 20
0.0
 30
0.0
  3
*Paper_Space
  1

  0
ENDBLK
  5
1D
330
1B
100
AcDbEntity
 67
     1
  8
0
100
AcDbBlockEnd
  0
BLOCK
  5
24
330
23
100
AcDbEntity
  8
0
100
AcDbBlockBegin
  2
*Paper_Space0
 70
     0
 10
0.0
 20
0.0
 30
0.0
  3
*Paper_Space0
  1

  0
ENDBLK
  5
25
330
23
100
AcDbEntity
  8
0
100
AcDbBlockEnd
  0
BLOCK
  5
43
330
41
100
AcDbEntity
  8
0
100
AcDbBlockBegin
  2
block 2
 70
     0
 10
0.0
 20
0.0
 30
0.0
  3
block 2
  1

  0
SPLINE
  5
45
330
41
100
AcDbEntity
  8
Layer 1
 62
   156
420
  1785491
370
     9
100
AcDbSpline
210
0.0
220
0.0
230
1.0
 70
     8
 71
     3
 72
    17
 73
    13
 74
     0
 42
0.0000000001
 43
0.0000000001
 12
1.0
 22
0.0
 32
0.0
 13
1.0
 23
0.0
 33
0.0
 40
0.0
 40
0.0
 40
0.0
 40
0.0
 40
1.0
 40
1.0
 40
1.0
 40
2.0
 40
2.0
 40
2.0
 40
3.0
 40
3.0
 40
3.0
 40
4.0
 40
4.0
 40
4.0
 40
4.0
 10
484.504910087071
 20
-335.7623442042386
 30
0.0
 10
484.504910087071
 20
-335.7623442042386
 30
0.0
 10
481.4397260247151
 20
-317.8628848126982
 30
0.0
 10
485.9402944134781
 20
-306.5513416607346
 30
0.0
 10
490.4466219660771
 20
-295.2226519073456
 30
0.0
 10
508.3346284749859
 20
-273.3143999997174
 30
0.0
 10
521.7792219332168
 20
-272.4337278629191
 30
0.0
 10
535.2295745552838
 20
-271.5644867937372
 30
0.0
 10
544.493800408105
 20
-291.4254432172384
 30
0.0
 10
548.8743425868925
 20
-300.7869204048584
 30
0.0
 10
553.2491256018438
 20
-310.1312291760396
 30
0.0
 10
556.3829396999263
 20
-316.4846776393888
 30
0.0
 10
556.17709322277
 20
-329.9922074145543
 30
0.0
  0
SPLINE
  5
46
330
41
100
AcDbEntity
  8
Layer 1
 62
   156
420
  1785491
370
     9
100
AcDbSpline
210
0.0
220
0.0
230
1.0
 70
     8
 71
     3
 72
    17
 73
    13
 74
     0
 42
0.0000000001
 43
0.0000000001
 12
1.0
 22
0.0
 32
0.0
 13
1.0
 23
0.0
 33
0.0
 40
0.0
 40
0.0
 40
0.0
 40
0.0
 40
1.0
 40
1.0
 40
1.0
 40
2.0
 40
2.0
 40
2.0
 40
3.0
 40
3.0
 40
3.0
 40
4.0
 40
4.0
 40
4.0
 40
4.0
 10
483.1381557963923
 20
-347.5199389584104
 30
0.0
 10
483.1381557963923
 20
-347.5199389584104
 30
0.0
 10
484.1160356379605
 20
-339.2564550823899
 30
0.0
 10
489.0798676753984
 20
-335.5450230294364
 30
0.0
 10
494.0379405489984
 20
-331.8221817238791
 30
0.0
 10
509.8386428371214
 20
-323.1240773132686
 30
0.0
 10
521.1330175726453
 20
-323.1240773132686
 30
0.0
 10
532.4216767743619
 20
-323.1240773132686
 30
0.0
 10
546.3295338812677
 20
-330.9414877720665
 30
0.0
 10
548.4797526039747
 20
-333.5720949298593
 30
0.0
 10
550.6299713266817
 20
-336.1969647388296
 30
0.0
 10
557.743978456796
 20
-340.3601639278004
 30
0.0
 10
556.9662295585767
 20
-350.8024441955677
 30
0.0
  0
SPLINE
  5
47
330
41
100
AcDbEntity
  8
Layer 1
 62
   156
420
  1785491
370
     9
100
AcDbSpline
210
0.0
220
0.0
230
1.0
 70
     8
 71
     3
 72
    17
 73
    13
 74
     0
 42
0.0000000001
 43
0.0000000001
 12
1.0
 22
0.0
 32
0.0
 13
1.0
 23
0.0
 33
0.0
 40
0.0
 40
0.0
 40
0.0
 40
0.0
 40
1.0
 40
1.0
 40
1.0
 40
2.0
 40
2.0
 40
2.0
 40
3.0
 40
3.0
 40
3.0
 40
4.0
 40
4.0
 40
4.0
 40
4.0
 10
484.504910087071
 20
-390.9132314916769
 30
0.0
 10
484.504910087071
 20
-390.9132314916769
 30
0.0
 10
485.7458790039364
 20
-399.0909387305437
 30
0.0
 10
497.6292591319198
 20
-403.3170415139266
 30
0.0
 10
509.5069673561229
 20
-407.5660173400502
 30
0.0
 10
513.3556158505053
 20
-409.5332408133254
 30
0.0
 10
520.7384275897275
 20
-409.5332408133254
 30
0.0
 10
528.1155237951407
 20
-409.5332408133254
 30
0.0
 10
549.720677890813
 20
-406.4680349359569
 30
0.0
 10
553.8381309943015
 20
-399.5999048346712
 30
0.0
 10
557.9498685639828
 20
-392.7374902671954
 30
0.0
 10
556.3829396999263
 20
-396.2430540279765
 30
0.0
 10
556.9719887224146
 20
-395.1507762501842
 30
0.0
  0
SPLINE
  5
48
330
41
100
AcDbEntity
  8
Layer 1
 62
   156
420
  1785491
370
     9
100
AcDbSpline
210
0.0
220
0.0
230
1.0
 70
     8
 71
     3
 72
    17
 73
    13
 74
     0
 42
0.0000000001
 43
0.0000000001
 12
1.0
 22
0.0
 32
0.0
 13
1.0
 23
0.0
 33
0.0
 40
0.0
 40
0.0
 40
0.0
 40
0.0
 40
1.0
 40
1.0
 40
1.0
 40
2.0
 40
2.0
 40
2.0
 40
3.0
 40
3.0
 40
3.0
 40
4.0
 40
4.0
 40
4.0
 40
4.0
 10
482.9379812230145
 20
-412.163837063611
 30
0.0
 10
482.9379812230145
 20
-412.163837063611
 30
0.0
 10
484.499194553262
 20
-428.5993017371802
 30
0.0
 10
495.7992848225949
 20
-437.6576811128452
 30
0.0
 10
507.0879440243116
 20
-446.7160604885103
 30
0.0
 10
511.9888615598284
 20
-449.8556119354162
 30
0.0
 10
520.1494221972698
 20
-450.7305685384054
 30
0.0
 10
528.3099828347094
 20
-451.611262490218
 30
0.0
 10
544.493800408105
 20
-438.3896839255849
 30
0.0
 10
551.0245613095994
 20
-428.1589656687829
 30
0.0
 10
557.5552785810651
 20
-417.9397002946107
 30
0.0
 10
556.571639575659
 20
-416.4814320179557
 30
0.0
 10
556.9662295585767
 20
-413.3361650372417
 30
0.0
  0
SPLINE
  5
49
330
41
100
AcDbEntity
  8
Layer 1
 62
   156
420
  1785491
370
     9
100
AcDbSpline
210
0.0
220
0.0
230
1.0
 70
     8
 71
     3
 72
    17
 73
    13
 74
     0
 42
0.0000000001
 43
0.0000000001
 12
1.0
 22
0.0
 32
0.0
 13
1.0
 23
0.0
 33
0.0
 40
0.0
 40
0.0
 40
0.0
 40
0.0
 40
1.0
 40
1.0
 40
1.0
 40
2.0
 40
2.0
 40
2.0
 40
3.0
 40
3.0
 40
3.0
 40
4.0
 40
4.0
 40
4.0
 40
4.0
 10
484.1160356379605
 20
-481.7715453912297
 30
0.0
 10
484.1160356379605
 20
-481.7715453912297
 30
0.0
 10
489.7717963064351
 20
-511.1083551235606
 30
0.0
 10
506.3045232223121
 20
-525.3821590992993
 30
0.0
 10
510.8794371806107
 20
-529.3223215796588
 30
0.0
 10
516.4322746105063
 20
-532.027274306989
 30
0.0
 10
518.3880779236715
 20
-532.4561574927575
 30
0.0
 10
520.3381220730007
 20
-532.8964935611566
 30
0.0
 10
536.0816253930116
 20
-521.7965560501871
 30
0.0
 10
540.7766964513721
 20
-512.303556139932
 30
0.0
 10
545.4831549473201
 20
-502.8048406958678
 30
0.0
 10
548.085162621057
 20
-496.6801444749381
 30
0.0
 10
548.085162621057
 20
-496.6801444749381
 30
0.0
  0
SPLINE
  5
4A
330
41
100
AcDbEntity
  8
Layer 1
 62
   156
420
  1785491
370
     9
100
AcDbSpline
210
0.0
220
0.0
230
1.0
 70
     8
 71
     3
 72
    14
 73
    10
 74
     0
 42
0.0000000001
 43
0.0000000001
 12
1.0
 22
0.0
 32
0.0
 13
1.0
 23
0.0
 33
0.0
 40
0.0
 40
0.0
 40
0.0
 40
0.0
 40
1.0
 40
1.0
 40
1.0
 40
2.0
 40
2.0
 40
2.0
 40
3.0
 40
3.0
 40
3.0
 40
3.0
 10
483.1381557963923
 20
-409.7562666144304
 30
0.0
 10
483.1381557963923
 20
-409.7562666144304
 30
0.0
 10
494.2781238590342
 20
-425.0308561969996
 30
0.0
 10
512.0517760617477
 20
-430.1319155833735
 30
0.0
 10
521.2645621102947
 20
-432.7796475275754
 30
0.0
 10
515.3857647332097
 20
-431.2184560123424
 30
0.0
 10
520.5440121801876
 20
-431.4414927209546
 30
0.0
 10
525.6965440933564
 20
-431.670244963374
 30
0.0
 10
546.4553192550811
 20
-429.617233945437
 30
0.0
 10
556.7660986152277
 20
-411.2888804606209
 30
0.0
  0
SPLINE
  5
4B
330
41
100
AcDbEntity
  8
Layer 1
 62
   156
420
  1785491
370
     9
100
AcDbSpline
210
0.0
220
0.0
230
1.0
 70
     8
 71
     3
 72
    14
 73
    10
 74
     0
 42
0.0000000001
 43
0.0000000001
 12
1.0
 22
0.0
 32
0.0
 13
1.0
 23
0.0
 33
0.0
 40
0.0
 40
0.0
 40
0.0
 40
0.0
 40
1.0
 40
1.0
 40
1.0
 40
2.0
 40
2.0
 40
2.0
 40
3.0
 40
3.0
 40
3.0
 40
3.0
 10
480.6162092260001
 20
-418.7174382853236
 30
0.0
 10
480.6162092260001
 20
-418.7174382853236
 30
0.0
 10
482.2231468267146
 20
-432.0247825796032
 30
0.0
 10
491.2930009000247
 20
-446.7160604885103
 30
0.0
 10
500.3685268771151
 20
-461.3959073297992
 30
0.0
 10
514.013294908722
 20
-471.7695793768526
 30
0.0
 10
519.749116680543
 20
-472.1984843776354
 30
0.0
 10
525.4963695199785
 20
-472.6445359798417
 30
0.0
 10
551.6821967377873
 20
-447.8083382663026
 30
0.0
 10
558.4073730488217
 20
-419.4665767919796
 30
0.0
  0
SPLINE
  5
4C
330
41
100
AcDbEntity
  8
Layer 1
 62
   156
420
  1785491
370
     9
100
AcDbSpline
210
0.0
220
0.0
230
1.0
 70
     8
 71
     3
 72
    17
 73
    13
 74
     0
 42
0.0000000001
 43
0.0000000001
 12
1.0
 22
0.0
 32
0.0
 13
1.0
 23
0.0
 33
0.0
 40
0.0
 40
0.0
 40
0.0
 40
0.0
 40
1.0
 40
1.0
 40
1.0
 40
2.0
 40
2.0
 40
2.0
 40
3.0
 40
3.0
 40
3.0
 40
4.0
 40
4.0
 40
4.0
 40
4.0
 10
478.3687827985232
 20
-452.7035184529959
 30
0.0
 10
478.3687827985232
 20
-452.7035184529959
 30
0.0
 10
482.0859303852867
 20
-488.3480305631892
 30
0.0
 10
490.2522065565354
 20
-507.6256753130256
 30
0.0
 10
498.412723563948
 20
-526.9147729454926
 30
0.0
 10
507.4425252705714
 20
-538.7867438208723
 30
0.0
 10
517.598897957836
 20
-544.0021684209478
 30
0.0
 10
523.1517353877316
 20
-546.8500749385294
 30
0.0
 10
539.335552961129
 20
-523.8495670681223
 30
0.0
 10
543.7103796061074
 20
-512.5208554997189
 30
0.0
 10
548.085162621057
 20
-501.197881280139
 30
0.0
 10
556.8404441847651
 20
-477.9000129466003
 30
0.0
 10
559.1907938508193
 20
-467.3033041909403
 30
0.0
  0
SPLINE
  5
4D
330
41
100
AcDbEntity
  8
Layer 1
 62
   156
420
  1785491
370
     9
100
AcDbSpline
210
0.0
220
0.0
230
1.0
 70
     8
 71
     3
 72
    17
 73
    13
 74
     0
 42
0.0000000001
 43
0.0000000001
 12
1.0
 22
0.0
 32
0.0
 13
1.0
 23
0.0
 33
0.0
 40
0.0
 40
0.0
 40
0.0
 40
0.0
 40
1.0
 40
1.0
 40
1.0
 40
2.0
 40
2.0
 40
2.0
 40
3.0
 40
3.0
 40
3.0
 40
4.0
 40
4.0
 40
4.0
 40
4.0
 10
481.7656859719064
 20
-433.9348398072889
 30
0.0
 10
481.7656859719064
 20
-433.9348398072889
 30
0.0
 10
489.1484977111268
 20
-467.549203034785
 30
0.0
 10
498.6071826035168
 20
-478.6319939443238
 30
0.0
 10
508.2659984392576
 20
-489.9492526300965
 30
0.0
 10
513.2298304766955
 20
-494.0381062495289
 30
0.0
 10
518.977083316131
 20
-494.7758245960758
 30
0.0
 10
524.7186206217593
 20
-495.502090059992
 30
0.0
 10
542.9955452098075
 20
-473.7310982238214
 30
0.0
 10
546.1236437740827
 20
-467.0916985499462
 30
0.0
 10
549.2631734059742
 20
-460.4523206910799
 30
0.0
 10
556.3085941303889
 20
-445.2520984930616
 30
0.0
 10
557.9441530301738
 20
-435.6847530132691
 30
0.0
  0
SPLINE
  5
4E
330
41
100
AcDbEntity
  8
Layer 1
 62
   156
420
  1785491
370
     9
100
AcDbSpline
210
0.0
220
0.0
230
1.0
 70
     8
 71
     3
 72
    20
 73
    16
 74
     0
 42
0.0000000001
 43
0.0000000001
 12
1.0
 22
0.0
 32
0.0
 13
1.0
 23
0.0
 33
0.0
 40
0.0
 40
0.0
 40
0.0
 40
0.0
 40
1.0
 40
1.0
 40
1.0
 40
2.0
 40
2.0
 40
2.0
 40
3.0
 40
3.0
 40
3.0
 40
4.0
 40
4.0
 40
4.0
 40
5.0
 40
5.0
 40
5.0
 40
5.0
 10
480.3931725173898
 20
-436.1250890816682
 30
0.0
 10
480.3931725173898
 20
-436.1250890816682
 30
0.0
 10
483.7214456550428
 20
-459.863293483606
 30
0.0
 10
487.7016386870746
 20
-469.7851983946457
 30
0.0
 10
491.6818753491352
 20
-479.7242717221161
 30
0.0
 10
505.2008143769017
 20
-499.3050142839093
 30
0.0
 10
509.512682889932
 20
-502.8048406958678
 30
0.0
 10
513.8131203353441
 20
-506.3160981754445
 30
0.0
 10
515.3800491994007
 20
-506.5334193502476
 30
0.0
 10
518.776952372782
 20
-506.9680398848377
 30
0.0
 10
522.1738119161346
 20
-507.4026604194296
 30
0.0
 10
538.6836330667484
 20
-491.2645453014848
 30
0.0
 10
545.6718548230529
 20
-476.8763652045363
 30
0.0
 10
552.6600765793555
 20
-462.4939006413988
 30
0.0
 10
557.2236031000666
 20
-448.4602581606814
 30
0.0
 10
558.6017884583616
 20
-438.7442433568303
 30
0.0
  0
SPLINE
  5
4F
330
41
100
AcDbEntity
  8
Layer 1
 62
   156
420
  1785491
370
     9
100
AcDbSpline
210
0.0
220
0.0
230
1.0
 70
     8
 71
     3
 72
    17
 73
    13
 74
     0
 42
0.0000000001
 43
0.0000000001
 12
1.0
 22
0.0
 32
0.0
 13
1.0
 23
0.0
 33
0.0
 40
0.0
 40
0.0
 40
0.0
 40
0.0
 40
1.0
 40
1.0
 40
1.0
 40
2.0
 40
2.0
 40
2.0
 40
3.0
 40
3.0
 40
3.0
 40
4.0
 40
4.0
 40
4.0
 40
4.0
 10
482.348975830555
 20
-410.8428179509065
 30
0.0
 10
482.348975830555
 20
-411.5004642866006
 30
0.0
 10
481.5655113985267
 20
-422.3831024377832
 30
0.0
 10
487.3127642379641
 20
-431.2241715461514
 30
0.0
 10
493.0543451736212
 20
-440.0652515620277
 30
0.0
 10
503.936983324802
 20
-455.9631615549206
 30
0.0
 10
520.3438376068098
 20
-460.0005535550645
 30
0.0
 10
526.8745985083024
 20
-461.613206689588
 30
0.0
 10
541.5544017195625
 20
-447.8026227324935
 30
0.0
 10
548.285293564406
 20
-436.7827245098561
 30
0.0
 10
553.8095533252599
 20
-427.718629600382
 30
0.0
 10
556.9662295585767
 20
-422.8348804813049
 30
0.0
 10
557.5552785810651
 20
-415.3033885105169
 30
0.0
  0
SPLINE
  5
50
330
41
100
AcDbEntity
  8
Layer 1
 62
   156
420
  1785491
370
     9
100
AcDbSpline
210
0.0
220
0.0
230
1.0
 70
     8
 71
     3
 72
    17
 73
    13
 74
     0
 42
0.0000000001
 43
0.0000000001
 12
1.0
 22
0.0
 32
0.0
 13
1.0
 23
0.0
 33
0.0
 40
0.0
 40
0.0
 40
0.0
 40
0.0
 40
1.0
 40
1.0
 40
1.0
 40
2.0
 40
2.0
 40
2.0
 40
3.0
 40
3.0
 40
3.0
 40
4.0
 40
4.0
 40
4.0
 40
4.0
 10
482.5491504039328
 20
-409.0986202787353
 30
0.0
 10
482.5491504039328
 20
-409.0986202787353
 30
0.0
 10
486.5922143078569
 20
-422.0914575084571
 30
0.0
 10
491.2930009000247
 20
-425.6713450237621
 30
0.0
 10
495.9880283283564
 20
-429.2512434465752
 30
0.0
 10
508.2717139730648
 20
-439.0358882861547
 30
0.0
 10
520.1494221972698
 20
-441.0202692683633
 30
0.0
 10
532.0328459552802
 20
-442.9874818341304
 30
0.0
 10
542.5323251911614
 20
-433.7118030986785
 30
0.0
 10
548.8686270530852
 20
-427.0667097060032
 30
0.0
 10
555.2048852849803
 20
-420.4158789645062
 30
0.0
 10
555.5308452321697
 20
-417.1962664142557
 30
0.0
 10
556.9662295585767
 20
-411.9465267963151
 30
0.0
  0
SPLINE
  5
51
330
41
100
AcDbEntity
  8
Layer 1
 62
   156
420
  1785491
370
     9
100
AcDbSpline
210
0.0
220
0.0
230
1.0
 70
     8
 71
     3
 72
    17
 73
    13
 74
     0
 42
0.0000000001
 43
0.0000000001
 12
1.0
 22
0.0
 32
0.0
 13
1.0
 23
0.0
 33
0.0
 40
0.0
 40
0.0
 40
0.0
 40
0.0
 40
1.0
 40
1.0
 40
1.0
 40
2.0
 40
2.0
 40
2.0
 40
3.0
 40
3.0
 40
3.0
 40
4.0
 40
4.0
 40
4.0
 40
4.0
 10
481.7656859719064
 20
-394.9277613565882
 30
0.0
 10
481.7656859719064
 20
-394.9277613565882
 30
0.0
 10
482.1602759548241
 20
-403.3170415139266
 30
0.0
 10
488.8796931020206
 20
-408.6582842103362
 30
0.0
 10
495.604869413055
 20
-413.9938113729368
 30
0.0
 10
510.4276918596097
 20
-420.1985686972112
 30
0.0
 10
520.349553140617
 20
-420.4158789645062
 30
0.0
 10
530.2657425178477
 20
-420.6389047656103
 30
0.0
 10
552.1968565607094
 20
-412.0151459245371
 30
0.0
 10
555.593759734089
 20
-406.6910607370601
 30
0.0
 10
558.9963784412794
 20
-401.3555335744604
 30
0.0
 10
557.492364079144
 20
-403.1797923499762
 30
0.0
 10
557.9441530301738
 20
-400.9151975060604
 30
0.0
  0
SPLINE
  5
52
330
41
100
AcDbEntity
  8
Layer 1
 62
   156
420
  1785491
370
     9
100
AcDbSpline
210
0.0
220
0.0
230
1.0
 70
     8
 71
     3
 72
    17
 73
    13
 74
     0
 42
0.0000000001
 43
0.0000000001
 12
1.0
 22
0.0
 32
0.0
 13
1.0
 23
0.0
 33
0.0
 40
0.0
 40
0.0
 40
0.0
 40
0.0
 40
1.0
 40
1.0
 40
1.0
 40
2.0
 40
2.0
 40
2.0
 40
3.0
 40
3.0
 40
3.0
 40
4.0
 40
4.0
 40
4.0
 40
4.0
 10
483.1381557963923
 20
-391.7882099096823
 30
0.0
 10
483.1381557963923
 20
-391.7882099096823
 30
0.0
 10
484.3162102113383
 20
-399.3082489978387
 30
0.0
 10
489.6631575340489
 20
-403.1054467804397
 30
0.0
 10
495.0158203905667
 20
-406.902655470547
 30
0.0
 10
506.6361987033088
 20
-412.8901025275272
 30
0.0
 10
520.5440121801876
 20
-415.0860782432219
 30
0.0
 10
534.4461101232573
 20
-417.2706119837931
 30
0.0
 10
550.5041423228413
 20
-408.1378870385906
 30
0.0
 10
553.4378254775747
 20
-405.0726811612221
 30
0.0
 10
556.3772241661172
 20
-402.0131799101546
 30
0.0
 10
557.3608195414945
 20
-398.4390079286568
 30
0.0
 10
557.3608195414945
 20
-396.2373384941693
 30
0.0
  0
SPLINE
  5
53
330
41
100
AcDbEntity
  8
Layer 1
 62
   156
420
  1785491
370
     9
100
AcDbSpline
210
0.0
220
0.0
230
1.0
 70
     8
 71
     3
 72
    17
 73
    13
 74
     0
 42
0.0000000001
 43
0.0000000001
 12
1.0
 22
0.0
 32
0.0
 13
1.0
 23
0.0
 33
0.0
 40
0.0
 40
0.0
 40
0.0
 40
0.0
 40
1.0
 40
1.0
 40
1.0
 40
2.0
 40
2.0
 40
2.0
 40
3.0
 40
3.0
 40
3.0
 40
4.0
 40
4.0
 40
4.0
 40
4.0
 10
484.504910087071
 20
-389.3749239266917
 30
0.0
 10
484.504910087071
 20
-389.3749239266917
 30
0.0
 10
487.3699632060761
 20
-395.1908068018565
 30
0.0
 10
493.2487605831611
 20
-397.5583466993667
 30
0.0
 10
499.9796524280046
 20
-400.2632667041744
 30
0.0
 10
510.021627179045
 20
-403.7631040236411
 30
0.0
 10
520.5440121801876
 20
-404.8610864277352
 30
0.0
 10
531.0549224836832
 20
-405.9533532980204
 30
0.0
 10
545.8720293964307
 20
-402.5964915838194
 30
0.0
 10
550.0466378380024
 20
-398.8679129294396
 30
0.0
 10
554.227005443412
 20
-395.1507762501842
 30
0.0
 10
554.5529653906015
 20
-395.4424429945248
 30
0.0
 10
556.577398739495
 20
-392.5201909074058
 30
0.0
  0
SPLINE
  5
54
330
41
100
AcDbEntity
  8
Layer 1
 62
   156
420
  1785491
370
     9
100
AcDbSpline
210
0.0
220
0.0
230
1.0
 70
     8
 71
     3
 72
    17
 73
    13
 74
     0
 42
0.0000000001
 43
0.0000000001
 12
1.0
 22
0.0
 32
0.0
 13
1.0
 23
0.0
 33
0.0
 40
0.0
 40
0.0
 40
0.0
 40
0.0
 40
1.0
 40
1.0
 40
1.0
 40
2.0
 40
2.0
 40
2.0
 40
3.0
 40
3.0
 40
3.0
 40
4.0
 40
4.0
 40
4.0
 40
4.0
 10
485.1625455152571
 20
-386.9673534775102
 30
0.0
 10
485.1625455152571
 20
-386.9673534775102
 30
0.0
 10
489.0798676753984
 20
-391.4164820619972
 30
0.0
 10
495.4104103734844
 20
-393.1721108017846
 30
0.0
 10
501.735281167792
 20
-394.9277613565882
 30
0.0
 10
514.4021693578325
 20
-396.8949739223563
 30
0.0
 10
520.9328866292963
 20
-396.8949739223563
 30
0.0
 10
527.4578883669528
 20
-396.8949739223563
 30
0.0
 10
539.9932320193438
 20
-396.7519983170914
 30
0.0
 10
547.5075446661867
 20
-393.3951475103968
 30
0.0
 10
555.0047543416313
 20
-390.0325593548787
 30
0.0
 10
553.7637854247641
 20
-391.565173201071
 30
0.0
 10
556.571639575659
 20
-389.3749239266917
 30
0.0
  0
SPLINE
  5
55
330
41
100
AcDbEntity
  8
Layer 1
 62
   156
420
  1785491
370
     9
100
AcDbSpline
210
0.0
220
0.0
230
1.0
 70
     8
 71
     3
 72
    17
 73
    13
 74
     0
 42
0.0000000001
 43
0.0000000001
 12
1.0
 22
0.0
 32
0.0
 13
1.0
 23
0.0
 33
0.0
 40
0.0
 40
0.0
 40
0.0
 40
0.0
 40
1.0
 40
1.0
 40
1.0
 40
2.0
 40
2.0
 40
2.0
 40
3.0
 40
3.0
 40
3.0
 40
4.0
 40
4.0
 40
4.0
 40
4.0
 10
484.9624145719099
 20
-381.6318372224168
 30
0.0
 10
484.9624145719099
 20
-381.6318372224168
 30
0.0
 10
495.2102794301354
 20
-387.6250107207125
 30
0.0
 10
505.3265997507151
 20
-388.9403033921008
 30
0.0
 10
515.448679235129
 20
-390.2441649958737
 30
0.0
 10
519.491786769082
 20
-390.2441649958737
 30
0.0
 10
520.7384275897275
 20
-390.2441649958737
 30
0.0
 10
521.9793965065946
 20
-390.2441649958737
 30
0.0
 10
543.5216361003459
 20
-390.1069049244161
 30
0.0
 10
549.8522224284607
 20
-387.6250107207125
 30
0.0
 10
556.17709322277
 20
-385.1373791681854
 30
0.0
 10
555.9883497170085
 20
-385.3547003429876
 30
0.0
 10
556.7660986152277
 20
-384.7027586335944
 30
0.0
  0
SPLINE
  5
56
330
41
100
AcDbEntity
  8
Layer 1
 62
   156
420
  1785491
370
     9
100
AcDbSpline
210
0.0
220
0.0
230
1.0
 70
     8
 71
     3
 72
    11
 73
     7
 74
     0
 42
0.0000000001
 43
0.0000000001
 12
1.0
 22
0.0
 32
0.0
 13
1.0
 23
0.0
 33
0.0
 40
0.0
 40
0.0
 40
0.0
 40
0.0
 40
1.0
 40
1.0
 40
1.0
 40
2.0
 40
2.0
 40
2.0
 40
2.0
 10
520.5440121801876
 20
-380.9741799792164
 30
0.0
 10
520.5440121801876
 20
-380.9741799792164
 30
0.0
 10
534.4461101232573
 20
-384.6970430997862
 30
0.0
 10
541.7545762929403
 20
-384.0451232054074
 30
0.0
 10
549.0687579964342
 20
-383.3874659622052
 30
0.0
 10
552.7859055831959
 20
-383.5990497881849
 30
0.0
 10
557.743978456796
 20
-382.0778888246241
 30
0.0
  0
SPLINE
  5
57
330
41
100
AcDbEntity
  8
Layer 1
 62
   156
420
  1785491
370
     9
100
AcDbSpline
210
0.0
220
0.0
230
1.0
 70
     8
 71
     3
 72
    11
 73
     7
 74
     0
 42
0.0000000001
 43
0.0000000001
 12
1.0
 22
0.0
 32
0.0
 13
1.0
 23
0.0
 33
0.0
 40
0.0
 40
0.0
 40
0.0
 40
0.0
 40
1.0
 40
1.0
 40
1.0
 40
2.0
 40
2.0
 40
2.0
 40
2.0
 10
484.3104946775293
 20
-378.2692490668996
 30
0.0
 10
484.3104946775293
 20
-378.2692490668996
 30
0.0
 10
489.2685675511311
 20
-381.1972166878259
 30
0.0
 10
500.3685268771151
 20
-381.8491365822047
 30
0.0
 10
511.468486203099
 20
-382.5067938254069
 30
0.0
 10
518.3137323541359
 20
-381.4202315814218
 30
0.0
 10
520.5382966463785
 20
-381.1972166878259
 30
0.0
  0
SPLINE
  5
58
330
41
100
AcDbEntity
  8
Layer 1
 62
   156
420
  1785491
370
     9
100
AcDbSpline
210
0.0
220
0.0
230
1.0
 70
     8
 71
     3
 72
    11
 73
     7
 74
     0
 42
0.0000000001
 43
0.0000000001
 12
1.0
 22
0.0
 32
0.0
 13
1.0
 23
0.0
 33
0.0
 40
0.0
 40
0.0
 40
0.0
 40
0.0
 40
1.0
 40
1.0
 40
1.0
 40
2.0
 40
2.0
 40
2.0
 40
2.0
 10
484.3104946775293
 20
-366.5917154160743
 30
0.0
 10
484.3104946775293
 20
-366.5917154160743
 30
0.0
 10
508.6605884221754
 20
-368.9992858652549
 30
0.0
 10
520.7384275897275
 20
-368.7762491566446
 30
0.0
 10
532.8105512234724
 20
-368.5589497968558
 30
0.0
 10
550.4355122871129
 20
-371.4125500332311
 30
0.0
 10
556.3829396999263
 20
-370.7491990712351
 30
0.0
  0
SPLINE
  5
59
330
41
100
AcDbEntity
  8
Layer 1
 62
   156
420
  1785491
370
     9
100
AcDbSpline
210
0.0
220
0.0
230
1.0
 70
     8
 71
     3
 72
    14
 73
    10
 74
     0
 42
0.0000000001
 43
0.0000000001
 12
1.0
 22
0.0
 32
0.0
 13
1.0
 23
0.0
 33
0.0
 40
0.0
 40
0.0
 40
0.0
 40
0.0
 40
1.0
 40
1.0
 40
1.0
 40
2.0
 40
2.0
 40
2.0
 40
3.0
 40
3.0
 40
3.0
 40
3.0
 10
484.9624145719099
 20
-363.6637477951481
 30
0.0
 10
484.9624145719099
 20
-363.6637477951481
 30
0.0
 10
502.3929165959798
 20
-361.2504836271719
 30
0.0
 10
510.0959727485824
 20
-361.2504836271719
 30
0.0
 10
517.8047444349941
 20
-361.2504836271719
 30
0.0
 10
516.1635136314289
 20
-361.0331624523697
 30
0.0
 10
520.9328866292963
 20
-361.2504836271719
 30
0.0
 10
525.6965440933564
 20
-361.4734985207688
 30
0.0
 10
546.5296648246167
 20
-363.2977572962845
 30
0.0
 10
553.8324154604925
 20
-366.3744160562856
 30
0.0
  0
SPLINE
  5
5A
330
41
100
AcDbEntity
  8
Layer 1
 62
   156
420
  1785491
370
     9
100
AcDbSpline
210
0.0
220
0.0
230
1.0
 70
     8
 71
     3
 72
    17
 73
    13
 74
     0
 42
0.0000000001
 43
0.0000000001
 12
1.0
 22
0.0
 32
0.0
 13
1.0
 23
0.0
 33
0.0
 40
0.0
 40
0.0
 40
0.0
 40
0.0
 40
1.0
 40
1.0
 40
1.0
 40
2.0
 40
2.0
 40
2.0
 40
3.0
 40
3.0
 40
3.0
 40
4.0
 40
4.0
 40
4.0
 40
4.0
 10
485.5514199643676
 20
-359.5005486061782
 30
0.0
 10
485.5514199643676
 20
-359.5005486061782
 30
0.0
 10
500.6944868243045
 20
-351.4658169725772
 30
0.0
 10
509.0494628712859
 20
-350.5908603695871
 30
0.0
 10
517.4101544520745
 20
-349.715903766597
 30
0.0
 10
517.9248579050254
 20
-349.715903766597
 30
0.0
 10
521.3217610784068
 20
-349.715903766597
 30
0.0
 10
524.7186206217593
 20
-349.715903766597
 30
0.0
 10
545.0885649644024
 20
-353.2157301785574
 30
0.0
 10
549.268932569812
 20
-356.5726028002664
 30
0.0
 10
553.4378254775747
 20
-359.946622023399
 30
0.0
 10
552.4656611698156
 20
-358.8429131779903
 30
0.0
 10
554.0268308700342
 20
-361.2504836271719
 30
0.0
  0
SPLINE
  5
5B
330
41
100
AcDbEntity
  8
Layer 1
 62
   156
420
  1785491
370
     9
100
AcDbSpline
210
0.0
220
0.0
230
1.0
 70
     8
 71
     3
 72
    17
 73
    13
 74
     0
 42
0.0000000001
 43
0.0000000001
 12
1.0
 22
0.0
 32
0.0
 13
1.0
 23
0.0
 33
0.0
 40
0.0
 40
0.0
 40
0.0
 40
0.0
 40
1.0
 40
1.0
 40
1.0
 40
2.0
 40
2.0
 40
2.0
 40
3.0
 40
3.0
 40
3.0
 40
4.0
 40
4.0
 40
4.0
 40
4.0
 10
484.504910087071
 20
-355.7033617310844
 30
0.0
 10
484.504910087071
 20
-355.7033617310844
 30
0.0
 10
487.4443087756135
 20
-349.3556288015434
 30
0.0
 10
495.4046948396772
 20
-345.9873251122181
 30
0.0
 10
503.3708400675769
 20
-342.6361898393316
 30
0.0
 10
517.9305734388345
 20
-340.2229038563419
 30
0.0
 10
521.3160455445977
 20
-340.4344876823216
 30
0.0
 10
524.7186206217593
 20
-340.6518088571247
 30
0.0
 10
548.2223790624848
 20
-348.034620596346
 30
0.0
 10
551.0245613095994
 20
-351.7631992507249
 30
0.0
 10
553.8381309943015
 20
-355.4860405562813
 30
0.0
 10
553.6380000509525
 20
-354.7483440247488
 30
0.0
 10
554.227005443412
 20
-357.2359537622624
 30
0.0
  0
SPLINE
  5
5C
330
41
100
AcDbEntity
  8
Layer 1
 62
   156
420
  1785491
370
     9
100
AcDbSpline
210
0.0
220
0.0
230
1.0
 70
     8
 71
     3
 72
    11
 73
     7
 74
     0
 42
0.0000000001
 43
0.0000000001
 12
1.0
 22
0.0
 32
0.0
 13
1.0
 23
0.0
 33
0.0
 40
0.0
 40
0.0
 40
0.0
 40
0.0
 40
1.0
 40
1.0
 40
1.0
 40
2.0
 40
2.0
 40
2.0
 40
2.0
 10
521.127302038838
 20
-330.5068890524908
 30
0.0
 10
521.127302038838
 20
-330.5068890524908
 30
0.0
 10
540.5422286751455
 20
-334.5042286859471
 30
0.0
 10
546.9128237399182
 20
-341.5324809939229
 30
0.0
 10
551.8708966135182
 20
-347.010972854282
 30
0.0
 10
556.1828087565773
 20
-349.715903766597
 30
0.0
 10
554.8102953020625
 20
-355.4803250224732
 30
0.0
  0
SPLINE
  5
5D
330
41
100
AcDbEntity
  8
Layer 1
 62
   156
420
  1785491
370
     9
100
AcDbSpline
210
0.0
220
0.0
230
1.0
 70
     8
 71
     3
 72
    11
 73
     7
 74
     0
 42
0.0000000001
 43
0.0000000001
 12
1.0
 22
0.0
 32
0.0
 13
1.0
 23
0.0
 33
0.0
 40
0.0
 40
0.0
 40
0.0
 40
0.0
 40
1.0
 40
1.0
 40
1.0
 40
2.0
 40
2.0
 40
2.0
 40
2.0
 10
484.3104946775293
 20
-350.1505243011879
 30
0.0
 10
484.3104946775293
 20
-350.1505243011879
 30
0.0
 10
484.8995000699888
 20
-344.3803875115045
 30
0.0
 10
490.6467529094261
 20
-340.8748237507207
 30
0.0
 10
496.3826183112742
 20
-337.3692818049531
 30
0.0
 10
508.9236774974743
 20
-331.8965272934174
 30
0.0
 10
521.5905220574841
 20
-330.5068890524908
 30
0.0
  0
SPLINE
  5
5E
330
41
100
AcDbEntity
  8
Layer 1
 62
   156
420
  1785491
370
     9
100
AcDbSpline
210
0.0
220
0.0
230
1.0
 70
     8
 71
     3
 72
    11
 73
     7
 74
     0
 42
0.0000000001
 43
0.0000000001
 12
1.0
 22
0.0
 32
0.0
 13
1.0
 23
0.0
 33
0.0
 40
0.0
 40
0.0
 40
0.0
 40
0.0
 40
1.0
 40
1.0
 40
1.0
 40
2.0
 40
2.0
 40
2.0
 40
2.0
 10
521.7792219332168
 20
-308.3012548667139
 30
0.0
 10
521.7792219332168
 20
-308.3012548667139
 30
0.0
 10
542.9269151740791
 20
-315.1636694341905
 30
0.0
 10
547.8964191152954
 20
-322.4721356038754
 30
0.0
 10
552.8545356189243
 20
-329.7691707059439
 30
0.0
 10
553.6380000509525
 20
-330.9414877720665
 30
0.0
 10
553.6380000509525
 20
-330.9414877720665
 30
0.0
  0
SPLINE
  5
5F
330
41
100
AcDbEntity
  8
Layer 1
 62
   156
420
  1785491
370
     9
100
AcDbSpline
210
0.0
220
0.0
230
1.0
 70
     8
 71
     3
 72
    11
 73
     7
 74
     0
 42
0.0000000001
 43
0.0000000001
 12
1.0
 22
0.0
 32
0.0
 13
1.0
 23
0.0
 33
0.0
 40
0.0
 40
0.0
 40
0.0
 40
0.0
 40
1.0
 40
1.0
 40
1.0
 40
2.0
 40
2.0
 40
2.0
 40
2.0
 10
486.3348843963959
 20
-333.3490582212489
 30
0.0
 10
486.7294743793136
 20
-331.5934294814606
 30
0.0
 10
496.1881592717036
 20
-317.4396953457235
 30
0.0
 10
507.2881185976876
 20
-312.9734201598121
 30
0.0
 10
518.3880779236715
 20
-308.518576041517
 30
0.0
 10
521.9793965065946
 20
-308.3012548667139
 30
0.0
 10
521.9793965065946
 20
-308.3012548667139
 30
0.0
  0
SPLINE
  5
60
330
41
100
AcDbEntity
  8
Layer 1
 62
   156
420
  1785491
370
     9
100
AcDbSpline
210
0.0
220
0.0
230
1.0
 70
     8
 71
     3
 72
    14
 73
    10
 74
     0
 42
0.0000000001
 43
0.0000000001
 12
1.0
 22
0.0
 32
0.0
 13
1.0
 23
0.0
 33
0.0
 40
0.0
 40
0.0
 40
0.0
 40
0.0
 40
1.0
 40
1.0
 40
1.0
 40
2.0
 40
2.0
 40
2.0
 40
3.0
 40
3.0
 40
3.0
 40
3.0
 10
484.7679555323393
 20
-334.6758037752688
 30
0.0
 10
484.7679555323393
 20
-334.6758037752688
 30
0.0
 10
490.2121541898487
 20
-310.6344797463589
 30
0.0
 10
508.0715830297158
 20
-300.5524526286308
 30
0.0
 10
522.9572763481628
 20
-292.1574460299762
 30
0.0
 10
520.9958011312174
 20
-292.5977820983753
 30
0.0
 10
529.0934472667377
 20
-297.2699473914736
 30
0.0
 10
537.1910497722292
 20
-301.9478064033647
 30
0.0
 10
548.8743425868925
 20
-312.8361819033689
 30
0.0
 10
554.6158798925208
 20
-331.38184565548
 30
0.0
  0
SPLINE
  5
61
330
41
100
AcDbEntity
  8
Layer 1
 62
   156
420
  1785491
370
     9
100
AcDbSpline
210
0.0
220
0.0
230
1.0
 70
     8
 71
     3
 72
    17
 73
    13
 74
     0
 42
0.0000000001
 43
0.0000000001
 12
1.0
 22
0.0
 32
0.0
 13
1.0
 23
0.0
 33
0.0
 40
0.0
 40
0.0
 40
0.0
 40
0.0
 40
1.0
 40
1.0
 40
1.0
 40
2.0
 40
2.0
 40
2.0
 40
3.0
 40
3.0
 40
3.0
 40
4.0
 40
4.0
 40
4.0
 40
4.0
 10
484.7679555323393
 20
-335.1046869610364
 30
0.0
 10
484.7679555323393
 20
-335.1046869610364
 30
0.0
 10
480.7363226960333
 20
-306.9173539746116
 30
0.0
 10
506.8935286147698
 20
-285.7296519970914
 30
0.0
 10
511.8573606522077
 20
-281.7151439471945
 30
0.0
 10
521.5848065236751
 20
-276.4596887954467
 30
0.0
 10
521.5848065236751
 20
-276.4596887954467
 30
0.0
 10
521.5848065236751
 20
-276.4596887954467
 30
0.0
 10
535.7499499120149
 20
-279.7479095664121
 30
0.0
 10
545.6775703568601
 20
-298.8025394226515
 30
0.0
 10
555.5880442002817
 20
-317.8686003465064
 30
0.0
 10
556.3772241661172
 20
-324.9540516225943
 30
0.0
 10
555.399344324549
 20
-332.045196617476
 30
0.0
  0
SPLINE
  5
62
330
41
100
AcDbEntity
  8
Layer 1
 62
   156
420
  1785491
370
     9
100
AcDbSpline
210
0.0
220
0.0
230
1.0
 70
     8
 71
     3
 72
    11
 73
     7
 74
     0
 42
0.0000000001
 43
0.0000000001
 12
1.0
 22
0.0
 32
0.0
 13
1.0
 23
0.0
 33
0.0
 40
0.0
 40
0.0
 40
0.0
 40
0.0
 40
1.0
 40
1.0
 40
1.0
 40
2.0
 40
2.0
 40
2.0
 40
2.0
 10
487.1183488284241
 20
-298.5795245290547
 30
0.0
 10
487.1183488284241
 20
-298.5795245290547
 30
0.0
 10
496.8972781341963
 20
-255.7409223703817
 30
0.0
 10
520.927171095489
 20
-250.9658338387053
 30
0.0
 10
538.5521321591295
 20
-247.4602700779224
 30
0.0
 10
553.048951028466
 20
-298.2192495640011
 30
0.0
 10
554.4271363867592
 20
-303.2631208897692
 30
0.0
  0
SPLINE
  5
63
330
41
100
AcDbEntity
  8
Layer 1
 62
   156
420
  1785491
370
     9
100
AcDbSpline
210
0.0
220
0.0
230
1.0
 70
     8
 71
     3
 72
    11
 73
     7
 74
     0
 42
0.0000000001
 43
0.0000000001
 12
1.0
 22
0.0
 32
0.0
 13
1.0
 23
0.0
 33
0.0
 40
0.0
 40
0.0
 40
0.0
 40
0.0
 40
1.0
 40
1.0
 40
1.0
 40
2.0
 40
2.0
 40
2.0
 40
2.0
 10
479.6154672491994
 20
-498.7903326459727
 30
0.0
 10
479.6154672491994
 20
-498.7903326459727
 30
0.0
 10
497.3604981528424
 20
-572.2066698238141
 30
0.0
 10
515.2542201955603
 20
-574.7514785294388
 30
0.0
 10
522.9572763481628
 20
-575.8494718410402
 30
0.0
 10
536.3961542725847
 20
-556.4231359521291
 30
0.0
 10
537.7743832609085
 20
-552.8432484368241
 30
0.0
  0
SPLINE
  5
64
330
41
100
AcDbEntity
  8
Layer 1
 62
   156
420
  1785491
370
     9
100
AcDbSpline
210
0.0
220
0.0
230
1.0
 70
     8
 71
     3
 72
    17
 73
    13
 74
     0
 42
0.0000000001
 43
0.0000000001
 12
1.0
 22
0.0
 32
0.0
 13
1.0
 23
0.0
 33
0.0
 40
0.0
 40
0.0
 40
0.0
 40
0.0
 40
1.0
 40
1.0
 40
1.0
 40
2.0
 40
2.0
 40
2.0
 40
3.0
 40
3.0
 40
3.0
 40
4.0
 40
4.0
 40
4.0
 40
4.0
 10
476.9963129740372
 20
-464.8957337417596
 30
0.0
 10
476.9963129740372
 20
-464.8957337417596
 30
0.0
 10
484.3791247132594
 20
-522.4599288271966
 30
0.0
 10
499.7794778546267
 20
-539.9876603710527
 30
0.0
 10
515.1855901598319
 20
-557.5096763810998
 30
0.0
 10
517.0155644691567
 20
-557.2980925551201
 30
0.0
 10
523.7407407801911
 20
-552.8375329030168
 30
0.0
 10
530.4602015574164
 20
-548.3884043185299
 30
0.0
 10
541.691661791021
 20
-535.166825753895
 30
0.0
 10
545.4717238797039
 20
-524.7130707884826
 30
0.0
 10
549.268932569812
 20
-514.2765060545225
 30
0.0
 10
557.2293186338757
 20
-489.6576077007703
 30
0.0
 10
559.1907938508193
 20
-471.9811850178467
 30
0.0
  0
SPLINE
  5
65
330
41
100
AcDbEntity
  8
Layer 1
 62
   156
420
  1785491
370
     9
100
AcDbSpline
210
0.0
220
0.0
230
1.0
 70
     8
 71
     3
 72
    14
 73
    10
 74
     0
 42
0.0000000001
 43
0.0000000001
 12
1.0
 22
0.0
 32
0.0
 13
1.0
 23
0.0
 33
0.0
 40
0.0
 40
0.0
 40
0.0
 40
0.0
 40
1.0
 40
1.0
 40
1.0
 40
2.0
 40
2.0
 40
2.0
 40
3.0
 40
3.0
 40
3.0
 40
3.0
 10
478.6261127099842
 20
-447.1506810231003
 30
0.0
 10
478.6261127099842
 20
-447.1506810231003
 30
0.0
 10
483.3325712059323
 20
-491.487582010097
 30
0.0
 10
501.735281167792
 20
-512.7438922083311
 30
0.0
 10
520.1437066634608
 20
-533.994486872758
 30
0.0
 10
532.2215458310129
 20
-516.9814369668384
 30
0.0
 10
536.6020443797715
 20
-510.9825479347346
 30
0.0
 10
540.9768273947211
 20
-505.0008055040562
 30
0.0
 10
558.2014829416348
 20
-480.5248827555697
 30
0.0
 10
558.9906629074721
 20
-453.7957962307883
 30
0.0
  0
SPLINE
  5
66
330
41
100
AcDbEntity
  8
Layer 1
 62
   156
420
  1785491
370
     9
100
AcDbSpline
210
0.0
220
0.0
230
1.0
 70
     8
 71
     3
 72
    17
 73
    13
 74
     0
 42
0.0000000001
 43
0.0000000001
 12
1.0
 22
0.0
 32
0.0
 13
1.0
 23
0.0
 33
0.0
 40
0.0
 40
0.0
 40
0.0
 40
0.0
 40
1.0
 40
1.0
 40
1.0
 40
2.0
 40
2.0
 40
2.0
 40
3.0
 40
3.0
 40
3.0
 40
4.0
 40
4.0
 40
4.0
 40
4.0
 10
480.7820469665003
 20
-429.9088788747613
 30
0.0
 10
480.7820469665003
 20
-429.9088788747613
 30
0.0
 10
490.7039518775382
 20
-465.1130549165609
 30
0.0
 10
503.9655609938436
 20
-473.0791565144282
 30
0.0
 10
517.2100235087255
 20
-481.0338488596972
 30
0.0
 10
516.7468034900794
 20
-480.1646077905152
 30
0.0
 10
519.3716732990488
 20
-480.1646077905152
 30
0.0
 10
521.9736809727856
 20
-480.1646077905152
 30
0.0
 10
534.5718954970689
 20
-477.8313829108702
 30
0.0
 10
545.0828494305933
 20
-461.3959073297992
 30
0.0
 10
555.593759734089
 20
-444.960431748721
 30
0.0
 10
557.6181930829844
 20
-433.4144208205307
 30
0.0
 10
558.4073730488217
 20
-430.1319155833735
 30
0.0
  0
SPLINE
  5
67
330
41
100
AcDbEntity
  8
Layer 1
 62
   156
420
  1785491
370
     9
100
AcDbSpline
210
0.0
220
0.0
230
1.0
 70
     8
 71
     3
 72
    11
 73
     7
 74
     0
 42
0.0000000001
 43
0.0000000001
 12
1.0
 22
0.0
 32
0.0
 13
1.0
 23
0.0
 33
0.0
 40
0.0
 40
0.0
 40
0.0
 40
0.0
 40
1.0
 40
1.0
 40
1.0
 40
2.0
 40
2.0
 40
2.0
 40
2.0
 10
482.7435658134746
 20
-409.0986202787353
 30
0.0
 10
482.7435658134746
 20
-409.0986202787353
 30
0.0
 10
500.0997222680071
 20
-425.8943708248662
 30
0.0
 10
520.5440121801876
 20
-425.236724489172
 30
0.0
 10
540.9711118609121
 20
-424.5790781534779
 30
0.0
 10
553.3691954418464
 20
-415.3777340800543
 30
0.0
 10
557.5552785810651
 20
-406.4680349359569
 30
0.0
  0
SPLINE
  5
68
330
41
100
AcDbEntity
  8
Layer 1
 62
   156
420
  1785491
370
     9
100
AcDbSpline
210
0.0
220
0.0
230
1.0
 70
     8
 71
     3
 72
    14
 73
    10
 74
     0
 42
0.0000000001
 43
0.0000000001
 12
1.0
 22
0.0
 32
0.0
 13
1.0
 23
0.0
 33
0.0
 40
0.0
 40
0.0
 40
0.0
 40
0.0
 40
1.0
 40
1.0
 40
1.0
 40
2.0
 40
2.0
 40
2.0
 40
3.0
 40
3.0
 40
3.0
 40
3.0
 10
482.348975830555
 20
-370.9664984310239
 30
0.0
 10
482.348975830555
 20
-370.9664984310239
 30
0.0
 10
512.1833205993971
 20
-373.8944660519501
 30
0.0
 10
520.7384275897275
 20
-373.8944660519501
 30
0.0
 10
529.2878626762795
 20
-373.8944660519501
 30
0.0
 10
556.17709322277
 20
-376.7423725695307
 30
0.0
 10
557.1606885981455
 20
-377.3942924639105
 30
0.0
 10
558.1442839735228
 20
-378.0519497071109
 30
0.0
 10
557.749693990605
 20
-378.2692490668996
 30
0.0
 10
557.749693990605
 20
-378.2692490668996
 30
0.0
  0
SPLINE
  5
69
330
41
100
AcDbEntity
  8
Layer 1
 62
   156
420
  1785491
370
     9
100
AcDbSpline
210
0.0
220
0.0
230
1.0
 70
     8
 71
     3
 72
    17
 73
    13
 74
     0
 42
0.0000000001
 43
0.0000000001
 12
1.0
 22
0.0
 32
0.0
 13
1.0
 23
0.0
 33
0.0
 40
0.0
 40
0.0
 40
0.0
 40
0.0
 40
1.0
 40
1.0
 40
1.0
 40
2.0
 40
2.0
 40
2.0
 40
3.0
 40
3.0
 40
3.0
 40
4.0
 40
4.0
 40
4.0
 40
4.0
 10
484.3104946775293
 20
-337.0719213418197
 30
0.0
 10
484.3104946775293
 20
-337.0719213418197
 30
0.0
 10
487.7073542208818
 20
-330.2838523438804
 30
0.0
 10
494.8156894472177
 20
-326.4923591875804
 30
0.0
 10
501.9354557411698
 20
-322.6894567786794
 30
0.0
 10
511.9202315240982
 20
-316.6962832803838
 30
0.0
 10
521.7792219332168
 20
-316.4846776393888
 30
0.0
 10
531.6382559723625
 20
-316.2616627457919
 30
0.0
 10
542.8068017040459
 20
-322.1061451050136
 30
0.0
 10
547.1129546832672
 20
-324.9540516225943
 30
0.0
 10
551.41343575871
 20
-327.807673673984
 30
0.0
 10
555.0047543416313
 20
-333.3547737550571
 30
0.0
 10
555.399344324549
 20
-334.4470515328494
 30
0.0
  0
SPLINE
  5
6A
330
41
100
AcDbEntity
  8
Layer 1
 62
   156
420
  1785491
370
     9
100
AcDbSpline
210
0.0
220
0.0
230
1.0
 70
     8
 71
     3
 72
    17
 73
    13
 74
     0
 42
0.0000000001
 43
0.0000000001
 12
1.0
 22
0.0
 32
0.0
 13
1.0
 23
0.0
 33
0.0
 40
0.0
 40
0.0
 40
0.0
 40
0.0
 40
1.0
 40
1.0
 40
1.0
 40
2.0
 40
2.0
 40
2.0
 40
3.0
 40
3.0
 40
3.0
 40
4.0
 40
4.0
 40
4.0
 40
4.0
 10
482.1602759548241
 20
-312.533084091413
 30
0.0
 10
482.1602759548241
 20
-312.533084091413
 30
0.0
 10
491.098541860456
 20
-281.2805234126045
 30
0.0
 10
505.1321843411733
 20
-273.3143999997174
 30
0.0
 10
519.1715423556998
 20
-265.3540139356537
 30
0.0
 10
521.3274766122158
 20
-266.011671178856
 30
0.0
 10
521.3274766122158
 20
-266.011671178856
 30
0.0
 10
521.3274766122158
 20
-266.011671178856
 30
0.0
 10
529.0305327648184
 20
-265.7943500040528
 30
0.0
 10
539.341312124965
 20
-277.9922808266238
 30
0.0
 10
549.6520478550847
 20
-290.1902116491947
 30
0.0
 10
555.5880442002817
 20
-305.8136451292021
 30
0.0
 10
556.3829396999263
 20
-309.1762114697049
 30
0.0
  0
SPLINE
  5
6B
330
41
100
AcDbEntity
  8
Layer 1
 62
   156
420
  1785491
370
     9
100
AcDbSpline
210
0.0
220
0.0
230
1.0
 70
     8
 71
     3
 72
    20
 73
    16
 74
     0
 42
0.0000000001
 43
0.0000000001
 12
1.0
 22
0.0
 32
0.0
 13
1.0
 23
0.0
 33
0.0
 40
0.0
 40
0.0
 40
0.0
 40
0.0
 40
1.0
 40
1.0
 40
1.0
 40
2.0
 40
2.0
 40
2.0
 40
3.0
 40
3.0
 40
3.0
 40
4.0
 40
4.0
 40
4.0
 40
5.0
 40
5.0
 40
5.0
 40
5.0
 10
515.1855901598319
 20
-578.9890232879443
 30
0.0
 10
515.1855901598319
 20
-578.9890232879443
 30
0.0
 10
517.799028901185
 20
-552.9862022270754
 30
0.0
 10
518.1879033502955
 20
-535.3040640103391
 30
0.0
 10
518.5882088670205
 20
-517.6333568612172
 30
0.0
 10
519.749116680543
 20
-481.7715453912297
 30
0.0
 10
519.9549631576992
 20
-469.7966512772764
 30
0.0
 10
520.1494221972698
 20
-457.8103042806852
 30
0.0
 10
520.9328866292963
 20
-408.6525686765272
 30
0.0
 10
520.7384275897275
 20
-395.1507762501842
 30
0.0
 10
520.5440121801876
 20
-381.6318372224168
 30
0.0
 10
521.9793965065946
 20
-317.6513009867194
 30
0.0
 10
521.9793965065946
 20
-313.6310774030144
 30
0.0
 10
521.9793965065946
 20
-309.616547538104
 30
0.0
 10
521.5218920217558
 20
-253.224713148813
 30
0.0
 10
520.9328866292963
 20
-243.4400464942173
 30
0.0
  0
SPLINE
  5
6C
330
41
100
AcDbEntity
  8
Layer 1
 62
   156
420
  1785491
370
     9
100
AcDbSpline
210
0.0
220
0.0
230
1.0
 70
    11
 71
     3
 72
   236
 73
   232
 74
     0
 42
0.0000000001
 43
0.0000000001
 12
1.0
 22
0.0
 32
0.0
 13
1.0
 23
0.0
 33
0.0
 40
0.0
 40
0.0
 40
0.0
 40
0.0
 40
1.0
 40
1.0
 40
1.0
 40
2.0
 40
2.0
 40
2.0
 40
3.0
 40
3.0
 40
3.0
 40
4.0
 40
4.0
 40
4.0
 40
5.0
 40
5.0
 40
5.0
 40
6.0
 40
6.0
 40
6.0
 40
7.0
 40
7.0
 40
7.0
 40
8.0
 40
8.0
 40
8.0
 40
9.0
 40
9.0
 40
9.0
 40
10.0
 40
10.0
 40
10.0
 40
11.0
 40
11.0
 40
11.0
 40
12.0
 40
12.0
 40
12.0
 40
13.0
 40
13.0
 40
13.0
 40
14.0
 40
14.0
 40
14.0
 40
15.0
 40
15.0
 40
15.0
 40
16.0
 40
16.0
 40
16.0
 40
17.0
 40
17.0
 40
17.0
 40
18.0
 40
18.0
 40
18.0
 40
19.0
 40
19.0
 40
19.0
 40
20.0
 40
20.0
 40
20.0
 40
21.0
 40
21.0
 40
21.0
 40
22.0
 40
22.0
 40
22.0
 40
23.0
 40
23.0
 40
23.0
 40
24.0
 40
24.0
 40
24.0
 40
25.0
 40
25.0
 40
25.0
 40
26.0
 40
26.0
 40
26.0
 40
27.0
 40
27.0
 40
27.0
 40
28.0
 40
28.0
 40
28.0
 40
29.0
 40
29.0
 40
29.0
 40
30.0
 40
30.0
 40
30.0
 40
31.0
 40
31.0
 40
31.0
 40
32.0
 40
32.0
 40
32.0
 40
33.0
 40
33.0
 40
33.0
 40
34.0
 40
34.0
 40
34.0
 40
35.0
 40
35.0
 40
35.0
 40
36.0
 40
36.0
 40
36.0
 40
37.0
 40
37.0
 40
37.0
 40
38.0
 40
38.0
 40
38.0
 40
39.0
 40
39.0
 40
39.0
 40
40.0
 40
40.0
 40
40.0
 40
41.0
 40
41.0
 40
41.0
 40
42.0
 40
42.0
 40
42.0
 40
43.0
 40
43.0
 40
43.0
 40
44.0
 40
44.0
 40
44.0
 40
45.0
 40
45.0
 40
45.0
 40
46.0
 40
46.0
 40
46.0
 40
47.0
 40
47.0
 40
47.0
 40
48.0
 40
48.0
 40
48.0
 40
49.0
 40
49.0
 40
49.0
 40
50.0
 40
50.0
 40
50.0
 40
51.0
 40
51.0
 40
51.0
 40
52.0
 40
52.0
 40
52.0
 40
53.0
 40
53.0
 40
53.0
 40
54.0
 40
54.0
 40
54.0
 40
55.0
 40
55.0
 40
55.0
 40
56.0
 40
56.0
 40
56.0
 40
57.0
 40
57.0
 40
57.0
 40
58.0
 40
58.0
 40
58.0
 40
59.0
 40
59.0
 40
59.0
 40
60.0
 40
60.0
 40
60.0
 40
61.0
 40
61.0
 40
61.0
 40
62.0
 40
62.0
 40
62.0
 40
63.0
 40
63.0
 40
63.0
 40
64.0
 40
64.0
 40
64.0
 40
65.0
 40
65.0
 40
65.0
 40
66.0
 40
66.0
 40
66.0
 40
67.0
 40
67.0
 40
67.0
 40
68.0
 40
68.0
 40
68.0
 40
69.0
 40
69.0
 40
69.0
 40
70.0
 40
70.0
 40
70.0
 40
71.0
 40
71.0
 40
71.0
 40
72.0
 40
72.0
 40
72.0
 40
73.0
 40
73.0
 40
73.0
 40
74.0
 40
74.0
 40
74.0
 40
75.0
 40
75.0
 40
75.0
 40
76.0
 40
76.0
 40
76.0
 40
77.0
 40
77.0
 40
77.0
 40
77.0
 10
523.3747720963438
 20
-243.2513248034711
 30
0.0
 10
523.3747720963438
 20
-243.2513248034711
 30
0.0
 10
539.0953696510915
 20
-248.3981411828327
 30
0.0
 10
548.6855990811328
 20
-275.2187198785796
 30
0.0
 10
558.2758285111722
 20
-302.0336048555337
 30
0.0
 10
556.1599029913159
 20
-300.3237003862123
 30
0.0
 10
556.7375209461861
 20
-310.6173331449354
 30
0.0
 10
557.3150952710275
 20
-320.9223751562586
 30
0.0
 10
558.2758285111722
 20
-318.5548570737647
 30
0.0
 10
557.698254186329
 20
-324.7824765332734
 30
0.0
 10
557.1206362314588
 20
-331.0044022739876
 30
0.0
 10
556.1599029913159
 20
-333.3604892888652
 30
0.0
 10
555.7825032398505
 20
-334.6472042912128
 30
0.0
 10
555.3936287907418
 20
-335.933897478546
 30
0.0
 10
560.1915794576507
 20
-341.944217578266
 30
0.0
 10
558.0813694716016
 20
-348.8066321457427
 30
0.0
 10
555.9712031155832
 20
-355.6747622470284
 30
0.0
 10
554.8217263696788
 20
-355.4574628872397
 30
0.0
 10
554.8217263696788
 20
-355.4574628872397
 30
0.0
 10
554.8217263696788
 20
-355.4574628872397
 30
0.0
 10
554.2555831124537
 20
-357.2874371965654
 30
0.0
 10
554.118366671024
 20
-357.5790821258906
 30
0.0
 10
553.9868221333763
 20
-357.870727055215
 30
0.0
 10
554.0211153362252
 20
-358.2424549029001
 30
0.0
 10
554.0211153362252
 20
-358.9058276799115
 30
0.0
 10
554.0211153362252
 20
-359.5634631080984
 30
0.0
 10
554.0554521691047
 20
-360.1124597638991
 30
0.0
 10
554.0554521691047
 20
-360.8101257437584
 30
0.0
 10
554.0554521691047
 20
-361.5135290724411
 30
0.0
 10
553.9181920976462
 20
-361.2161686093077
 30
0.0
 10
553.9181920976462
 20
-361.8394890196314
 30
0.0
 10
553.9181920976462
 20
-362.4628312449677
 30
0.0
 10
554.0211153362252
 20
-363.1719501074585
 30
0.0
 10
554.0554521691047
 20
-363.532225072513
 30
0.0
 10
554.0897453719535
 20
-363.8982155713747
 30
0.0
 10
554.0211153362252
 20
-364.8132027260381
 30
0.0
 10
554.0211153362252
 20
-364.9962088829761
 30
0.0
 10
554.0211153362252
 20
-365.1791932248998
 30
0.0
 10
554.215574375794
 20
-366.1742632979222
 30
0.0
 10
554.0211153362252
 20
-366.3515321060377
 30
0.0
 10
553.8266999266853
 20
-366.5402537967839
 30
0.0
 10
555.5880442002817
 20
-367.5867636740822
 30
0.0
 10
555.6795363712445
 20
-368.6561575016267
 30
0.0
 10
555.7825032398505
 20
-369.7312668629802
 30
0.0
 10
556.3543620308847
 20
-370.0515112763605
 30
0.0
 10
556.3543620308847
 20
-370.5890768645449
 30
0.0
 10
556.3543620308847
 20
-371.126620637714
 30
0.0
 10
556.1599029913159
 20
-371.2295656913084
 30
0.0
 10
556.2571543261147
 20
-371.6584706920894
 30
0.0
 10
556.3543620308847
 20
-372.0873538778578
 30
0.0
 10
556.3543620308847
 20
-372.304675052661
 30
0.0
 10
556.6402696113873
 20
-372.836503292021
 30
0.0
 10
556.9319363557261
 20
-373.3740688802054
 30
0.0
 10
556.9319363557261
 20
-373.4884450014151
 30
0.0
 10
556.9319363557261
 20
-373.9058971195664
 30
0.0
 10
556.9319363557261
 20
-374.3405176541573
 30
0.0
 10
557.3150952710275
 20
-375.0896670683214
 30
0.0
 10
557.3150952710275
 20
-375.0896670683214
 30
0.0
 10
557.3150952710275
 20
-375.0896670683214
 30
0.0
 10
557.6067620153681
 20
-376.164776429674
 30
0.0
 10
557.6067620153681
 20
-376.164776429674
 30
0.0
 10
557.6067620153681
 20
-376.164776429674
 30
0.0
 10
558.1786208064023
 20
-377.6745063256194
 30
0.0
 10
557.9898773006407
 20
-378.309279618572
 30
0.0
 10
557.801177424908
 20
-378.9554839791435
 30
0.0
 10
557.698254186329
 20
-380.9970639294625
 30
0.0
 10
557.5095106805693
 20
-381.5346077026315
 30
0.0
 10
557.3150952710275
 20
-382.072173290816
 30
0.0
 10
557.1206362314588
 20
-382.1750965293941
 30
0.0
 10
557.0234285266888
 20
-382.9299614773663
 30
0.0
 10
556.9319363557261
 20
-383.6791108915304
 30
0.0
 10
556.9319363557261
 20
-384.1080158923123
 30
0.0
 10
556.8290131171489
 20
-384.531205359287
 30
0.0
 10
556.7375209461861
 20
-384.9601103600689
 30
0.0
 10
556.8290131171489
 20
-384.7542202528839
 30
0.0
 10
556.7375209461861
 20
-385.1774097198577
 30
0.0
 10
556.6402696113873
 20
-385.6063147206414
 30
0.0
 10
556.2571543261147
 20
-385.8121830128111
 30
0.0
 10
556.1599029913159
 20
-386.2525190812103
 30
0.0
 10
556.0626952865459
 20
-386.675708548185
 30
0.0
 10
556.3543620308847
 20
-387.9738328031344
 30
0.0
 10
556.4458542018474
 20
-388.6086060960888
 30
0.0
 10
556.5487774404246
 20
-389.2548322716739
 30
0.0
 10
556.5487774404246
 20
-389.4778471652698
 30
0.0
 10
556.6402696113873
 20
-390.1126204582251
 30
0.0
 10
556.7375209461861
 20
-390.7531092849867
 30
0.0
 10
556.7375209461861
 20
-392.9033498227072
 30
0.0
 10
556.5487774404246
 20
-393.6524774218569
 30
0.0
 10
556.3543620308847
 20
-394.401626836021
 30
0.0
 10
556.6402696113873
 20
-394.9391924242045
 30
0.0
 10
556.9319363557261
 20
-395.4767361973736
 30
0.0
 10
557.2178875662576
 20
-396.014301785558
 30
0.0
 10
557.8869540620617
 20
-396.4374912525327
 30
0.0
 10
557.8869540620617
 20
-397.729899973674
 30
0.0
 10
557.8869540620617
 20
-399.0223196023217
 30
0.0
 10
557.9898773006407
 20
-399.3368484818948
 30
0.0
 10
557.9898773006407
 20
-399.3368484818948
 30
0.0
 10
557.9898773006407
 20
-399.3368484818948
 30
0.0
 10
558.3730362159422
 20
-402.6593951782324
 30
0.0
 10
557.801177424908
 20
-405.7817891162058
 30
0.0
 10
557.2178875662576
 20
-408.8813100114394
 30
0.0
 10
557.5095106805693
 20
-409.424591133431
 30
0.0
 10
557.0234285266888
 20
-410.3853243735757
 30
0.0
 10
556.5487774404246
 20
-411.357499588843
 30
0.0
 10
559.4252616270478
 20
-418.7574688369959
 30
0.0
 10
558.6532718926646
 20
-427.0152262717002
 30
0.0
 10
557.8869540620617
 20
-435.2787101477188
 30
0.0
 10
557.9898773006407
 20
-431.0869332897091
 30
0.0
 10
557.9898773006407
 20
-431.0869332897091
 30
0.0
 10
557.9898773006407
 20
-431.0869332897091
 30
0.0
 10
559.0421463417752
 20
-447.0763354535629
 30
0.0
 10
559.0421463417752
 20
-448.5803498157002
 30
0.0
 10
559.0421463417752
 20
-450.0900797116428
 30
0.0
 10
559.4252616270478
 20
-471.5408271344331
 30
0.0
 10
559.2308462175079
 20
-475.3952347926479
 30
0.0
 10
559.0421463417752
 20
-479.26105170347
 30
0.0
 10
553.2891343385018
 20
-510.8052573116038
 30
0.0
 10
549.8350758270371
 20
-521.1046056041341
 30
0.0
 10
546.3809736855437
 20
-531.3982165478428
 30
0.0
 10
537.1739031708057
 20
-557.360985242025
 30
0.0
 10
528.9332814300178
 20
-570.4396100164086
 30
0.0
 10
520.6812722516443
 20
-583.5410969260247
 30
0.0
 10
516.8554422624657
 20
-579.8868638411823
 30
0.0
 10
516.0891680618915
 20
-579.8868638411823
 30
0.0
 10
515.3171346974814
 20
-579.8868638411823
 30
0.0
 10
512.4463660446672
 20
-580.3214843757742
 30
0.0
 10
509.569881858044
 20
-577.7423606522843
 30
0.0
 10
506.6876385075848
 20
-575.1632369287963
 30
0.0
 10
490.1950075884233
 20
-550.7158918493515
 30
0.0
 10
485.7916032744033
 20
-525.6109113417187
 30
0.0
 10
481.3768115227958
 20
-500.5059308340878
 30
0.0
 10
477.5395504660009
 20
-495.5649827468987
 30
0.0
 10
477.1564351807283
 20
-480.542029356995
 30
0.0
 10
476.7732762654268
 20
-465.5362225685203
 30
0.0
 10
477.1564351807283
 20
-457.8103042806852
 30
0.0
 10
477.7282939717625
 20
-455.6600855579782
 30
0.0
 10
478.3115838304111
 20
-453.5098450202586
 30
0.0
 10
478.5060428699817
 20
-449.8670648180469
 30
0.0
 10
478.5060428699817
 20
-449.8670648180469
 30
0.0
 10
478.5060428699817
 20
-449.8670648180469
 30
0.0
 10
478.8891581552543
 20
-439.1445488735553
 30
0.0
 10
480.0329193673497
 20
-437.2116295106389
 30
0.0
 10
481.1823524832253
 20
-435.2787101477188
 30
0.0
 10
480.0042980682792
 20
-432.9798002859388
 30
0.0
 10
480.7820469665003
 20
-429.9088788747613
 30
0.0
 10
481.5655113985267
 20
-426.8493885312018
 30
0.0
 10
480.0042980682792
 20
-417.3563886209467
 30
0.0
 10
480.9822215398781
 20
-413.5477488632223
 30
0.0
 10
481.9543858476372
 20
-409.7562666144304
 30
0.0
 10
482.7435658134746
 20
-408.6582842103362
 30
0.0
 10
482.7435658134746
 20
-408.6582842103362
 30
0.0
 10
482.7435658134746
 20
-408.6582842103362
 30
0.0
 10
479.6154672491994
 20
-401.2811989124293
 30
0.0
 10
480.7820469665003
 20
-397.5583466993667
 30
0.0
 10
481.9543858476372
 20
-393.8240525111787
 30
0.0
 10
482.5491504039328
 20
-392.657429163849
 30
0.0
 10
483.5270302455028
 20
-390.9132314916769
 30
0.0
 10
484.499194553262
 20
-389.1576027518904
 30
0.0
 10
484.5735401227994
 20
-389.3749239266917
 30
0.0
 10
484.7679555323393
 20
-388.4999673237016
 30
0.0
 10
484.9624145719099
 20
-387.6250107207125
 30
0.0
 10
484.9624145719099
 20
-386.9673534775102
 30
0.0
 10
484.9624145719099
 20
-386.9673534775102
 30
0.0
 10
484.9624145719099
 20
-386.9673534775102
 30
0.0
 10
484.7679555323393
 20
-387.9166556500368
 30
0.0
 10
484.7679555323393
 20
-385.8636446321016
 30
0.0
 10
484.7679555323393
 20
-383.8220864967952
 30
0.0
 10
484.9624145719099
 20
-382.2894726506038
 30
0.0
 10
484.9624145719099
 20
-382.2894726506038
 30
0.0
 10
484.9624145719099
 20
-382.2894726506038
 30
0.0
 10
484.9624145719099
 20
-380.9741799792164
 30
0.0
 10
484.9624145719099
 20
-380.9741799792164
 30
0.0
 10
484.9624145719099
 20
-380.0992233762254
 30
0.0
 10
484.499194553262
 20
-379.9619851197822
 30
0.0
 10
484.499194553262
 20
-378.7896462386443
 30
0.0
 10
484.499194553262
 20
-378.7896462386443
 30
0.0
 10
484.499194553262
 20
-376.7423725695307
 30
0.0
 10
484.499194553262
 20
-376.7423725695307
 30
0.0
 10
484.499194553262
 20
-376.7423725695307
 30
0.0
 10
483.1381557963923
 20
-374.5463859463289
 30
0.0
 10
482.7435658134746
 20
-373.2425461575713
 30
0.0
 10
482.348975830555
 20
-371.9158006035505
 30
0.0
 10
482.5491504039328
 20
-369.4339063998468
 30
0.0
 10
483.5270302455028
 20
-368.7762491566446
 30
0.0
 10
484.499194553262
 20
-368.1243292622657
 30
0.0
 10
483.8529901926922
 20
-367.7526014145806
 30
0.0
 10
484.3162102113383
 20
-366.1513793476752
 30
0.0
 10
484.3162102113383
 20
-366.1513793476752
 30
0.0
 10
484.7679555323393
 20
-364.5387043981373
 30
0.0
 10
484.7679555323393
 20
-364.5387043981373
 30
0.0
 10
484.7679555323393
 20
-364.5387043981373
 30
0.0
 10
485.1625455152571
 20
-363.223411726749
 30
0.0
 10
485.1625455152571
 20
-363.223411726749
 30
0.0
 10
485.1625455152571
 20
-363.223411726749
 30
0.0
 10
485.3512890210186
 20
-360.4613036613364
 30
0.0
 10
485.1625455152571
 20
-359.0659498866007
 30
0.0
 10
484.9624145719099
 20
-357.6705742968516
 30
0.0
 10
484.9624145719099
 20
-357.0186544024727
 30
0.0
 10
484.9624145719099
 20
-357.0186544024727
 30
0.0
 10
484.9624145719099
 20
-357.0186544024727
 30
0.0
 10
485.2254600171782
 20
-356.3667345080939
 30
0.0
 10
484.7679555323393
 20
-355.7033617310844
 30
0.0
 10
484.3162102113383
 20
-355.039988954074
 30
0.0
 10
484.499194553262
 20
-352.8554552135029
 30
0.0
 10
484.3162102113383
 20
-352.1978197853159
 30
0.0
 10
484.1160356379605
 20
-351.5344470083064
 30
0.0
 10
483.9159046946115
 20
-350.1505243011879
 30
0.0
 10
483.9159046946115
 20
-350.1505243011879
 30
0.0
 10
483.9159046946115
 20
-350.1505243011879
 30
0.0
 10
483.3325712059323
 20
-348.6179104549974
 30
0.0
 10
483.1381557963923
 20
-346.4276611806172
 30
0.0
 10
482.9379812230145
 20
-344.2374119062388
 30
0.0
 10
483.3325712059323
 20
-339.9941516139224
 30
0.0
 10
483.72716118885
 20
-339.1249105447414
 30
0.0
 10
484.1160356379605
 20
-338.2499539417513
 30
0.0
 10
484.3162102113383
 20
-337.2949362354157
 30
0.0
 10
484.1160356379605
 20
-336.4142640986174
 30
0.0
 10
483.9159046946115
 20
-335.5393074956282
 30
0.0
 10
480.9822215398781
 20
-325.605971516974
 30
0.0
 10
481.5655113985267
 20
-318.3089364149064
 30
0.0
 10
482.154560421015
 20
-310.9947547114134
 30
0.0
 10
482.348975830555
 20
-312.098463556822
 30
0.0
 10
482.348975830555
 20
-312.098463556822
 30
0.0
 10
482.348975830555
 20
-312.098463556822
 30
0.0
 10
482.348975830555
 20
-291.276773893178
 30
0.0
 10
488.2906877095611
 20
-279.9595152074062
 30
0.0
 10
494.2381151223763
 20
-268.6365409878254
 30
0.0
 10
503.6681787156958
 20
-244.6867309448926
 30
0.0
 10
518.5882088670205
 20
-243.6516521352123
 30
0.0
 10
524.9130796613281
 20
-243.2170316006213
 30
0.0
 10
523.3747720963438
 20
-243.2513248034711
 30
0.0
 10
523.3747720963438
 20
-243.2513248034711
 30
0.0
  0
POLYLINE
  5
6D
330
41
100
AcDbEntity
  8
Layer 1
 62
   156
420
  1785491
370
     9
100
AcDb2dPolyline
 66
     1
 10
0.0
 20
0.0
 30
0.0
  0
VERTEX
  5
6E
330
6D
100
AcDbEntity
  8
Layer 1
 62
   156
420
  1785491
370
     9
100
AcDbVertex
100
AcDb2dVertex
 10
286.1377979236158
 20
-375.8685503472971
 30
0.0
  0
VERTEX
  5
6F
330
6D
100
AcDbEntity
  8
Layer 1
 62
   156
420
  1785491
370
     9
100
AcDbVertex
100
AcDb2dVertex
 10
48.31525422321829
 20
-375.8685503472971
 30
0.0
  0
VERTEX
  5
70
330
6D
100
AcDbEntity
  8
Layer 1
 62
   156
420
  1785491
370
     9
100
AcDbVertex
100
AcDb2dVertex
 10
48.31525422321829
 20
-392.795823616063
 30
0.0
  0
VERTEX
  5
71
330
6D
100
AcDbEntity
  8
Layer 1
 62
   156
420
  1785491
370
     9
100
AcDbVertex
100
AcDb2dVertex
 10
286.1377979236158
 20
-392.795823616063
 30
0.0
  0
VERTEX
  5
72
330
6D
100
AcDbEntity
  8
Layer 1
 62
   156
420
  1785491
370
     9
100
AcDbVertex
100
AcDb2dVertex
 10
286.1377979236158
 20
-375.8685503472971
 30
0.0
  0
SEQEND
  5
73
330
6D
100
AcDbEntity
  8
Layer 1
 62
   156
420
  1785491
370
     9
  0
SPLINE
  5
74
330
41
100
AcDbEntity
  8
Layer 1
 62
   156
420
  1785491
370
     9
100
AcDbSpline
210
0.0
220
0.0
230
1.0
 70
     8
 71
     3
 72
    11
 73
     7
 74
     0
 42
0.0000000001
 43
0.0000000001
 12
1.0
 22
0.0
 32
0.0
 13
1.0
 23
0.0
 33
0.0
 40
0.0
 40
0.0
 40
0.0
 40
0.0
 40
1.0
 40
1.0
 40
1.0
 40
2.0
 40
2.0
 40
2.0
 40
2.0
 10
216.6558967848177
 20
-574.3180141906178
 30
0.0
 10
216.6558967848177
 20
-574.3180141906178
 30
0.0
 10
235.1958340956135
 20
-526.5727898701261
 30
0.0
 10
247.0049122840883
 20
-500.5585377416392
 30
0.0
 10
258.825399725165
 20
-474.5671586558947
 30
0.0
 10
293.7379308376394
 20
-404.3932961635428
 30
0.0
 10
293.7379308376394
 20
-404.3932961635428
 30
0.0
  0
SPLINE
  5
75
330
41
100
AcDbEntity
  8
Layer 1
 62
   156
420
  1785491
370
     9
100
AcDbSpline
210
0.0
220
0.0
230
1.0
 70
     8
 71
     3
 72
     8
 73
     4
 74
     0
 42
0.0000000001
 43
0.0000000001
 12
1.0
 22
0.0
 32
0.0
 13
1.0
 23
0.0
 33
0.0
 40
0.0
 40
0.0
 40
0.0
 40
0.0
 40
1.0
 40
1.0
 40
1.0
 40
1.0
 10
258.825399725165
 20
-573.4201736373798
 30
0.0
 10
258.825399725165
 20
-573.4201736373798
 30
0.0
 10
262.9657367789023
 20
-515.0096323405105
 30
0.0
 10
301.7097479693202
 20
-404.3932961635428
 30
0.0
  0
SPLINE
  5
76
330
41
100
AcDbEntity
  8
Layer 1
 62
   156
420
  1785491
370
     9
100
AcDbSpline
210
0.0
220
0.0
230
1.0
 70
     8
 71
     3
 72
     8
 73
     4
 74
     0
 42
0.0000000001
 43
0.0000000001
 12
1.0
 22
0.0
 32
0.0
 13
1.0
 23
0.0
 33
0.0
 40
0.0
 40
0.0
 40
0.0
 40
0.0
 40
1.0
 40
1.0
 40
1.0
 40
1.0
 10
276.8449507717232
 20
-568.8166383800108
 30
0.0
 10
277.2624247048898
 20
-565.5627108118952
 30
0.0
 10
294.6700645937271
 20
-433.6557603263354
 30
0.0
 10
304.7177766935911
 20
-405.4055019304833
 30
0.0
  0
SPLINE
  5
77
330
41
100
AcDbEntity
  8
Layer 1
 62
   156
420
  1785491
370
     9
100
AcDbSpline
210
0.0
220
0.0
230
1.0
 70
     8
 71
     3
 72
     8
 73
     4
 74
     0
 42
0.0000000001
 43
0.0000000001
 12
1.0
 22
0.0
 32
0.0
 13
1.0
 23
0.0
 33
0.0
 40
0.0
 40
0.0
 40
0.0
 40
0.0
 40
1.0
 40
1.0
 40
1.0
 40
1.0
 10
368.6353984273683
 20
-483.1852019631588
 30
0.0
 10
368.6353984273683
 20
-483.1852019631588
 30
0.0
 10
328.6447246012904
 20
-423.5680176747992
 30
0.0
 10
321.9138327564488
 20
-393.5278264288008
 30
0.0
  0
SPLINE
  5
78
330
41
100
AcDbEntity
  8
Layer 1
 62
   156
420
  1785491
370
     9
100
AcDbSpline
210
0.0
220
0.0
230
1.0
 70
     8
 71
     3
 72
     8
 73
     4
 74
     0
 42
0.0000000001
 43
0.0000000001
 12
1.0
 22
0.0
 32
0.0
 13
1.0
 23
0.0
 33
0.0
 40
0.0
 40
0.0
 40
0.0
 40
0.0
 40
1.0
 40
1.0
 40
1.0
 40
1.0
 10
383.7555813370564
 20
-459.9845413343955
 30
0.0
 10
383.7555813370564
 20
-459.9845413343955
 30
0.0
 10
343.2502040580293
 20
-425.0663055956211
 30
0.0
 10
323.9839903758093
 20
-388.5583006725701
 30
0.0
  0
SPLINE
  5
79
330
41
100
AcDbEntity
  8
Layer 1
 62
   156
420
  1785491
370
     9
100
AcDbSpline
210
0.0
220
0.0
230
1.0
 70
     8
 71
     3
 72
     8
 73
     4
 74
     0
 42
0.0000000001
 43
0.0000000001
 12
1.0
 22
0.0
 32
0.0
 13
1.0
 23
0.0
 33
0.0
 40
0.0
 40
0.0
 40
0.0
 40
0.0
 40
1.0
 40
1.0
 40
1.0
 40
1.0
 10
393.9119540243228
 20
-434.4392138508574
 30
0.0
 10
393.9119540243228
 20
-434.4392138508574
 30
0.0
 10
360.7722200680764
 20
-425.026275043947
 30
0.0
 10
325.3335980650627
 20
-384.8983302389042
 30
0.0
  0
SPLINE
  5
7A
330
41
100
AcDbEntity
  8
Layer 1
 62
   156
420
  1785491
370
     9
100
AcDbSpline
210
0.0
220
0.0
230
1.0
 70
     8
 71
     3
 72
     8
 73
     4
 74
     0
 42
0.0000000001
 43
0.0000000001
 12
1.0
 22
0.0
 32
0.0
 13
1.0
 23
0.0
 33
0.0
 40
0.0
 40
0.0
 40
0.0
 40
0.0
 40
1.0
 40
1.0
 40
1.0
 40
1.0
 10
403.5536450736508
 20
-393.5335419626099
 30
0.0
 10
403.5536450736508
 20
-393.5335419626099
 30
0.0
 10
362.7280233812417
 20
-391.2860937201194
 30
0.0
 10
327.8212296175898
 20
-378.5105885727062
 30
0.0
  0
SPLINE
  5
7B
330
41
100
AcDbEntity
  8
Layer 1
 62
   156
420
  1785491
370
     9
100
AcDbSpline
210
0.0
220
0.0
230
1.0
 70
     8
 71
     3
 72
     8
 73
     4
 74
     0
 42
0.0000000001
 43
0.0000000001
 12
1.0
 22
0.0
 32
0.0
 13
1.0
 23
0.0
 33
0.0
 40
0.0
 40
0.0
 40
0.0
 40
0.0
 40
1.0
 40
1.0
 40
1.0
 40
1.0
 10
406.5616519829091
 20
-366.1696821448704
 30
0.0
 10
406.5616519829091
 20
-366.1696821448704
 30
0.0
 10
373.7135847710015
 20
-377.9444235004667
 30
0.0
 10
326.5802825157389
 20
-373.9127688491453
 30
0.0
  0
SPLINE
  5
7C
330
41
100
AcDbEntity
  8
Layer 1
 62
   156
420
  1785491
370
     9
100
AcDbSpline
210
0.0
220
0.0
230
1.0
 70
     8
 71
     3
 72
     8
 73
     4
 74
     0
 42
0.0000000001
 43
0.0000000001
 12
1.0
 22
0.0
 32
0.0
 13
1.0
 23
0.0
 33
0.0
 40
0.0
 40
0.0
 40
0.0
 40
0.0
 40
1.0
 40
1.0
 40
1.0
 40
1.0
 10
405.3149893472473
 20
-342.076896496671
 30
0.0
 10
405.3149893472473
 20
-342.076896496671
 30
0.0
 10
374.2396974765543
 20
-359.4559587164676
 30
0.0
 10
325.7510719982292
 20
-370.3271658000322
 30
0.0
  0
SPLINE
  5
7D
330
41
100
AcDbEntity
  8
Layer 1
 62
   156
420
  1785491
370
     9
100
AcDbSpline
210
0.0
220
0.0
230
1.0
 70
     8
 71
     3
 72
     8
 73
     4
 74
     0
 42
0.0000000001
 43
0.0000000001
 12
1.0
 22
0.0
 32
0.0
 13
1.0
 23
0.0
 33
0.0
 40
0.0
 40
0.0
 40
0.0
 40
0.0
 40
1.0
 40
1.0
 40
1.0
 40
1.0
 10
395.1586166599827
 20
-315.1819722313867
 30
0.0
 10
395.1586166599827
 20
-315.1819722313867
 30
0.0
 10
359.1081053142643
 20
-331.5431022429284
 30
0.0
 10
324.5101030813621
 20
-367.525005367932
 30
0.0
  0
SPLINE
  5
7E
330
41
100
AcDbEntity
  8
Layer 1
 62
   156
420
  1785491
370
     9
100
AcDbSpline
210
0.0
220
0.0
230
1.0
 70
     8
 71
     3
 72
     8
 73
     4
 74
     0
 42
0.0000000001
 43
0.0000000001
 12
1.0
 22
0.0
 32
0.0
 13
1.0
 23
0.0
 33
0.0
 40
0.0
 40
0.0
 40
0.0
 40
0.0
 40
1.0
 40
1.0
 40
1.0
 40
1.0
 10
382.9320863533558
 20
-293.3309192918714
 30
0.0
 10
382.9320863533558
 20
-293.3309192918714
 30
0.0
 10
360.1431841239446
 20
-308.010744318145
 30
0.0
 10
322.7430432739584
 20
-362.1437212123428
 30
0.0
  0
SPLINE
  5
7F
330
41
100
AcDbEntity
  8
Layer 1
 62
   156
420
  1785491
370
     9
100
AcDbSpline
210
0.0
220
0.0
230
1.0
 70
     8
 71
     3
 72
     8
 73
     4
 74
     0
 42
0.0000000001
 43
0.0000000001
 12
1.0
 22
0.0
 32
0.0
 13
1.0
 23
0.0
 33
0.0
 40
0.0
 40
0.0
 40
0.0
 40
0.0
 40
1.0
 40
1.0
 40
1.0
 40
1.0
 10
362.7280233812417
 20
-272.818021158977
 30
0.0
 10
362.7280233812417
 20
-272.818021158977
 30
0.0
 10
341.8091041978132
 20
-305.0942295798504
 30
0.0
 10
319.4319385527451
 20
-359.7933497312733
 30
0.0
  0
SPLINE
  5
80
330
41
100
AcDbEntity
  8
Layer 1
 62
   156
420
  1785491
370
     9
100
AcDbSpline
210
0.0
220
0.0
230
1.0
 70
     8
 71
     3
 72
     8
 73
     4
 74
     0
 42
0.0000000001
 43
0.0000000001
 12
1.0
 22
0.0
 32
0.0
 13
1.0
 23
0.0
 33
0.0
 40
0.0
 40
0.0
 40
0.0
 40
0.0
 40
1.0
 40
1.0
 40
1.0
 40
1.0
 10
345.537682852193
 20
-261.054710870998
 30
0.0
 10
345.537682852193
 20
-261.054710870998
 30
0.0
 10
321.8051721690481
 20
-316.5201488530238
 30
0.0
 10
316.8356464128155
 20
-357.5516388376054
 30
0.0
  0
SPLINE
  5
81
330
41
100
AcDbEntity
  8
Layer 1
 62
   156
420
  1785491
370
     9
100
AcDbSpline
210
0.0
220
0.0
230
1.0
 70
     8
 71
     3
 72
     8
 73
     4
 74
     0
 42
0.0000000001
 43
0.0000000001
 12
1.0
 22
0.0
 32
0.0
 13
1.0
 23
0.0
 33
0.0
 40
0.0
 40
0.0
 40
0.0
 40
0.0
 40
1.0
 40
1.0
 40
1.0
 40
1.0
 10
320.2611272552385
 20
-250.9555153368292
 30
0.0
 10
320.2611272552385
 20
-250.9555153368292
 30
0.0
 10
306.7879343129516
 20
-326.6193225721763
 30
0.0
 10
313.1070677584376
 20
-355.7559795461439
 30
0.0
  0
SPLINE
  5
82
330
41
100
AcDbEntity
  8
Layer 1
 62
   156
420
  1785491
370
     9
100
AcDbSpline
210
0.0
220
0.0
230
1.0
 70
     8
 71
     3
 72
     8
 73
     4
 74
     0
 42
0.0000000001
 43
0.0000000001
 12
1.0
 22
0.0
 32
0.0
 13
1.0
 23
0.0
 33
0.0
 40
0.0
 40
0.0
 40
0.0
 40
0.0
 40
1.0
 40
1.0
 40
1.0
 40
1.0
 10
276.8449507717232
 20
-248.2734683747622
 30
0.0
 10
276.8449507717232
 20
-248.2734683747622
 30
0.0
 10
281.2025871852484
 20
-306.5582133903135
 30
0.0
 10
304.7177766935911
 20
-356.2077466821593
 30
0.0
  0
SPLINE
  5
83
330
41
100
AcDbEntity
  8
Layer 1
 62
   156
420
  1785491
370
     9
100
AcDbSpline
210
0.0
220
0.0
230
1.0
 70
     8
 71
     3
 72
     8
 73
     4
 74
     0
 42
0.0000000001
 43
0.0000000001
 12
1.0
 22
0.0
 32
0.0
 13
1.0
 23
0.0
 33
0.0
 40
0.0
 40
0.0
 40
0.0
 40
0.0
 40
1.0
 40
1.0
 40
1.0
 40
1.0
 10
256.6408659845947
 20
-256.451175613628
 30
0.0
 10
256.6408659845947
 20
-256.451175613628
 30
0.0
 10
290.312428180202
 20
-345.3365395985948
 30
0.0
 10
300.8805374518106
 20
-356.2077466821593
 30
0.0
  0
SPLINE
  5
84
330
41
100
AcDbEntity
  8
Layer 1
 62
   156
420
  1785491
370
     9
100
AcDbSpline
210
0.0
220
0.0
230
1.0
 70
     8
 71
     3
 72
     8
 73
     4
 74
     0
 42
0.0000000001
 43
0.0000000001
 12
1.0
 22
0.0
 32
0.0
 13
1.0
 23
0.0
 33
0.0
 40
0.0
 40
0.0
 40
0.0
 40
0.0
 40
1.0
 40
1.0
 40
1.0
 40
1.0
 10
236.4425185462878
 20
-268.3345775566249
 30
0.0
 10
236.4425185462878
 20
-268.3345775566249
 30
0.0
 10
255.5085794701445
 20
-309.6920493034104
 30
0.0
 10
298.8160953662573
 20
-358.4437420420199
 30
0.0
  0
SPLINE
  5
85
330
41
100
AcDbEntity
  8
Layer 1
 62
   156
420
  1785491
370
     9
100
AcDbSpline
210
0.0
220
0.0
230
1.0
 70
     8
 71
     3
 72
     8
 73
     4
 74
     0
 42
0.0000000001
 43
0.0000000001
 12
1.0
 22
0.0
 32
0.0
 13
1.0
 23
0.0
 33
0.0
 40
0.0
 40
0.0
 40
0.0
 40
0.0
 40
1.0
 40
1.0
 40
1.0
 40
1.0
 10
220.4874095852829
 20
-280.9900128640347
 30
0.0
 10
220.4874095852829
 20
-280.9900128640347
 30
0.0
 10
249.0807854372579
 20
-327.8431230726037
 30
0.0
 10
296.6372989745096
 20
-361.1315263529104
 30
0.0
  0
SPLINE
  5
86
330
41
100
AcDbEntity
  8
Layer 1
 62
   156
420
  1785491
370
     9
100
AcDbSpline
210
0.0
220
0.0
230
1.0
 70
     8
 71
     3
 72
     8
 73
     4
 74
     0
 42
0.0000000001
 43
0.0000000001
 12
1.0
 22
0.0
 32
0.0
 13
1.0
 23
0.0
 33
0.0
 40
0.0
 40
0.0
 40
0.0
 40
0.0
 40
1.0
 40
1.0
 40
1.0
 40
1.0
 10
182.5668824710583
 20
-359.3415825952579
 30
0.0
 10
182.5668824710583
 20
-359.3415825952579
 30
0.0
 10
240.2740204392458
 20
-378.3847595688658
 30
0.0
 10
288.2422705608406
 20
-374.7991565197517
 30
0.0
  0
SPLINE
  5
87
330
41
100
AcDbEntity
  8
Layer 1
 62
   156
420
  1785491
370
     9
100
AcDbSpline
210
0.0
220
0.0
230
1.0
 70
     8
 71
     3
 72
     8
 73
     4
 74
     0
 42
0.0000000001
 43
0.0000000001
 12
1.0
 22
0.0
 32
0.0
 13
1.0
 23
0.0
 33
0.0
 40
0.0
 40
0.0
 40
0.0
 40
0.0
 40
1.0
 40
1.0
 40
1.0
 40
1.0
 10
206.1907216592954
 20
-300.159018841483
 30
0.0
 10
206.1907216592954
 20
-300.159018841483
 30
0.0
 10
245.3579223166871
 20
-343.5408803071341
 30
0.0
 10
293.3147413706656
 20
-362.5955101633735
 30
0.0
  0
SPLINE
  5
88
330
41
100
AcDbEntity
  8
Layer 1
 62
   156
420
  1785491
370
     9
100
AcDbSpline
210
0.0
220
0.0
230
1.0
 70
     8
 71
     3
 72
     8
 73
     4
 74
     0
 42
0.0000000001
 43
0.0000000001
 12
1.0
 22
0.0
 32
0.0
 13
1.0
 23
0.0
 33
0.0
 40
0.0
 40
0.0
 40
0.0
 40
0.0
 40
1.0
 40
1.0
 40
1.0
 40
1.0
 10
186.9874115714892
 20
-350.0887659950386
 30
0.0
 10
186.9874115714892
 20
-350.0887659950386
 30
0.0
 10
257.7903209154847
 20
-373.8212766781844
 30
0.0
 10
289.4374715772119
 20
-371.9398189345538
 30
0.0
  0
SPLINE
  5
89
330
41
100
AcDbEntity
  8
Layer 1
 62
   156
420
  1785491
370
     9
100
AcDbSpline
210
0.0
220
0.0
230
1.0
 70
     8
 71
     3
 72
     8
 73
     4
 74
     0
 42
0.0000000001
 43
0.0000000001
 12
1.0
 22
0.0
 32
0.0
 13
1.0
 23
0.0
 33
0.0
 40
0.0
 40
0.0
 40
0.0
 40
0.0
 40
1.0
 40
1.0
 40
1.0
 40
1.0
 10
201.8959997476904
 20
-312.7229401629156
 30
0.0
 10
201.8959997476904
 20
-312.7229401629156
 30
0.0
 10
255.274111693916
 20
-360.2851692339755
 30
0.0
 10
292.9944969572844
 20
-364.3454233693528
 30
0.0
  0
SPLINE
  5
8A
330
41
100
AcDbEntity
  8
Layer 1
 62
   156
420
  1785491
370
     9
100
AcDbSpline
210
0.0
220
0.0
230
1.0
 70
     8
 71
     3
 72
     8
 73
     4
 74
     0
 42
0.0000000001
 43
0.0000000001
 12
1.0
 22
0.0
 32
0.0
 13
1.0
 23
0.0
 33
0.0
 40
0.0
 40
0.0
 40
0.0
 40
0.0
 40
1.0
 40
1.0
 40
1.0
 40
1.0
 10
227.3898547044319
 20
-276.294985435703
 30
0.0
 10
227.3898547044319
 20
-276.294985435703
 30
0.0
 10
270.1941418452407
 20
-341.1447627405832
 30
0.0
 10
297.9926221975711
 20
-360.1879397141911
 30
0.0
  0
SPLINE
  5
8B
330
41
100
AcDbEntity
  8
Layer 1
 62
   156
420
  1785491
370
     9
100
AcDbSpline
210
0.0
220
0.0
230
1.0
 70
     8
 71
     3
 72
     8
 73
     4
 74
     0
 42
0.0000000001
 43
0.0000000001
 12
1.0
 22
0.0
 32
0.0
 13
1.0
 23
0.0
 33
0.0
 40
0.0
 40
0.0
 40
0.0
 40
0.0
 40
1.0
 40
1.0
 40
1.0
 40
1.0
 10
307.3312154349442
 20
-250.5952403717756
 30
0.0
 10
307.3312154349442
 20
-250.5952403717756
 30
0.0
 10
304.437562831883
 20
-331.7604016027153
 30
0.0
 10
311.1741702105337
 20
-355.8017256316252
 30
0.0
  0
SPLINE
  5
8C
330
41
100
AcDbEntity
  8
Layer 1
 62
   156
420
  1785491
370
     9
100
AcDbSpline
210
0.0
220
0.0
230
1.0
 70
     8
 71
     3
 72
     8
 73
     4
 74
     0
 42
0.0000000001
 43
0.0000000001
 12
1.0
 22
0.0
 32
0.0
 13
1.0
 23
0.0
 33
0.0
 40
0.0
 40
0.0
 40
0.0
 40
0.0
 40
1.0
 40
1.0
 40
1.0
 40
1.0
 10
352.4458435051511
 20
-267.1336610064463
 30
0.0
 10
352.4458435051511
 20
-267.1336610064463
 30
0.0
 10
323.1890948761647
 20
-329.4843756911823
 30
0.0
 10
319.0602107050599
 20
-359.5646193038683
 30
0.0
  0
SPLINE
  5
8D
330
41
100
AcDbEntity
  8
Layer 1
 62
   156
420
  1785491
370
     9
100
AcDbSpline
210
0.0
220
0.0
230
1.0
 70
     8
 71
     3
 72
     8
 73
     4
 74
     0
 42
0.0000000001
 43
0.0000000001
 12
1.0
 22
0.0
 32
0.0
 13
1.0
 23
0.0
 33
0.0
 40
0.0
 40
0.0
 40
0.0
 40
0.0
 40
1.0
 40
1.0
 40
1.0
 40
1.0
 10
386.6892644917916
 20
-303.8761446132312
 30
0.0
 10
386.6892644917916
 20
-303.8761446132312
 30
0.0
 10
340.3336893197338
 20
-347.578272307278
 30
0.0
 10
323.972559308193
 20
-364.6599522489259
 30
0.0
  0
SPLINE
  5
8E
330
41
100
AcDbEntity
  8
Layer 1
 62
   156
420
  1785491
370
     9
100
AcDbSpline
210
0.0
220
0.0
230
1.0
 70
     8
 71
     3
 72
     8
 73
     4
 74
     0
 42
0.0000000001
 43
0.0000000001
 12
1.0
 22
0.0
 32
0.0
 13
1.0
 23
0.0
 33
0.0
 40
0.0
 40
0.0
 40
0.0
 40
0.0
 40
1.0
 40
1.0
 40
1.0
 40
1.0
 10
405.3607354327287
 20
-355.1840989400953
 30
0.0
 10
405.3607354327287
 20
-355.1840989400953
 30
0.0
 10
370.0422050847337
 20
-371.3164767092167
 30
0.0
 10
326.6603436190835
 20
-372.254347814127
 30
0.0
  0
SPLINE
  5
8F
330
41
100
AcDbEntity
  8
Layer 1
 62
   156
420
  1785491
370
     9
100
AcDbSpline
210
0.0
220
0.0
230
1.0
 70
     8
 71
     3
 72
    11
 73
     7
 74
     0
 42
0.0000000001
 43
0.0000000001
 12
1.0
 22
0.0
 32
0.0
 13
1.0
 23
0.0
 33
0.0
 40
0.0
 40
0.0
 40
0.0
 40
0.0
 40
1.0
 40
1.0
 40
1.0
 40
2.0
 40
2.0
 40
2.0
 40
2.0
 10
401.0259829694514
 20
-403.278156250517
 30
0.0
 10
401.0259829694514
 20
-403.278156250517
 30
0.0
 10
363.1283288979685
 20
-398.0112700311529
 30
0.0
 10
338.4007699568156
 20
-385.5731340835318
 30
0.0
 10
331.3725176488388
 20
-382.0389926537073
 30
0.0
 10
327.243633477734
 20
-380.4778011384742
 30
0.0
 10
327.243633477734
 20
-380.4778011384742
 30
0.0
  0
SPLINE
  5
90
330
41
100
AcDbEntity
  8
Layer 1
 62
   156
420
  1785491
370
     9
100
AcDbSpline
210
0.0
220
0.0
230
1.0
 70
     8
 71
     3
 72
    11
 73
     7
 74
     0
 42
0.0000000001
 43
0.0000000001
 12
1.0
 22
0.0
 32
0.0
 13
1.0
 23
0.0
 33
0.0
 40
0.0
 40
0.0
 40
0.0
 40
0.0
 40
1.0
 40
1.0
 40
1.0
 40
2.0
 40
2.0
 40
2.0
 40
2.0
 10
362.9281761396051
 20
-491.9462099681841
 30
0.0
 10
362.9281761396051
 20
-491.9462099681841
 30
0.0
 10
333.0995687195864
 20
-429.9100241630258
 30
0.0
 10
327.8212296175898
 20
-415.0300354708797
 30
0.0
 10
322.5314594479787
 20
-400.1386048036111
 30
0.0
 10
320.5013323802887
 20
-394.4199296332163
 30
0.0
 10
320.5013323802887
 20
-394.4199296332163
 30
0.0
  0
SPLINE
  5
91
330
41
100
AcDbEntity
  8
Layer 1
 62
   156
420
  1785491
370
     9
100
AcDbSpline
210
0.0
220
0.0
230
1.0
 70
     8
 71
     3
 72
    11
 73
     7
 74
     0
 42
0.0000000001
 43
0.0000000001
 12
1.0
 22
0.0
 32
0.0
 13
1.0
 23
0.0
 33
0.0
 40
0.0
 40
0.0
 40
0.0
 40
0.0
 40
1.0
 40
1.0
 40
1.0
 40
2.0
 40
2.0
 40
2.0
 40
2.0
 10
341.2829914922604
 20
-519.8304669576682
 30
0.0
 10
341.2829914922604
 20
-519.8304669576682
 30
0.0
 10
329.6397728592983
 20
-470.0837150535481
 30
0.0
 10
324.6416476190116
 20
-448.2326621140328
 30
0.0
 10
319.6378068449158
 20
-426.3758827332003
 30
0.0
 10
316.3724482091839
 20
-399.6124811905511
 30
0.0
 10
316.3724482091839
 20
-398.5831288221862
 30
0.0
  0
SPLINE
  5
92
330
41
100
AcDbEntity
  8
Layer 1
 62
   156
420
  1785491
370
     9
100
AcDbSpline
210
0.0
220
0.0
230
1.0
 70
     8
 71
     3
 72
    11
 73
     7
 74
     0
 42
0.0000000001
 43
0.0000000001
 12
1.0
 22
0.0
 32
0.0
 13
1.0
 23
0.0
 33
0.0
 40
0.0
 40
0.0
 40
0.0
 40
0.0
 40
1.0
 40
1.0
 40
1.0
 40
2.0
 40
2.0
 40
2.0
 40
2.0
 10
303.4825451255474
 20
-553.4448410926707
 30
0.0
 10
303.4825451255474
 20
-551.2545918182914
 30
0.0
 10
306.4619743657622
 20
-503.171965575486
 30
0.0
 10
307.9087897597856
 20
-479.0334447493133
 30
0.0
 10
309.3499114350161
 20
-454.8949130156398
 30
0.0
 10
311.8318056387197
 20
-406.7150790680644
 30
0.0
 10
311.1741702105337
 20
-403.278156250517
 30
0.0
  0
SPLINE
  5
93
330
41
100
AcDbEntity
  8
Layer 1
 62
   156
420
  1785491
370
     9
100
AcDbSpline
210
0.0
220
0.0
230
1.0
 70
     8
 71
     3
 72
    11
 73
     7
 74
     0
 42
0.0000000001
 43
0.0000000001
 12
1.0
 22
0.0
 32
0.0
 13
1.0
 23
0.0
 33
0.0
 40
0.0
 40
0.0
 40
0.0
 40
0.0
 40
1.0
 40
1.0
 40
1.0
 40
2.0
 40
2.0
 40
2.0
 40
2.0
 10
303.7741900548717
 20
-404.2045853803038
 30
0.0
 10
303.7741900548717
 20
-404.2045853803038
 30
0.0
 10
280.7622511168493
 20
-478.3071683778908
 30
0.0
 10
278.6577784796245
 20
-490.3850075454429
 30
0.0
 10
276.5533058423989
 20
-502.4457001115697
 30
0.0
 10
265.6820987588344
 20
-551.5691206978645
 30
0.0
 10
269.525053534423
 20
-569.2684273310406
 30
0.0
  0
SPLINE
  5
94
330
41
100
AcDbEntity
  8
Layer 1
 62
   156
420
  1785491
370
     9
100
AcDbSpline
210
0.0
220
0.0
230
1.0
 70
     8
 71
     3
 72
    11
 73
     7
 74
     0
 42
0.0000000001
 43
0.0000000001
 12
1.0
 22
0.0
 32
0.0
 13
1.0
 23
0.0
 33
0.0
 40
0.0
 40
0.0
 40
0.0
 40
0.0
 40
1.0
 40
1.0
 40
1.0
 40
2.0
 40
2.0
 40
2.0
 40
2.0
 10
228.2533802398057
 20
-574.3637602760991
 30
0.0
 10
228.2533802398057
 20
-574.3637602760991
 30
0.0
 10
228.2533802398057
 20
-553.6678778012811
 30
0.0
 10
246.4330316780397
 20
-513.7972629076994
 30
0.0
 10
264.612704931289
 20
-473.9266698291322
 30
0.0
 10
288.8598972523714
 20
-420.3426786832333
 30
0.0
 10
296.4600083513797
 20
-403.8957720345388
 30
0.0
  0
SPLINE
  5
95
330
41
100
AcDbEntity
  8
Layer 1
 62
   156
420
  1785491
370
     9
100
AcDbSpline
210
0.0
220
0.0
230
1.0
 70
     8
 71
     3
 72
    14
 73
    10
 74
     0
 42
0.0000000001
 43
0.0000000001
 12
1.0
 22
0.0
 32
0.0
 13
1.0
 23
0.0
 33
0.0
 40
0.0
 40
0.0
 40
0.0
 40
0.0
 40
1.0
 40
1.0
 40
1.0
 40
2.0
 40
2.0
 40
2.0
 40
3.0
 40
3.0
 40
3.0
 40
3.0
 10
247.3022727472217
 20
-579.9966588093412
 30
0.0
 10
247.3022727472217
 20
-579.9966588093412
 30
0.0
 10
246.2557628699251
 20
-560.0270417984393
 30
0.0
 10
253.2725841102838
 20
-531.8225294880667
 30
0.0
 10
260.2950990694371
 20
-503.6237436190095
 30
0.0
 10
271.3435967761325
 20
-472.2739643279274
 30
0.0
 10
273.3680083100116
 20
-469.1458548561459
 30
0.0
 10
275.3924198438917
 20
-466.0234609181716
 30
0.0
 10
297.1233811283901
 20
-411.4958940410561
 30
0.0
 10
300.3086786607764
 20
-404.5248297936851
 30
0.0
  0
SPLINE
  5
96
330
41
100
AcDbEntity
  8
Layer 1
 62
   156
420
  1785491
370
     9
100
AcDbSpline
210
0.0
220
0.0
230
1.0
 70
     8
 71
     3
 72
    11
 73
     7
 74
     0
 42
0.0000000001
 43
0.0000000001
 12
1.0
 22
0.0
 32
0.0
 13
1.0
 23
0.0
 33
0.0
 40
0.0
 40
0.0
 40
0.0
 40
0.0
 40
1.0
 40
1.0
 40
1.0
 40
2.0
 40
2.0
 40
2.0
 40
2.0
 10
288.8598972523714
 20
-569.5772188617921
 30
0.0
 10
288.8598972523714
 20
-569.5772188617921
 30
0.0
 10
289.4374715772119
 20
-523.3703348288072
 30
0.0
 10
295.5964828160068
 20
-481.8470253415235
 30
0.0
 10
301.7497785209925
 20
-440.3237376692578
 30
0.0
 10
304.0601412654032
 20
-421.9038811059736
 30
0.0
 10
307.9087897597856
 20
-404.2103009141119
 30
0.0
  0
SPLINE
  5
97
330
41
100
AcDbEntity
  8
Layer 1
 62
   156
420
  1785491
370
     9
100
AcDbSpline
210
0.0
220
0.0
230
1.0
 70
     8
 71
     3
 72
    11
 73
     7
 74
     0
 42
0.0000000001
 43
0.0000000001
 12
1.0
 22
0.0
 32
0.0
 13
1.0
 23
0.0
 33
0.0
 40
0.0
 40
0.0
 40
0.0
 40
0.0
 40
1.0
 40
1.0
 40
1.0
 40
2.0
 40
2.0
 40
2.0
 40
2.0
 10
325.7968180837106
 20
-543.9747142251545
 30
0.0
 10
325.7968180837106
 20
-543.9747142251545
 30
0.0
 10
316.3724482091839
 20
-466.5552891575317
 30
0.0
 10
315.794852069328
 20
-439.6946799101133
 30
0.0
 10
315.2172559294704
 20
-412.8397861965004
 30
0.0
 10
314.9256110001461
 20
-414.7212221251157
 30
0.0
 10
314.9256110001461
 20
-399.2064601400161
 30
0.0
  0
SPLINE
  5
98
330
41
100
AcDbEntity
  8
Layer 1
 62
   156
420
  1785491
370
     9
100
AcDbSpline
210
0.0
220
0.0
230
1.0
 70
     8
 71
     3
 72
    11
 73
     7
 74
     0
 42
0.0000000001
 43
0.0000000001
 12
1.0
 22
0.0
 32
0.0
 13
1.0
 23
0.0
 33
0.0
 40
0.0
 40
0.0
 40
0.0
 40
0.0
 40
1.0
 40
1.0
 40
1.0
 40
2.0
 40
2.0
 40
2.0
 40
2.0
 10
357.3524547594607
 20
-511.2982111950623
 30
0.0
 10
357.3524547594607
 20
-511.2982111950623
 30
0.0
 10
333.5970819410832
 20
-453.7283114833244
 30
0.0
 10
329.2680450116131
 20
-436.5722859721391
 30
0.0
 10
324.9275770145287
 20
-419.3991029520221
 30
0.0
 10
319.0602107050599
 20
-400.0528281664574
 30
0.0
 10
319.0602107050599
 20
-396.301387376845
 30
0.0
  0
SPLINE
  5
99
330
41
100
AcDbEntity
  8
Layer 1
 62
   156
420
  1785491
370
     9
100
AcDbSpline
210
0.0
220
0.0
230
1.0
 70
     8
 71
     3
 72
    11
 73
     7
 74
     0
 42
0.0000000001
 43
0.0000000001
 12
1.0
 22
0.0
 32
0.0
 13
1.0
 23
0.0
 33
0.0
 40
0.0
 40
0.0
 40
0.0
 40
0.0
 40
1.0
 40
1.0
 40
1.0
 40
2.0
 40
2.0
 40
2.0
 40
2.0
 10
384.0014801809011
 20
-472.9887987242273
 30
0.0
 10
384.0014801809011
 20
-472.9887987242273
 30
0.0
 10
364.9583032072933
 20
-456.4503999045701
 30
0.0
 10
355.0421138300644
 20
-441.5704003049177
 30
0.0
 10
345.1259462678499
 20
-426.6904116127735
 30
0.0
 10
327.8212296175898
 20
-407.0238924138284
 30
0.0
 10
322.2397927036382
 20
-389.9536544473049
 30
0.0
  0
SPLINE
  5
9A
330
41
100
AcDbEntity
  8
Layer 1
 62
   156
420
  1785491
370
     9
100
AcDbSpline
210
0.0
220
0.0
230
1.0
 70
     8
 71
     3
 72
    11
 73
     7
 74
     0
 42
0.0000000001
 43
0.0000000001
 12
1.0
 22
0.0
 32
0.0
 13
1.0
 23
0.0
 33
0.0
 40
0.0
 40
0.0
 40
0.0
 40
0.0
 40
1.0
 40
1.0
 40
1.0
 40
2.0
 40
2.0
 40
2.0
 40
2.0
 10
403.3363238988495
 20
-424.1856334588228
 30
0.0
 10
403.3363238988495
 20
-424.1856334588228
 30
0.0
 10
380.5302532529968
 20
-424.8204067517763
 30
0.0
 10
355.6197099699202
 20
-405.862995507814
 30
0.0
 10
330.7034293380202
 20
-386.9170262389762
 30
0.0
 10
333.9745253225756
 20
-394.0081930488723
 30
0.0
 10
326.374392408552
 20
-383.2913926381907
 30
0.0
  0
SPLINE
  5
9B
330
41
100
AcDbEntity
  8
Layer 1
 62
   156
420
  1785491
370
     9
100
AcDbSpline
210
0.0
220
0.0
230
1.0
 70
     8
 71
     3
 72
    11
 73
     7
 74
     0
 42
0.0000000001
 43
0.0000000001
 12
1.0
 22
0.0
 32
0.0
 13
1.0
 23
0.0
 33
0.0
 40
0.0
 40
0.0
 40
0.0
 40
0.0
 40
1.0
 40
1.0
 40
1.0
 40
2.0
 40
2.0
 40
2.0
 40
2.0
 10
411.8056760670406
 20
-379.5342144997558
 30
0.0
 10
411.8056760670406
 20
-379.5342144997558
 30
0.0
 10
374.0452820670143
 20
-386.5910662917868
 30
0.0
 10
344.4625734908386
 20
-380.4778011384742
 30
0.0
 10
327.8155140837825
 20
-377.040889228434
 30
0.0
 10
327.523847339442
 20
-376.7263603488618
 30
0.0
 10
327.523847339442
 20
-376.7263603488618
 30
0.0
  0
SPLINE
  5
9C
330
41
100
AcDbEntity
  8
Layer 1
 62
   156
420
  1785491
370
     9
100
AcDbSpline
210
0.0
220
0.0
230
1.0
 70
     8
 71
     3
 72
    11
 73
     7
 74
     0
 42
0.0000000001
 43
0.0000000001
 12
1.0
 22
0.0
 32
0.0
 13
1.0
 23
0.0
 33
0.0
 40
0.0
 40
0.0
 40
0.0
 40
0.0
 40
1.0
 40
1.0
 40
1.0
 40
2.0
 40
2.0
 40
2.0
 40
2.0
 10
406.02410820974
 20
-330.4222467960926
 30
0.0
 10
406.02410820974
 20
-330.4222467960926
 30
0.0
 10
351.8625318314862
 20
-353.7487146136882
 30
0.0
 10
339.2642954921885
 20
-361.4403396986754
 30
0.0
 10
326.6603436190835
 20
-369.1262274348373
 30
0.0
 10
325.5051731543845
 20
-368.7144908504943
 30
0.0
 10
325.5051731543845
 20
-368.7144908504943
 30
0.0
  0
SPLINE
  5
9D
330
41
100
AcDbEntity
  8
Layer 1
 62
   156
420
  1785491
370
     9
100
AcDbSpline
210
0.0
220
0.0
230
1.0
 70
     8
 71
     3
 72
    11
 73
     7
 74
     0
 42
0.0000000001
 43
0.0000000001
 12
1.0
 22
0.0
 32
0.0
 13
1.0
 23
0.0
 33
0.0
 40
0.0
 40
0.0
 40
0.0
 40
0.0
 40
1.0
 40
1.0
 40
1.0
 40
2.0
 40
2.0
 40
2.0
 40
2.0
 10
377.8424689421081
 20
-279.41736846617
 30
0.0
 10
377.8424689421081
 20
-279.41736846617
 30
0.0
 10
361.7787212087151
 20
-295.9672201684571
 30
0.0
 10
342.4438774907667
 20
-328.2319975217142
 30
0.0
 10
323.1090337728201
 20
-360.4910375261479
 30
0.0
 10
322.5314594479787
 20
-358.5295186791736
 30
0.0
 10
322.2397927036382
 20
-361.4403396986754
 30
0.0
  0
SPLINE
  5
9E
330
41
100
AcDbEntity
  8
Layer 1
 62
   156
420
  1785491
370
     9
100
AcDbSpline
210
0.0
220
0.0
230
1.0
 70
     8
 71
     3
 72
    11
 73
     7
 74
     0
 42
0.0000000001
 43
0.0000000001
 12
1.0
 22
0.0
 32
0.0
 13
1.0
 23
0.0
 33
0.0
 40
0.0
 40
0.0
 40
0.0
 40
0.0
 40
1.0
 40
1.0
 40
1.0
 40
2.0
 40
2.0
 40
2.0
 40
2.0
 10
336.8624623918295
 20
-250.2807114922034
 30
0.0
 10
336.8624623918295
 20
-250.2807114922034
 30
0.0
 10
330.4174999425049
 20
-257.6635232314238
 30
0.0
 10
322.817388843494
 20
-305.4373361284643
 30
0.0
 10
315.2172559294704
 20
-353.2168863743282
 30
0.0
 10
314.9256110001461
 20
-354.2405123013768
 30
0.0
 10
315.2172559294704
 20
-356.7453122703437
 30
0.0
  0
SPLINE
  5
9F
330
41
100
AcDbEntity
  8
Layer 1
 62
   156
420
  1785491
370
     9
100
AcDbSpline
210
0.0
220
0.0
230
1.0
 70
     8
 71
     3
 72
    11
 73
     7
 74
     0
 42
0.0000000001
 43
0.0000000001
 12
1.0
 22
0.0
 32
0.0
 13
1.0
 23
0.0
 33
0.0
 40
0.0
 40
0.0
 40
0.0
 40
0.0
 40
1.0
 40
1.0
 40
1.0
 40
2.0
 40
2.0
 40
2.0
 40
2.0
 10
186.6957557346568
 20
-325.7271975527474
 30
0.0
 10
186.6957557346568
 20
-325.7271975527474
 30
0.0
 10
197.6413083877587
 20
-337.3990156697664
 30
0.0
 10
216.8960800948535
 20
-344.6731886365997
 30
0.0
 10
236.1394207343319
 20
-351.9644863898448
 30
0.0
 10
266.4312481729976
 20
-367.4678282148343
 30
0.0
 10
291.5476597482466
 20
-367.776619745584
 30
0.0
  0
SPLINE
  5
A0
330
41
100
AcDbEntity
  8
Layer 1
 62
   156
420
  1785491
370
     9
100
AcDbSpline
210
0.0
220
0.0
230
1.0
 70
     8
 71
     3
 72
    14
 73
    10
 74
     0
 42
0.0000000001
 43
0.0000000001
 12
1.0
 22
0.0
 32
0.0
 13
1.0
 23
0.0
 33
0.0
 40
0.0
 40
0.0
 40
0.0
 40
0.0
 40
1.0
 40
1.0
 40
1.0
 40
2.0
 40
2.0
 40
2.0
 40
3.0
 40
3.0
 40
3.0
 40
3.0
 10
208.3409512895087
 20
-286.3941591548564
 30
0.0
 10
208.3409512895087
 20
-286.3941591548564
 30
0.0
 10
212.7614803899396
 20
-296.4933328740099
 30
0.0
 10
227.9674399367814
 20
-309.5033276126642
 30
0.0
 10
243.1676730423078
 20
-322.5075850024959
 30
0.0
 10
279.6070806521511
 20
-355.1840989400953
 30
0.0
 10
285.1084346477437
 20
-357.0598193349024
 30
0.0
 10
290.5926420419109
 20
-358.9298460109148
 30
0.0
 10
291.7535498554316
 20
-361.028581299317
 30
0.0
 10
296.1683634220535
 20
-361.4403396986754
 30
0.0
  0
SPLINE
  5
A1
330
41
100
AcDbEntity
  8
Layer 1
 62
   156
420
  1785491
370
     9
100
AcDbSpline
210
0.0
220
0.0
230
1.0
 70
     8
 71
     3
 72
    11
 73
     7
 74
     0
 42
0.0000000001
 43
0.0000000001
 12
1.0
 22
0.0
 32
0.0
 13
1.0
 23
0.0
 33
0.0
 40
0.0
 40
0.0
 40
0.0
 40
0.0
 40
1.0
 40
1.0
 40
1.0
 40
2.0
 40
2.0
 40
2.0
 40
2.0
 10
243.1676730423078
 20
-256.6284444217436
 30
0.0
 10
243.1676730423078
 20
-256.6284444217436
 30
0.0
 10
245.5695279576812
 20
-267.7627187655926
 30
0.0
 10
261.0557013662319
 20
-291.4837765661059
 30
0.0
 10
276.5533058423989
 20
-315.227718316868
 30
0.0
 10
296.1740789558626
 20
-353.5314152539004
 30
0.0
 10
301.1722041961511
 20
-357.6831615602387
 30
0.0
  0
SPLINE
  5
A2
330
41
100
AcDbEntity
  8
Layer 1
 62
   156
420
  1785491
370
     9
100
AcDbSpline
210
0.0
220
0.0
230
1.0
 70
     8
 71
     3
 72
    11
 73
     7
 74
     0
 42
0.0000000001
 43
0.0000000001
 12
1.0
 22
0.0
 32
0.0
 13
1.0
 23
0.0
 33
0.0
 40
0.0
 40
0.0
 40
0.0
 40
0.0
 40
1.0
 40
1.0
 40
1.0
 40
2.0
 40
2.0
 40
2.0
 40
2.0
 10
286.8354857184904
 20
-241.742729288283
 30
0.0
 10
286.8354857184904
 20
-241.742729288283
 30
0.0
 10
284.4450836857477
 20
-254.2208957875764
 30
0.0
 10
288.5682305080309
 20
-281.3960339145688
 30
0.0
 10
292.6971146791366
 20
-308.5654565077539
 30
0.0
 10
302.9049489856916
 20
-348.521837130982
 30
0.0
 10
308.4806703658342
 20
-355.8131566992415
 30
0.0
  0
SPLINE
  5
A3
330
41
100
AcDbEntity
  8
Layer 1
 62
   156
420
  1785491
370
     9
100
AcDbSpline
210
0.0
220
0.0
230
1.0
 70
    11
 71
     3
 72
   254
 73
   250
 74
     0
 42
0.0000000001
 43
0.0000000001
 12
1.0
 22
0.0
 32
0.0
 13
1.0
 23
0.0
 33
0.0
 40
0.0
 40
0.0
 40
0.0
 40
0.0
 40
1.0
 40
1.0
 40
1.0
 40
2.0
 40
2.0
 40
2.0
 40
3.0
 40
3.0
 40
3.0
 40
4.0
 40
4.0
 40
4.0
 40
5.0
 40
5.0
 40
5.0
 40
6.0
 40
6.0
 40
6.0
 40
7.0
 40
7.0
 40
7.0
 40
8.0
 40
8.0
 40
8.0
 40
9.0
 40
9.0
 40
9.0
 40
10.0
 40
10.0
 40
10.0
 40
11.0
 40
11.0
 40
11.0
 40
12.0
 40
12.0
 40
12.0
 40
13.0
 40
13.0
 40
13.0
 40
14.0
 40
14.0
 40
14.0
 40
15.0
 40
15.0
 40
15.0
 40
16.0
 40
16.0
 40
16.0
 40
17.0
 40
17.0
 40
17.0
 40
18.0
 40
18.0
 40
18.0
 40
19.0
 40
19.0
 40
19.0
 40
20.0
 40
20.0
 40
20.0
 40
21.0
 40
21.0
 40
21.0
 40
22.0
 40
22.0
 40
22.0
 40
23.0
 40
23.0
 40
23.0
 40
24.0
 40
24.0
 40
24.0
 40
25.0
 40
25.0
 40
25.0
 40
26.0
 40
26.0
 40
26.0
 40
27.0
 40
27.0
 40
27.0
 40
28.0
 40
28.0
 40
28.0
 40
29.0
 40
29.0
 40
29.0
 40
30.0
 40
30.0
 40
30.0
 40
31.0
 40
31.0
 40
31.0
 40
32.0
 40
32.0
 40
32.0
 40
33.0
 40
33.0
 40
33.0
 40
34.0
 40
34.0
 40
34.0
 40
35.0
 40
35.0
 40
35.0
 40
36.0
 40
36.0
 40
36.0
 40
37.0
 40
37.0
 40
37.0
 40
38.0
 40
38.0
 40
38.0
 40
39.0
 40
39.0
 40
39.0
 40
40.0
 40
40.0
 40
40.0
 40
41.0
 40
41.0
 40
41.0
 40
42.0
 40
42.0
 40
42.0
 40
43.0
 40
43.0
 40
43.0
 40
44.0
 40
44.0
 40
44.0
 40
45.0
 40
45.0
 40
45.0
 40
46.0
 40
46.0
 40
46.0
 40
47.0
 40
47.0
 40
47.0
 40
48.0
 40
48.0
 40
48.0
 40
49.0
 40
49.0
 40
49.0
 40
50.0
 40
50.0
 40
50.0
 40
51.0
 40
51.0
 40
51.0
 40
52.0
 40
52.0
 40
52.0
 40
53.0
 40
53.0
 40
53.0
 40
54.0
 40
54.0
 40
54.0
 40
55.0
 40
55.0
 40
55.0
 40
56.0
 40
56.0
 40
56.0
 40
57.0
 40
57.0
 40
57.0
 40
58.0
 40
58.0
 40
58.0
 40
59.0
 40
59.0
 40
59.0
 40
60.0
 40
60.0
 40
60.0
 40
61.0
 40
61.0
 40
61.0
 40
62.0
 40
62.0
 40
62.0
 40
63.0
 40
63.0
 40
63.0
 40
64.0
 40
64.0
 40
64.0
 40
65.0
 40
65.0
 40
65.0
 40
66.0
 40
66.0
 40
66.0
 40
67.0
 40
67.0
 40
67.0
 40
68.0
 40
68.0
 40
68.0
 40
69.0
 40
69.0
 40
69.0
 40
70.0
 40
70.0
 40
70.0
 40
71.0
 40
71.0
 40
71.0
 40
72.0
 40
72.0
 40
72.0
 40
73.0
 40
73.0
 40
73.0
 40
74.0
 40
74.0
 40
74.0
 40
75.0
 40
75.0
 40
75.0
 40
76.0
 40
76.0
 40
76.0
 40
77.0
 40
77.0
 40
77.0
 40
78.0
 40
78.0
 40
78.0
 40
79.0
 40
79.0
 40
79.0
 40
80.0
 40
80.0
 40
80.0
 40
81.0
 40
81.0
 40
81.0
 40
82.0
 40
82.0
 40
82.0
 40
83.0
 40
83.0
 40
83.0
 40
83.0
 10
177.5630416969634
 20
-368.5372002273643
 30
0.0
 10
177.1455677637969
 20
-368.0110875218124
 30
0.0
 10
185.2031833476449
 20
-357.4658622004517
 30
0.0
 10
186.7014821759731
 20
-347.4581806522601
 30
0.0
 10
188.2054856306013
 20
-337.4447835702604
 30
0.0
 10
186.4041108053316
 20
-327.9975297454857
 30
0.0
 10
186.7014821759731
 20
-325.9273503111108
 30
0.0
 10
187.0102846142299
 20
-323.8514771579412
 30
0.0
 10
194.7533713185048
 20
-320.8034178819971
 30
0.0
 10
198.0644869472253
 20
-316.5658949385042
 30
0.0
 10
201.3813181097539
 20
-312.3340657138051
 30
0.0
 10
207.0256477106122
 20
-307.5017782140167
 30
0.0
 10
207.8091121426414
 20
-289.4993955838981
 30
0.0
 10
208.1121990470892
 20
-282.5397733116524
 30
0.0
 10
215.7466360714707
 20
-284.0495032075951
 30
0.0
 10
220.6818468098372
 20
-281.1215355866689
 30
0.0
 10
225.6056264805884
 20
-278.1935679657427
 30
0.0
 10
237.3289062168951
 20
-269.7928458332808
 30
0.0
 10
240.5771182512017
 20
-259.2647671133454
 30
0.0
 10
242.081132613338
 20
-254.3753024604594
 30
0.0
 10
248.5203577138409
 20
-256.983003852989
 30
0.0
 10
252.843679109501
 20
-256.6570439057996
 30
0.0
 10
257.1670005051619
 20
-256.3310839586102
 30
0.0
 10
272.7046355330012
 20
-254.0150274954049
 30
0.0
 10
282.6837175971368
 20
-244.1045536519832
 30
0.0
 10
287.8762800619788
 20
-238.9463062050054
 30
0.0
 10
292.4969619207732
 20
-244.7278958773213
 30
0.0
 10
296.4542928175724
 20
-246.5578701866471
 30
0.0
 10
300.4230547819861
 20
-248.3878444959719
 30
0.0
 10
310.5451124513875
 20
-250.7210693756169
 30
0.0
 10
316.3552797927441
 20
-250.8811915823071
 30
0.0
 10
322.1654471341008
 20
-251.0527448566136
 30
0.0
 10
330.8750044273438
 20
-247.7244717189606
 30
0.0
 10
334.2604547180927
 20
-248.7195199769694
 30
0.0
 10
337.6516205426524
 20
-249.7145682349774
 30
0.0
 10
338.8582744416544
 20
-252.5510436849418
 30
0.0
 10
341.900596368776
 20
-256.6684749734159
 30
0.0
 10
344.9372245771028
 20
-260.7916436107134
 30
0.0
 10
355.0592822465042
 20
-270.1188057804702
 30
0.0
 10
362.1046811559045
 20
-272.4062845746339
 30
0.0
 10
369.1500800653048
 20
-274.6937415537832
 30
0.0
 10
372.4955216193976
 20
-276.1920403821096
 30
0.0
 10
374.4970492030297
 20
-276.523715863108
 30
0.0
 10
376.4985767866619
 20
-276.861128692929
 30
0.0
 10
377.6880622692242
 20
-277.8676080185533
 30
0.0
 10
380.3015010105773
 20
-286.3140980515109
 30
0.0
 10
382.9206552857395
 20
-294.7663036182785
 30
0.0
 10
387.5013065928615
 20
-304.0019518020572
 30
0.0
 10
389.039635972862
 20
-306.6668521626998
 30
0.0
 10
390.5836808866698
 20
-309.3317743383577
 30
0.0
 10
400.8143991434717
 20
-322.9422055370869
 30
0.0
 10
402.5071133813399
 20
-324.5663115542402
 30
0.0
 10
404.2055649680296
 20
-326.1961331052025
 30
0.0
 10
407.5052386216266
 20
-327.1911813632114
 30
0.0
 10
405.8525331204182
 20
-335.6433869299763
 30
0.0
 10
404.2055649680296
 20
-344.0898769629348
 30
0.0
 10
405.0862371048279
 20
-361.0000036302754
 30
0.0
 10
406.3157531390643
 20
-365.1117193849423
 30
0.0
 10
407.550984707108
 20
-369.2291724884308
 30
0.0
 10
410.473236794227
 20
-375.1136853993248
 30
0.0
 10
410.9364349978587
 20
-376.0629875718514
 30
0.0
 10
411.3996550165048
 20
-377.018005278187
 30
0.0
 10
412.897953844833
 20
-379.4713218128491
 30
0.0
 10
408.4716873955786
 20
-384.8068380679433
 30
0.0
 10
404.0454427613404
 20
-390.1309232554204
 30
0.0
 10
401.4320040199873
 20
-399.2121756738252
 30
0.0
 10
401.1174751404142
 20
-401.7112382939686
 30
0.0
 10
400.8143991434717
 20
-404.2103009141119
 30
0.0
 10
400.4998702638986
 20
-417.3975644608818
 30
0.0
 10
402.821642260913
 20
-421.5664791836607
 30
0.0
 10
405.126267656502
 20
-425.7239519313152
 30
0.0
 10
399.0130025031885
 20
-427.3537734822767
 30
0.0
 10
397.314550916497
 20
-429.509718646299
 30
0.0
 10
395.6218366786306
 20
-431.6770948779376
 30
0.0
 10
385.0765895422555
 20
-446.2539966656332
 30
0.0
 10
383.8413579742119
 20
-461.3227070485245
 30
0.0
 10
382.6118419399754
 20
-476.3971329652195
 30
0.0
 10
384.2645474411856
 20
-473.5606684227623
 30
0.0
 10
381.2279192328569
 20
-474.8816875354678
 30
0.0
 10
378.1855973057354
 20
-476.2198532495968
 30
0.0
 10
370.797070032706
 20
-480.5088596273927
 30
0.0
 10
366.6853324630265
 20
-486.9652422368272
 30
0.0
 10
362.5679011745506
 20
-493.4159093124545
 30
0.0
 10
358.8278914525563
 20
-503.326372248368
 30
0.0
 10
358.0958886398166
 20
-507.3180072555242
 30
0.0
 10
357.3696231759004
 20
-511.321084237803
 30
0.0
 10
356.5575592598161
 20
-513.1968046326092
 30
0.0
 10
353.3665461936216
 20
-514.3176709869513
 30
0.0
 10
350.1755331274253
 20
-515.4328108999762
 30
0.0
 10
339.7046315605876
 20
-520.3851791472771
 30
0.0
 10
338.2063327322612
 20
-522.5582818202311
 30
0.0
 10
336.7080557189474
 20
-524.7256580518697
 30
0.0
 10
329.9714483402968
 20
-533.3379858253247
 30
0.0
 10
328.2787122874142
 20
-538.6277559949376
 30
0.0
 10
326.5859980495461
 20
-543.9175261645505
 30
0.0
 10
325.2363903602927
 20
-545.0841386043721
 30
0.0
 10
321.8509400695439
 20
-545.5759471995698
 30
0.0
 10
318.4597524299697
 20
-546.0849133036972
 30
0.0
 10
307.0338331567964
 20
-550.5340418881824
 30
0.0
 10
302.8820868504572
 20
-554.0281527663356
 30
0.0
 10
298.7246031952964
 20
-557.5336947121032
 30
0.0
 10
291.5762592323026
 20
-564.4304242974449
 30
0.0
 10
290.186620991376
 20
-567.266877932394
 30
0.0
 10
288.7969827504494
 20
-570.0976160335358
 30
0.0
 10
286.5323879065336
 20
-569.9317782930375
 30
0.0
 10
283.7588269584903
 20
-569.4342650715407
 30
0.0
 10
280.9852660104461
 20
-568.9310145012205
 30
0.0
 10
269.4793074489417
 20
-568.4792473652051
 30
0.0
 10
263.9779316383347
 20
-571.0984016403672
 30
0.0
 10
258.476577642743
 20
-573.7118185667059
 30
0.0
 10
250.8650136611022
 20
-579.0931027222941
 30
0.0
 10
248.8577487286466
 20
-580.053835962437
 30
0.0
 10
246.8562211450144
 20
-581.0031381349654
 30
0.0
 10
243.2077035939801
 20
-579.5505853921186
 30
0.0
 10
240.8916471307748
 20
-578.0465928449976
 30
0.0
 10
238.5813062013785
 20
-576.5482940166694
 30
0.0
 10
226.0402470151785
 20
-572.8883453980197
 30
0.0
 10
221.3051890351753
 20
-573.7118185667059
 30
0.0
 10
216.5758356814722
 20
-574.5524819668462
 30
0.0
 10
202.1876555845229
 20
-577.3889356017953
 30
0.0
 10
201.2555109209279
 20
-576.8799694976678
 30
0.0
 10
200.329081791142
 20
-576.3824562761711
 30
0.0
 10
203.2227343942031
 20
-571.0469182060624
 30
0.0
 10
205.6760400213589
 20
-567.266877932394
 30
0.0
 10
208.1465140649543
 20
-563.4811221249183
 30
0.0
 10
220.7275928953186
 20
-538.8164667781784
 30
0.0
 10
222.6891008347857
 20
-534.6589940305239
 30
0.0
 10
224.6448932404446
 20
-530.5072368166766
 30
0.0
 10
235.1958340956135
 20
-513.2711502021466
 30
0.0
 10
238.2782083894217
 20
-507.655409177838
 30
0.0
 10
241.3491298005993
 20
-502.0339526197204
 30
0.0
 10
261.5360679863034
 20
-461.808789202405
 30
0.0
 10
265.9508815529261
 20
-454.3001702743568
 30
0.0
 10
270.365695119548
 20
-446.7801202786941
 30
0.0
 10
292.8915519036909
 20
-403.9815486716934
 30
0.0
 10
292.8915519036909
 20
-403.9815486716934
 30
0.0
 10
292.8915519036909
 20
-403.9815486716934
 30
0.0
 10
293.4291174918753
 20
-403.5011820516211
 30
0.0
 10
297.2549038510242
 20
-404.0673362163534
 30
0.0
 10
301.0921430928047
 20
-404.6220484059622
 30
0.0
 10
309.166905278078
 20
-404.8507897408745
 30
0.0
 10
311.2427784312476
 20
-403.0551304494129
 30
0.0
 10
313.3129578656226
 20
-401.2651866917604
 30
0.0
 10
317.3503280507521
 20
-396.6673778757067
 30
0.0
 10
318.0708779808592
 20
-396.3242495120794
 30
0.0
 10
318.8028807935989
 20
-395.9925740310809
 30
0.0
 10
319.4262012039217
 20
-396.6673778757067
 30
0.0
 10
320.0438278954516
 20
-395.5465224288728
 30
0.0
 10
320.672885654596
 20
-394.4256451670244
 30
0.0
 10
320.4670173624254
 20
-394.9803573566332
 30
0.0
 10
320.8787539467685
 20
-393.8652174436065
 30
0.0
 10
321.2904905311116
 20
-392.7443619967726
 30
0.0
 10
321.0846222389391
 20
-392.4069491669534
 30
0.0
 10
321.5020961721057
 20
-391.9551820309371
 30
0.0
 10
321.9138327564488
 20
-391.5091304287289
 30
0.0
 10
321.8051721690481
 20
-391.0630788265216
 30
0.0
 10
322.3370222234225
 20
-390.5026511031047
 30
0.0
 10
322.8517038613591
 20
-389.9422015646733
 30
0.0
 10
322.640098220365
 20
-389.7191866710764
 30
0.0
 10
323.4693087378728
 20
-388.9357222390481
 30
0.0
 10
324.2985192553824
 20
-388.1408267394036
 30
0.0
 10
324.4986720137458
 20
-388.7127073454521
 30
0.0
 10
324.8132008933189
 20
-387.248723534989
 30
0.0
 10
325.1277297728921
 20
-385.7847397245259
 30
0.0
 10
324.8132008933189
 20
-386.1164152055244
 30
0.0
 10
325.4365431186561
 20
-384.7782385838873
 30
0.0
 10
326.0541479951717
 20
-383.4400837772646
 30
0.0
 10
325.9569402904017
 20
-383.5601754322815
 30
0.0
 10
326.368676874743
 20
-382.4335826366259
 30
0.0
 10
326.7804352741023
 20
-381.312727189792
 30
0.0
 10
327.295116912037
 20
-380.6379233451644
 30
0.0
 10
327.5067007380167
 20
-379.5170678983304
 30
0.0
 10
327.7182845639982
 20
-378.3904969176874
 30
0.0
 10
327.8212296175898
 20
-377.7099557242382
 30
0.0
 10
327.8212296175898
 20
-376.8235680536318
 30
0.0
 10
327.8212296175898
 20
-375.9314648492164
 30
0.0
 10
328.0270979097622
 20
-376.3889475190408
 30
0.0
 10
327.7182845639982
 20
-375.3710371258003
 30
0.0
 10
327.4037556844251
 20
-374.3645359851607
 30
0.0
 10
327.0949641536754
 20
-373.5810933681478
 30
0.0
 10
327.0949641536754
 20
-372.6832528149098
 30
0.0
 10
327.0949641536754
 20
-371.7854122616718
 30
0.0
 10
327.295116912037
 20
-371.6710361404621
 30
0.0
 10
326.6774902205088
 20
-370.9905167620273
 30
0.0
 10
326.0541479951717
 20
-370.3214284512087
 30
0.0
 10
325.9569402904017
 20
-369.212004071991
 30
0.0
 10
325.6424114108286
 20
-368.5372002273643
 30
0.0
 10
325.3335980650627
 20
-367.862418197752
 30
0.0
 10
325.4251120510398
 20
-367.6336659553326
 30
0.0
 10
324.9161459469124
 20
-366.5128105084987
 30
0.0
 10
324.4071798427849
 20
-365.3976487804575
 30
0.0
 10
325.1334453066993
 20
-366.5128105084987
 30
0.0
 10
324.2985192553824
 20
-364.9458816444421
 30
0.0
 10
323.4693087378728
 20
-363.3789745954009
 30
0.0
 10
323.9897059096184
 20
-363.8193106638009
 30
0.0
 10
322.5314594479787
 20
-361.9149907849378
 30
0.0
 10
321.0846222389391
 20
-360.0163864398837
 30
0.0
 10
318.8028807935989
 20
-359.4502431826586
 30
0.0
 10
318.2824836218533
 20
-359.2386375416654
 30
0.0
 10
317.7678019839186
 20
-359.0099071142604
 30
0.0
 10
316.2180415363018
 20
-357.6545620761826
 30
0.0
 10
315.5946993109646
 20
-357.2142260077844
 30
0.0
 10
314.9770726194347
 20
-356.7624588717681
 30
0.0
 10
313.2100128120292
 20
-356.4307833907715
 30
0.0
 10
312.8954839324579
 20
-356.4307833907715
 30
0.0
 10
312.5809550528847
 20
-356.4307833907715
 30
0.0
 10
309.5843792112446
 20
-356.3164072695608
 30
0.0
 10
308.9667525197146
 20
-356.3164072695608
 30
0.0
 10
308.3434102943775
 20
-356.3164072695608
 30
0.0
 10
308.2347715219912
 20
-356.4307833907715
 30
0.0
 10
307.7200898840547
 20
-356.2020311483511
 30
0.0
 10
307.1996927123091
 20
-355.9847099735489
 30
0.0
 10
307.1996927123091
 20
-355.8589027847229
 30
0.0
 10
306.582066020781
 20
-355.9847099735489
 30
0.0
 10
305.9587237954438
 20
-356.0876550271423
 30
0.0
 10
303.2652457657587
 20
-356.7624588717681
 30
0.0
 10
303.2652457657587
 20
-356.7624588717681
 30
0.0
 10
303.2652457657587
 20
-356.7624588717681
 30
0.0
 10
303.0593556585736
 20
-356.7624588717681
 30
0.0
 10
302.3330901946574
 20
-357.2142260077844
 30
0.0
 10
301.6125402645484
 20
-357.6545620761826
 30
0.0
 10
301.5038796771478
 20
-357.9976904398118
 30
0.0
 10
300.4688008674675
 20
-358.5581181632297
 30
0.0
 10
299.4280065239782
 20
-359.1128303528394
 30
0.0
 10
297.6780933179989
 20
-360.4624380420919
 30
0.0
 10
297.3635644384258
 20
-360.805566405721
 30
0.0
 10
297.0490355588527
 20
-361.1372418867177
 30
0.0
 10
295.0818011780702
 20
-362.1380056785347
 30
0.0
 10
295.0818011780702
 20
-362.1380056785347
 30
0.0
 10
295.0818011780702
 20
-362.1380056785347
 30
0.0
 10
294.664349059919
 20
-361.800614663729
 30
0.0
 10
293.7321934888168
 20
-363.1502223529824
 30
0.0
 10
292.8057752665372
 20
-364.4941145084267
 30
0.0
 10
292.5941914405576
 20
-366.6386176973247
 30
0.0
 10
292.0737942688138
 20
-367.3019686593207
 30
0.0
 10
291.5533970970691
 20
-367.9767725039474
 30
0.0
 10
290.1122754218404
 20
-370.3214284512087
 30
0.0
 10
289.8034838910889
 20
-372.0141645040912
 30
0.0
 10
289.4889550115158
 20
-373.6840166067259
 30
0.0
 10
289.1744261319436
 20
-374.4789121063695
 30
0.0
 10
288.654028960199
 20
-374.9249637085777
 30
0.0
 10
288.1393473222615
 20
-375.3710371258003
 30
0.0
 10
287.3158523385619
 20
-375.708428140606
 30
0.0
 10
286.3779812336525
 20
-375.8170887280085
 30
0.0
 10
285.4458474775638
 20
-375.9314648492164
 30
0.0
 10
215.2319544335351
 20
-375.9829264685068
 30
0.0
 10
201.7644661175491
 20
-374.1643832267982
 30
0.0
 10
188.3027042428785
 20
-372.3458399850888
 30
0.0
 10
177.9805047226218
 20
-369.0633347479325
 30
0.0
 10
177.5630416969634
 20
-368.5372002273643
 30
0.0
  0
ENDBLK
  5
44
330
41
100
AcDbEntity
  8
0
100
AcDbBlockEnd
  0
ENDSEC
  0
SECTION
  2
ENTITIES
  0
INSERT
  5
42
330
1F
100
AcDbEntity
  8
Layer 1
100
AcDbBlockReference
  2
block 2
 10
0.0
 20
0.0
 30
0.0
  0
ENDSEC
  0
SECTION
  2
OBJECTS
  0
DICTIONARY
  5
C
330
0
100
AcDbDictionary
281
     1
  3
ACAD_GROUP
350
D
  3
ACAD_LAYOUT
350
1A
  3
ACAD_MATERIAL
350
3B
  3
ACAD_MLEADERSTYLE
350
A5
  3
ACAD_MLINESTYLE
350
17
  3
ACAD_PLOTSETTINGS
350
19
  3
ACAD_PLOTSTYLENAME
350
E
  3
ACAD_TABLESTYLE
350
A4
  3
ACAD_VISUALSTYLE
350
2A
  0
SUN
  5
3F
330
29
100
AcDbSun
 90
        1
290
     0
 63
     7
421
 16777215
 40
1.0
291
     1
 91
  2455826
 92
 54000000
292
     0
 70
     2
 71
   256
280
     1
  0
DICTIONARY
  5
D
102
{ACAD_REACTORS
330
C
102
}
330
C
100
AcDbDictionary
281
     1
  0
DICTIONARY
  5
1A
102
{ACAD_REACTORS
330
C
102
}
330
C
100
AcDbDictionary
281
     1
  3
Layout1
350
1E
  3
Layout2
350
26
  3
Model
350
22
  0
DICTIONARY
  5
3B
102
{ACAD_REACTORS
330
C
102
}
330
C
100
AcDbDictionary
281
     1
  3
ByBlock
350
3D
  3
ByLayer
350
3C
  3
Global
350
3E
  0
DICTIONARY
  5
A5
102
{ACAD_REACTORS
330
C
102
}
330
C
100
AcDbDictionary
281
     1
  0
DICTIONARY
  5
17
102
{ACAD_REACTORS
330
C
102
}
330
C
100
AcDbDictionary
281
     1
  3
Standard
350
18
  0
DICTIONARY
  5
19
102
{ACAD_REACTORS
330
C
102
}
330
C
100
AcDbDictionary
281
     1
  0
ACDBDICTIONARYWDFLT
  5
E
102
{ACAD_REACTORS
330
C
102
}
330
C
100
AcDbDictionary
281
     1
  3
Normal
350
F
100
AcDbDictionaryWithDefault
340
F
  0
DICTIONARY
  5
A4
102
{ACAD_REACTORS
330
C
102
}
330
C
100
AcDbDictionary
281
     1
  0
DICTIONARY
  5
2A
102
{ACAD_REACTORS
330
C
102
}
330
C
100
AcDbDictionary
281
     1
  3
2dWireframe
350
2F
  3
3D Hidden
350
31
  3
3dWireframe
350
30
  3
Basic
350
32
  3
Brighten
350
36
  3
ColorChange
350
3A
  3
Conceptual
350
34
  3
Dim
350
35
  3
Facepattern
350
39
  3
Flat
350
2B
  3
FlatWithEdges
350
2C
  3
Gouraud
350
2D
  3
GouraudWithEdges
350
2E
  3
Linepattern
350
38
  3
Realistic
350
33
  3
Thicken
350
37
  0
LAYOUT
  5
1E
102
{ACAD_REACTORS
330
1A
102
}
330
1A
100
AcDbPlotSettings
  1

  2
none_device
  4

  6

 40
0.0
 41
0.0
 42
0.0
 43
0.0
 44
0.0
 45
0.0
 46
0.0
 47
0.0
 48
0.0
 49
0.0
140
0.0
141
0.0
142
1.0
143
1.0
 70
   688
 72
     0
 73
     0
 74
     5
  7

 75
    16
 76
     0
 77
     2
 78
   300
147
1.0
148
0.0
149
0.0
100
AcDbLayout
  1
Layout1
 70
     1
 71
     1
 10
0.0
 20
0.0
 11
12.0
 21
9.0
 12
0.0
 22
0.0
 32
0.0
 14
1.000000000000000E+20
 24
1.000000000000000E+20
 34
1.000000000000000E+20
 15
-1.000000000000000E+20
 25
-1.000000000000000E+20
 35
-1.000000000000000E+20
146
0.0
 13
0.0
 23
0.0
 33
0.0
 16
1.0
 26
0.0
 36
0.0
 17
0.0
 27
1.0
 37
0.0
 76
     0
330
1B
  0
LAYOUT
  5
26
102
{ACAD_REACTORS
330
1A
102
}
330
1A
100
AcDbPlotSettings
  1

  2
none_device
  4

  6

 40
0.0
 41
0.0
 42
0.0
 43
0.0
 44
0.0
 45
0.0
 46
0.0
 47
0.0
 48
0.0
 49
0.0
140
0.0
141
0.0
142
1.0
143
1.0
 70
   688
 72
     0
 73
     0
 74
     5
  7

 75
    16
 76
     0
 77
     2
 78
   300
147
1.0
148
0.0
149
0.0
100
AcDbLayout
  1
Layout2
 70
     1
 71
     2
 10
0.0
 20
0.0
 11
0.0
 21
0.0
 12
0.0
 22
0.0
 32
0.0
 14
0.0
 24
0.0
 34
0.0
 15
0.0
 25
0.0
 35
0.0
146
0.0
 13
0.0
 23
0.0
 33
0.0
 16
1.0
 26
0.0
 36
0.0
 17
0.0
 27
1.0
 37
0.0
 76
     0
330
23
  0
LAYOUT
  5
22
102
{ACAD_REACTORS
330
1A
102
}
330
1A
100
AcDbPlotSettings
  1

  2
none_device
  4

  6

 40
0.0
 41
0.0
 42
0.0
 43
0.0
 44
0.0
 45
0.0
 46
0.0
 47
0.0
 48
0.0
 49
0.0
140
0.0
141
0.0
142
1.0
143
1.0
 70
  1712
 72
     0
 73
     0
 74
     0
  7

 75
     0
 76
     0
 77
     2
 78
   300
147
1.0
148
0.0
149
0.0
100
AcDbLayout
  1
Model
 70
     1
 71
     0
 10
0.0
 20
0.0
 11
12.0
 21
9.0
 12
0.0
 22
0.0
 32
0.0
 14
1.000000000000000E+20
 24
1.000000000000000E+20
 34
1.000000000000000E+20
 15
-1.000000000000000E+20
 25
-1.000000000000000E+20
 35
-1.000000000000000E+20
146
0.0
 13
0.0
 23
0.0
 33
0.0
 16
1.0
 26
0.0
 36
0.0
 17
0.0
 27
1.0
 37
0.0
 76
     0
330
1F
331
29
  0
MATERIAL
  5
3D
102
{ACAD_REACTORS
330
3B
102
}
330
3B
100
AcDbMaterial
  1
ByBlock
 72
     1
 94
      127
  0
MATERIAL
  5
3C
102
{ACAD_REACTORS
330
3B
102
}
330
3B
100
AcDbMaterial
  1
ByLayer
 72
     1
 94
      127
  0
MATERIAL
  5
3E
102
{ACAD_REACTORS
330
3B
102
}
330
3B
100
AcDbMaterial
  1
Global
 72
     1
 94
      127
  0
MLINESTYLE
  5
18
102
{ACAD_REACTORS
330
17
102
}
330
17
100
AcDbMlineStyle
  2
Standard
 70
     0
  3

 62
   256
 51
90.0
 52
90.0
 71
     2
 49
0.5
 62
   256
  6
BYLAYER
 49
-0.5
 62
   256
  6
BYLAYER
  0
ACDBPLACEHOLDER
  5
F
102
{ACAD_REACTORS
330
E
102
}
330
E
  0
VISUALSTYLE
  5
2F
102
{ACAD_REACTORS
330
2A
102
}
330
2A
100
AcDbVisualStyle
  2
2dWireframe
 70
     4
177
     2
291
     0
 71
     0
176
     1
 72
     2
176
     1
 73
     0
176
     1
 90
        0
176
     1
 40
-0.6
176
     1
 41
-30.0
176
     1
 62
     5
 63
     7
421
 16777215
176
     1
 74
     1
176
     1
 91
        4
176
     1
 64
     7
176
     1
 65
   257
176
     1
 75
     1
176
     1
175
     1
176
     1
 42
1.0
176
     1
 92
        0
176
     1
 66
   257
176
     1
 43
1.0
176
     1
 76
     1
176
     1
 77
     6
176
     1
 78
     2
176
     1
 67
     7
176
     1
 79
     5
176
     1
170
     0
176
     1
171
     0
176
     1
290
     0
176
     1
 93
        1
176
     1
 44
0.0
176
     1
173
     0
176
     1
  0
VISUALSTYLE
  5
31
102
{ACAD_REACTORS
330
2A
102
}
330
2A
100
AcDbVisualStyle
  2
3D Hidden
 70
     6
177
     2
291
     0
 71
     1
176
     1
 72
     2
176
     1
 73
     2
176
     1
 90
        0
176
     1
 40
-0.6
176
     1
 41
-30.0
176
     1
 62
     5
 63
     7
421
 16777215
176
     1
 74
     2
176
     1
 91
        2
176
     1
 64
     7
176
     1
 65
   257
176
     1
 75
     2
176
     1
175
     1
176
     1
 42
40.0
176
     1
 92
        0
176
     1
 66
   257
176
     1
 43
1.0
176
     1
 76
     1
176
     1
 77
     6
176
     1
 78
     2
176
     1
 67
     7
176
     1
 79
     3
176
     1
170
     0
176
     1
171
     0
176
     1
290
     0
176
     1
 93
        1
176
     1
 44
0.0
176
     1
173
     0
176
     1
  0
VISUALSTYLE
  5
30
102
{ACAD_REACTORS
330
2A
102
}
330
2A
100
AcDbVisualStyle
  2
3dWireframe
 70
     5
177
     2
291
     0
 71
     0
176
     1
 72
     2
176
     1
 73
     0
176
     1
 90
        0
176
     1
 40
-0.6
176
     1
 41
-30.0
176
     1
 62
     5
 63
     7
421
 16777215
176
     1
 74
     1
176
     1
 91
        4
176
     1
 64
     7
176
     1
 65
   257
176
     1
 75
     1
176
     1
175
     1
176
     1
 42
1.0
176
     1
 92
        0
176
     1
 66
   257
176
     1
 43
1.0
176
     1
 76
     1
176
     1
 77
     6
176
     1
 78
     2
176
     1
 67
     7
176
     1
 79
     5
176
     1
170
     0
176
     1
171
     0
176
     1
290
     0
176
     1
 93
        1
176
     1
 44
0.0
176
     1
173
     0
176
     1
  0
VISUALSTYLE
  5
32
102
{ACAD_REACTORS
330
2A
102
}
330
2A
100
AcDbVisualStyle
  2
Basic
 70
     7
177
     2
291
     1
 71
     1
176
     1
 72
     0
176
     1
 73
     1
176
     1
 90
        0
176
     1
 40
-0.6
176
     1
 41
-30.0
176
     1
 62
     5
 63
     7
421
 16777215
176
     1
 74
     0
176
     1
 91
        4
176
     1
 64
     7
176
     1
 65
   257
176
     1
 75
     1
176
     1
175
     1
176
     1
 42
1.0
176
     1
 92
        8
176
     1
 66
     7
176
     1
 43
1.0
176
     1
 76
     1
176
     1
 77
     6
176
     1
 78
     2
176
     1
 67
     7
176
     1
 79
     5
176
     1
170
     0
176
     1
171
     0
176
     1
290
     0
176
     1
 93
        1
176
     1
 44
0.0
176
     1
173
     0
176
     1
  0
VISUALSTYLE
  5
36
102
{ACAD_REACTORS
330
2A
102
}
330
2A
100
AcDbVisualStyle
  2
Brighten
 70
    12
177
     2
291
     1
 71
     2
176
     1
 72
     2
176
     1
 73
     0
176
     1
 90
        0
176
     1
 40
-0.6
176
     1
 41
-30.0
176
     1
 62
     5
 63
     7
421
 16777215
176
     1
 74
     1
176
     1
 91
        4
176
     1
 64
     7
176
     1
 65
   257
176
     1
 75
     1
176
     1
175
     1
176
     1
 42
1.0
176
     1
 92
        8
176
     1
 66
     7
176
     1
 43
1.0
176
     1
 76
     1
176
     1
 77
     6
176
     1
 78
     2
176
     1
 67
     7
176
     1
 79
     5
176
     1
170
     0
176
     1
171
     0
176
     1
290
     0
176
     1
 93
        1
176
     1
 44
50.0
176
     1
173
     0
176
     1
  0
VISUALSTYLE
  5
3A
102
{ACAD_REACTORS
330
2A
102
}
330
2A
100
AcDbVisualStyle
  2
ColorChange
 70
    16
177
     2
291
     1
 71
     2
176
     1
 72
     2
176
     1
 73
     3
176
     1
 90
        0
176
     1
 40
-0.6
176
     1
 41
-30.0
176
     1
 62
     5
 63
     8
421
  8421504
176
     1
 74
     1
176
     1
 91
        4
176
     1
 64
     7
176
     1
 65
   257
176
     1
 75
     1
176
     1
175
     1
176
     1
 42
1.0
176
     1
 92
        8
176
     1
 66
     8
424
  8421504
176
     1
 43
1.0
176
     1
 76
     1
176
     1
 77
     6
176
     1
 78
     2
176
     1
 67
     7
176
     1
 79
     5
176
     1
170
     0
176
     1
171
     0
176
     1
290
     0
176
     1
 93
        1
176
     1
 44
0.0
176
     1
173
     0
176
     1
  0
VISUALSTYLE
  5
34
102
{ACAD_REACTORS
330
2A
102
}
330
2A
100
AcDbVisualStyle
  2
Conceptual
 70
     9
177
     2
291
     0
 71
     3
176
     1
 72
     2
176
     1
 73
     0
176
     1
 90
        0
176
     1
 40
-0.6
176
     1
 41
-30.0
176
     1
 62
     5
 63
     7
421
 16777215
176
     1
 74
     2
176
     1
 91
        2
176
     1
 64
     7
176
     1
 65
   257
176
     1
 75
     1
176
     1
175
     1
176
     1
 42
40.0
176
     1
 92
        8
176
     1
 66
     7
176
     1
 43
1.0
176
     1
 76
     1
176
     1
 77
     6
176
     1
 78
     2
176
     1
 67
     7
176
     1
 79
     3
176
     1
170
     0
176
     1
171
     0
176
     1
290
     0
176
     1
 93
        1
176
     1
 44
0.0
176
     1
173
     0
176
     1
  0
VISUALSTYLE
  5
35
102
{ACAD_REACTORS
330
2A
102
}
330
2A
100
AcDbVisualStyle
  2
Dim
 70
    11
177
     2
291
     1
 71
     2
176
     1
 72
     2
176
     1
 73
     0
176
     1
 90
        0
176
     1
 40
-0.6
176
     1
 41
-30.0
176
     1
 62
     5
 63
     7
421
 16777215
176
     1
 74
     1
176
     1
 91
        4
176
     1
 64
     7
176
     1
 65
   257
176
     1
 75
     1
176
     1
175
     1
176
     1
 42
1.0
176
     1
 92
        8
176
     1
 66
     7
176
     1
 43
1.0
176
     1
 76
     1
176
     1
 77
     6
176
     1
 78
     2
176
     1
 67
     7
176
     1
 79
     5
176
     1
170
     0
176
     1
171
     0
176
     1
290
     0
176
     1
 93
        1
176
     1
 44
-50.0
176
     1
173
     0
176
     1
  0
VISUALSTYLE
  5
39
102
{ACAD_REACTORS
330
2A
102
}
330
2A
100
AcDbVisualStyle
  2
Facepattern
 70
    15
177
     2
291
     1
 71
     2
176
     1
 72
     2
176
     1
 73
     0
176
     1
 90
        0
176
     1
 40
-0.6
176
     1
 41
-30.0
176
     1
 62
     5
 63
     7
421
 16777215
176
     1
 74
     1
176
     1
 91
        4
176
     1
 64
     7
176
     1
 65
   257
176
     1
 75
     1
176
     1
175
     1
176
     1
 42
1.0
176
     1
 92
        8
176
     1
 66
     7
176
     1
 43
1.0
176
     1
 76
     1
176
     1
 77
     6
176
     1
 78
     2
176
     1
 67
     7
176
     1
 79
     5
176
     1
170
     0
176
     1
171
     0
176
     1
290
     0
176
     1
 93
        1
176
     1
 44
0.0
176
     1
173
     0
176
     1
  0
VISUALSTYLE
  5
2B
102
{ACAD_REACTORS
330
2A
102
}
330
2A
100
AcDbVisualStyle
  2
Flat
 70
     0
177
     2
291
     1
 71
     2
176
     1
 72
     1
176
     1
 73
     1
176
     1
 90
        2
176
     1
 40
-0.6
176
     1
 41
30.0
176
     1
 62
     5
 63
     7
421
 16777215
176
     1
 74
     0
176
     1
 91
        4
176
     1
 64
     7
176
     1
 65
   257
176
     1
 75
     1
176
     1
175
     1
176
     1
 42
1.0
176
     1
 92
        8
176
     1
 66
     7
176
     1
 43
1.0
176
     1
 76
     1
176
     1
 77
     6
176
     1
 78
     2
176
     1
 67
     7
176
     1
 79
     5
176
     1
170
     0
176
     1
171
     0
176
     1
290
     0
176
     1
 93
       13
176
     1
 44
0.0
176
     1
173
     0
176
     1
  0
VISUALSTYLE
  5
2C
102
{ACAD_REACTORS
330
2A
102
}
330
2A
100
AcDbVisualStyle
  2
FlatWithEdges
 70
     1
177
     2
291
     1
 71
     2
176
     1
 72
     1
176
     1
 73
     1
176
     1
 90
        2
176
     1
 40
-0.6
176
     1
 41
30.0
176
     1
 62
     5
 63
     7
421
 16777215
176
     1
 74
     1
176
     1
 91
        4
176
     1
 64
     7
176
     1
 65
   257
176
     1
 75
     1
176
     1
175
     1
176
     1
 42
1.0
176
     1
 92
        0
176
     1
 66
   257
176
     1
 43
1.0
176
     1
 76
     1
176
     1
 77
     6
176
     1
 78
     2
176
     1
 67
     7
176
     1
 79
     5
176
     1
170
     0
176
     1
171
     0
176
     1
290
     0
176
     1
 93
       13
176
     1
 44
0.0
176
     1
173
     0
176
     1
  0
VISUALSTYLE
  5
2D
102
{ACAD_REACTORS
330
2A
102
}
330
2A
100
AcDbVisualStyle
  2
Gouraud
 70
     2
177
     2
291
     1
 71
     2
176
     1
 72
     2
176
     1
 73
     1
176
     1
 90
        2
176
     1
 40
-0.6
176
     1
 41
30.0
176
     1
 62
     5
 63
     7
421
 16777215
176
     1
 74
     0
176
     1
 91
        4
176
     1
 64
     7
176
     1
 65
   257
176
     1
 75
     1
176
     1
175
     1
176
     1
 42
1.0
176
     1
 92
        0
176
     1
 66
     7
176
     1
 43
1.0
176
     1
 76
     1
176
     1
 77
     6
176
     1
 78
     2
176
     1
 67
     7
176
     1
 79
     5
176
     1
170
     0
176
     1
171
     0
176
     1
290
     0
176
     1
 93
       13
176
     1
 44
0.0
176
     1
173
     0
176
     1
  0
VISUALSTYLE
  5
2E
102
{ACAD_REACTORS
330
2A
102
}
330
2A
100
AcDbVisualStyle
  2
GouraudWithEdges
 70
     3
177
     2
291
     1
 71
     2
176
     1
 72
     2
176
     1
 73
     1
176
     1
 90
        2
176
     1
 40
-0.6
176
     1
 41
30.0
176
     1
 62
     5
 63
     7
421
 16777215
176
     1
 74
     1
176
     1
 91
        4
176
     1
 64
     7
176
     1
 65
   257
176
     1
 75
     1
176
     1
175
     1
176
     1
 42
1.0
176
     1
 92
        0
176
     1
 66
   257
176
     1
 43
1.0
176
     1
 76
     1
176
     1
 77
     6
176
     1
 78
     2
176
     1
 67
     7
176
     1
 79
     5
176
     1
170
     0
176
     1
171
     0
176
     1
290
     0
176
     1
 93
       13
176
     1
 44
0.0
176
     1
173
     0
176
     1
  0
VISUALSTYLE
  5
38
102
{ACAD_REACTORS
330
2A
102
}
330
2A
100
AcDbVisualStyle
  2
Linepattern
 70
    14
177
     2
291
     1
 71
     2
176
     1
 72
     2
176
     1
 73
     0
176
     1
 90
        0
176
     1
 40
-0.6
176
     1
 41
-30.0
176
     1
 62
     5
 63
     7
421
 16777215
176
     1
 74
     1
176
     1
 91
        4
176
     1
 64
     7
176
     1
 65
   257
176
     1
 75
     7
176
     1
175
     7
176
     1
 42
1.0
176
     1
 92
        8
176
     1
 66
     7
176
     1
 43
1.0
176
     1
 76
     1
176
     1
 77
     6
176
     1
 78
     2
176
     1
 67
     7
176
     1
 79
     5
176
     1
170
     0
176
     1
171
     0
176
     1
290
     0
176
     1
 93
        1
176
     1
 44
0.0
176
     1
173
     0
176
     1
  0
VISUALSTYLE
  5
33
102
{ACAD_REACTORS
330
2A
102
}
330
2A
100
AcDbVisualStyle
  2
Realistic
 70
     8
177
     2
291
     0
 71
     2
176
     1
 72
     2
176
     1
 73
     0
176
     1
 90
        0
176
     1
 40
-0.6
176
     1
 41
-30.0
176
     1
 62
     5
 63
     7
421
 16777215
176
     1
 74
     1
176
     1
 91
        0
176
     1
 64
     7
176
     1
 65
   257
176
     1
 75
     1
176
     1
175
     1
176
     1
 42
1.0
176
     1
 92
        8
176
     1
 66
     8
424
  7895160
176
     1
 43
1.0
176
     1
 76
     1
176
     1
 77
     6
176
     1
 78
     2
176
     1
 67
     7
176
     1
 79
     5
176
     1
170
     0
176
     1
171
     0
176
     1
290
     0
176
     1
 93
       13
176
     1
 44
0.0
176
     1
173
     0
176
     1
  0
VISUALSTYLE
  5
37
102
{ACAD_REACTORS
330
2A
102
}
330
2A
100
AcDbVisualStyle
  2
Thicken
 70
    13
177
     2
291
     1
 71
     2
176
     1
 72
     2
176
     1
 73
     0
176
     1
 90
        0
176
     1
 40
-0.6
176
     1
 41
-30.0
176
     1
 62
     5
 63
     7
421
 16777215
176
     1
 74
     1
176
     1
 91
        4
176
     1
 64
     7
176
     1
 65
   257
176
     1
 75
     1
176
     1
175
     1
176
     1
 42
1.0
176
     1
 92
       12
176
     1
 66
     7
176
     1
 43
1.0
176
     1
 76
     1
176
     1
 77
     6
176
     1
 78
     2
176
     1
 67
     7
176
     1
 79
     5
176
     1
170
     0
176
     1
171
     0
176
     1
290
     0
176
     1
 93
        1
176
     1
 44
0.0
176
     1
173
     0
176
     1
  0
ENDSEC
  0
EOF
