  0
SECTION
  2
HEADER
  9
$ACADVER
  1
AC1024
  9
$ACADMAINTVER
 70
     6
  9
$DWGCODEPAGE
  3
UNDEFINED
  9
$INSBASE
 10
0.0
 20
0.0
 30
0.0
  9
$EXTMIN
 10
1.000000000000000E+20
 20
1.000000000000000E+20
 30
1.000000000000000E+20
  9
$EXTMAX
 10
-1.000000000000000E+20
 20
-1.000000000000000E+20
 30
-1.000000000000000E+20
  9
$LIMMIN
 10
0.0
 20
0.0
  9
$LIMMAX
 10
12.0
 20
9.0
  9
$ORTHOMODE
 70
     0
  9
$REGENMODE
 70
     1
  9
$FILLMODE
 70
     1
  9
$QTEXTMODE
 70
     0
  9
$MIRRTEXT
 70
     1
  9
$LTSCALE
 40
1.0
  9
$ATTMODE
 70
     1
  9
$TEXTSIZE
 40
0.2
  9
$TRACEWID
 40
0.05
  9
$TEXTSTYLE
  7
Standard
  9
$CLAYER
  8
0
  9
$CELTYPE
  6
ByLayer
  9
$CECOLOR
 62
   256
  9
$CELTSCALE
 40
1.0
  9
$DISPSILH
 70
     0
  9
$DIMSCALE
 40
1.0
  9
$DIMASZ
 40
0.18
  9
$DIMEXO
 40
0.0625
  9
$DIMDLI
 40
0.38
  9
$DIMRND
 40
0.0
  9
$DIMDLE
 40
0.0
  9
$DIMEXE
 40
0.18
  9
$DIMTP
 40
0.0
  9
$DIMTM
 40
0.0
  9
$DIMTXT
 40
0.18
  9
$DIMCEN
 40
0.09
  9
$DIMTSZ
 40
0.0
  9
$DIMTOL
 70
     0
  9
$DIMLIM
 70
     0
  9
$DIMTIH
 70
     1
  9
$DIMTOH
 70
     1
  9
$DIMSE1
 70
     0
  9
$DIMSE2
 70
     0
  9
$DIMTAD
 70
     0
  9
$DIMZIN
 70
     0
  9
$DIMBLK
  1

  9
$DIMASO
 70
     1
  9
$DIMSHO
 70
     1
  9
$DIMPOST
  1

  9
$DIMAPOST
  1

  9
$DIMALT
 70
     0
  9
$DIMALTD
 70
     2
  9
$DIMALTF
 40
25.4
  9
$DIMLFAC
 40
1.0
  9
$DIMTOFL
 70
     0
  9
$DIMTVP
 40
0.0
  9
$DIMTIX
 70
     0
  9
$DIMSOXD
 70
     0
  9
$DIMSAH
 70
     0
  9
$DIMBLK1
  1

  9
$DIMBLK2
  1

  9
$DIMSTYLE
  2
Standard
  9
$DIMCLRD
 70
     0
  9
$DIMCLRE
 70
     0
  9
$DIMCLRT
 70
     0
  9
$DIMTFAC
 40
1.0
  9
$DIMGAP
 40
0.09
  9
$DIMJUST
 70
     0
  9
$DIMSD1
 70
     0
  9
$DIMSD2
 70
     0
  9
$DIMTOLJ
 70
     1
  9
$DIMTZIN
 70
     0
  9
$DIMALTZ
 70
     0
  9
$DIMALTTZ
 70
     0
  9
$DIMUPT
 70
     0
  9
$DIMDEC
 70
     4
  9
$DIMTDEC
 70
     4
  9
$DIMALTU
 70
     2
  9
$DIMALTTD
 70
     2
  9
$DIMTXSTY
  7
Standard
  9
$DIMAUNIT
 70
     0
  9
$DIMADEC
 70
     0
  9
$DIMALTRND
 40
0.0
  9
$DIMAZIN
 70
     0
  9
$DIMDSEP
 70
    46
  9
$DIMATFIT
 70
     3
  9
$DIMFRAC
 70
     0
  9
$DIMLDRBLK
  1

  9
$DIMLUNIT
 70
     2
  9
$DIMLWD
 70
    -2
  9
$DIMLWE
 70
    -2
  9
$DIMTMOVE
 70
     0
  9
$DIMFXL
 40
1.0
  9
$DIMFXLON
 70
     0
  9
$DIMJOGANG
 40
0.7853981633974483
  9
$DIMTFILL
 70
     0
  9
$DIMTFILLCLR
 70
     0
  9
$DIMARCSYM
 70
     0
  9
$DIMLTYPE
  6

  9
$DIMLTEX1
  6

  9
$DIMLTEX2
  6

  9
$DIMTXTDIRECTION
 70
     0
  9
$LUNITS
 70
     2
  9
$LUPREC
 70
     4
  9
$SKETCHINC
 40
0.1
  9
$FILLETRAD
 40
0.5
  9
$AUNITS
 70
     0
  9
$AUPREC
 70
     0
  9
$MENU
  1
.
  9
$ELEVATION
 40
0.0
  9
$PELEVATION
 40
0.0
  9
$THICKNESS
 40
0.0
  9
$LIMCHECK
 70
     0
  9
$CHAMFERA
 40
0.5
  9
$CHAMFERB
 40
0.5
  9
$CHAMFERC
 40
1.0
  9
$CHAMFERD
 40
0.0
  9
$SKPOLY
 70
     0
  9
$TDCREATE
 40
2458113.725231481
  9
$TDUCREATE
 40
2458113.641898148
  9
$TDUPDATE
 40
2458113.725231481
  9
$TDUUPDATE
 40
2458113.641898148
  9
$TDINDWG
 40
0.0000000116
  9
$TDUSRTIMER
 40
0.0000000116
  9
$USRTIMER
 70
     1
  9
$ANGBASE
 50
0.0
  9
$ANGDIR
 70
     0
  9
$PDMODE
 70
     0
  9
$PDSIZE
 40
0.0
  9
$PLINEWID
 40
0.0
  9
$SPLFRAME
 70
     0
  9
$SPLINETYPE
 70
     6
  9
$SPLINESEGS
 70
     8
  9
$HANDSEED
  5
7A
  9
$SURFTAB1
 70
     6
  9
$SURFTAB2
 70
     6
  9
$SURFTYPE
 70
     6
  9
$SURFU
 70
     6
  9
$SURFV
 70
     6
  9
$UCSBASE
  2

  9
$UCSNAME
  2

  9
$UCSORG
 10
0.0
 20
0.0
 30
0.0
  9
$UCSXDIR
 10
1.0
 20
0.0
 30
0.0
  9
$UCSYDIR
 10
0.0
 20
1.0
 30
0.0
  9
$UCSORTHOREF
  2

  9
$UCSORTHOVIEW
 70
     0
  9
$UCSORGTOP
 10
0.0
 20
0.0
 30
0.0
  9
$UCSORGBOTTOM
 10
0.0
 20
0.0
 30
0.0
  9
$UCSORGLEFT
 10
0.0
 20
0.0
 30
0.0
  9
$UCSORGRIGHT
 10
0.0
 20
0.0
 30
0.0
  9
$UCSORGFRONT
 10
0.0
 20
0.0
 30
0.0
  9
$UCSORGBACK
 10
0.0
 20
0.0
 30
0.0
  9
$PUCSBASE
  2

  9
$PUCSNAME
  2

  9
$PUCSORG
 10
0.0
 20
0.0
 30
0.0
  9
$PUCSXDIR
 10
1.0
 20
0.0
 30
0.0
  9
$PUCSYDIR
 10
0.0
 20
1.0
 30
0.0
  9
$PUCSORTHOREF
  2

  9
$PUCSORTHOVIEW
 70
     0
  9
$PUCSORGTOP
 10
0.0
 20
0.0
 30
0.0
  9
$PUCSORGBOTTOM
 10
0.0
 20
0.0
 30
0.0
  9
$PUCSORGLEFT
 10
0.0
 20
0.0
 30
0.0
  9
$PUCSORGRIGHT
 10
0.0
 20
0.0
 30
0.0
  9
$PUCSORGFRONT
 10
0.0
 20
0.0
 30
0.0
  9
$PUCSORGBACK
 10
0.0
 20
0.0
 30
0.0
  9
$USERI1
 70
     0
  9
$USERI2
 70
     0
  9
$USERI3
 70
     0
  9
$USERI4
 70
     0
  9
$USERI5
 70
     0
  9
$USERR1
 40
0.0
  9
$USERR2
 40
0.0
  9
$USERR3
 40
0.0
  9
$USERR4
 40
0.0
  9
$USERR5
 40
0.0
  9
$WORLDVIEW
 70
     1
  9
$SHADEDGE
 70
     3
  9
$SHADEDIF
 70
    70
  9
$TILEMODE
 70
     1
  9
$MAXACTVP
 70
    64
  9
$PINSBASE
 10
0.0
 20
0.0
 30
0.0
  9
$PLIMCHECK
 70
     0
  9
$PEXTMIN
 10
1.000000000000000E+20
 20
1.000000000000000E+20
 30
1.000000000000000E+20
  9
$PEXTMAX
 10
-1.000000000000000E+20
 20
-1.000000000000000E+20
 30
-1.000000000000000E+20
  9
$PLIMMIN
 10
0.0
 20
0.0
  9
$PLIMMAX
 10
12.0
 20
9.0
  9
$UNITMODE
 70
     0
  9
$VISRETAIN
 70
     1
  9
$PLINEGEN
 70
     0
  9
$PSLTSCALE
 70
     1
  9
$TREEDEPTH
 70
  3020
  9
$CMLSTYLE
  2
Standard
  9
$CMLJUST
 70
     0
  9
$CMLSCALE
 40
1.0
  9
$PROXYGRAPHICS
 70
     1
  9
$MEASUREMENT
 70
     0
  9
$CELWEIGHT
370
    -1
  9
$ENDCAPS
280
     0
  9
$JOINSTYLE
280
     0
  9
$LWDISPLAY
290
     1
  9
$INSUNITS
 70
     1
  9
$HYPERLINKBASE
  1

  9
$STYLESHEET
  1

  9
$XEDIT
290
     1
  9
$CEPSNTYPE
380
     0
  9
$PSTYLEMODE
290
     1
  9
$FINGERPRINTGUID
  2
{113D6AB2-520B-B37E-9B5F-D3455ED46518}
  9
$VERSIONGUID
  2
{FAEB1C32-E019-11D5-929B-00C0DF256EC4}
  9
$EXTNAMES
290
     1
  9
$PSVPSCALE
 40
0.0
  9
$OLESTARTUP
290
     0
  9
$SORTENTS
280
   127
  9
$INDEXCTL
280
     0
  9
$HIDETEXT
280
     1
  9
$XCLIPFRAME
280
     2
  9
$HALOGAP
280
     0
  9
$OBSCOLOR
 70
   257
  9
$OBSLTYPE
280
     0
  9
$INTERSECTIONDISPLAY
280
     0
  9
$INTERSECTIONCOLOR
 70
   257
  9
$DIMASSOC
280
     2
  9
$PROJECTNAME
  1

  9
$CAMERADISPLAY
290
     0
  9
$LENSLENGTH
 40
50.0
  9
$CAMERAHEIGHT
 40
0.0
  9
$STEPSPERSEC
 40
2.0
  9
$STEPSIZE
 40
6.0
  9
$3DDWFPREC
 40
2.0
  9
$PSOLWIDTH
 40
0.25
  9
$PSOLHEIGHT
 40
4.0
  9
$LOFTANG1
 40
1.570796326794897
  9
$LOFTANG2
 40
1.570796326794897
  9
$LOFTMAG1
 40
0.0
  9
$LOFTMAG2
 40
0.0
  9
$LOFTPARAM
 70
     7
  9
$LOFTNORMALS
280
     1
  9
$LATITUDE
 40
37.795
  9
$LONGITUDE
 40
-122.394
  9
$NORTHDIRECTION
 40
0.0
  9
$TIMEZONE
 70
 -8000
  9
$LIGHTGLYPHDISPLAY
280
     1
  9
$TILEMODELIGHTSYNCH
280
     1
  9
$CMATERIAL
347
3C
  9
$SOLIDHIST
280
     1
  9
$SHOWHIST
280
     1
  9
$DWFFRAME
280
     2
  9
$DGNFRAME
280
     2
  9
$REALWORLDSCALE
290
     1
  9
$INTERFERECOLOR
 62
   256
  9
$CSHADOW
280
     0
  9
$SHADOWPLANELOCATION
 40
0.0
  0
ENDSEC
  0
SECTION
  2
CLASSES
  0
CLASS
  1
ACDBDICTIONARYWDFLT
  2
AcDbDictionaryWithDefault
  3
ObjectDBX Classes
 90
        0
 91
        4
280
     0
281
     0
  0
CLASS
  1
VISUALSTYLE
  2
AcDbVisualStyle
  3
ObjectDBX Classes
 90
     4095
 91
        4
280
     0
281
     0
  0
CLASS
  1
MATERIAL
  2
AcDbMaterial
  3
ObjectDBX Classes
 90
     1153
 91
        4
280
     0
281
     0
  0
CLASS
  1
SUN
  2
AcDbSun
  3
SCENEOE
 90
     1024
 91
        4
280
     0
281
     0
  0
ENDSEC
  0
SECTION
  2
TABLES
  0
TABLE
  2
VPORT
  5
8
330
0
100
AcDbSymbolTable
 70
     1
  0
VPORT
  5
29
330
8
100
AcDbSymbolTableRecord
100
AcDbViewportTableRecord
  2
*Active
 70
     0
 10
0.0
 20
0.0
 11
1.0
 21
1.0
 12
0.0
 22
0.0
 13
0.0
 23
0.0
 14
0.5
 24
0.5
 15
0.5
 25
0.5
 16
0.0
 26
0.0
 36
1.0
 17
297.6379999999999
 27
-420.9449999999997
 37
0.0
 40
841.8899999999994
 41
0.7070709950231031
 42
50.0
 43
0.0
 44
0.0
 50
0.0
 51
0.0
 71
     0
 72
   100
 73
     1
 74
     3
 75
     0
 76
     0
 77
     0
 78
     0
281
     0
 65
     1
110
0.0
120
0.0
130
0.0
111
1.0
121
0.0
131
0.0
112
0.0
122
1.0
132
0.0
 79
     0
146
0.0
 60
     3
 61
     5
292
     1
282
     1
141
0.0
142
0.0
 63
   250
361
3F
  0
ENDTAB
  0
TABLE
  2
LTYPE
  5
5
330
0
100
AcDbSymbolTable
 70
     1
  0
LTYPE
  5
14
330
5
100
AcDbSymbolTableRecord
100
AcDbLinetypeTableRecord
  2
ByBlock
 70
     0
  3

 72
    65
 73
     0
 40
0.0
  0
LTYPE
  5
15
330
5
100
AcDbSymbolTableRecord
100
AcDbLinetypeTableRecord
  2
ByLayer
 70
     0
  3

 72
    65
 73
     0
 40
0.0
  0
LTYPE
  5
16
330
5
100
AcDbSymbolTableRecord
100
AcDbLinetypeTableRecord
  2
Continuous
 70
     0
  3
Solid line
 72
    65
 73
     0
 40
0.0
  0
ENDTAB
  0
TABLE
  2
LAYER
  5
2
330
0
100
AcDbSymbolTable
 70
     2
  0
LAYER
  5
10
330
2
100
AcDbSymbolTableRecord
100
AcDbLayerTableRecord
  2
0
 70
     0
 62
     7
  6
Continuous
370
    -3
390
F
347
3E
  0
LAYER
  5
40
330
2
100
AcDbSymbolTableRecord
100
AcDbLayerTableRecord
  2
Layer 1
 70
     0
 62
     7
  6
Continuous
370
    -3
390
F
347
3E
  0
ENDTAB
  0
TABLE
  2
STYLE
  5
3
330
0
100
AcDbSymbolTable
 70
     1
  0
STYLE
  5
11
330
3
100
AcDbSymbolTableRecord
100
AcDbTextStyleTableRecord
  2
Standard
 70
     0
 40
0.0
 41
1.0
 50
0.0
 71
     0
 42
0.2
  3
txt
  4

  0
ENDTAB
  0
TABLE
  2
VIEW
  5
6
330
0
100
AcDbSymbolTable
 70
     0
  0
ENDTAB
  0
TABLE
  2
UCS
  5
7
330
0
100
AcDbSymbolTable
 70
     0
  0
ENDTAB
  0
TABLE
  2
APPID
  5
9
330
0
100
AcDbSymbolTable
 70
     1
  0
APPID
  5
12
330
9
100
AcDbSymbolTableRecord
100
AcDbRegAppTableRecord
  2
ACAD
 70
     0
  0
ENDTAB
  0
TABLE
  2
DIMSTYLE
  5
A
330
0
100
AcDbSymbolTable
 70
     1
100
AcDbDimStyleTable
  0
DIMSTYLE
105
27
330
A
100
AcDbSymbolTableRecord
100
AcDbDimStyleTableRecord
  2
Standard
 70
     0
178
     0
340
11
  0
ENDTAB
  0
TABLE
  2
BLOCK_RECORD
  5
1
330
0
100
AcDbSymbolTable
 70
     2
  0
BLOCK_RECORD
  5
1F
330
1
100
AcDbSymbolTableRecord
100
AcDbBlockTableRecord
  2
*Model_Space
340
22
 70
     0
280
     1
281
     0
  0
BLOCK_RECORD
  5
1B
330
1
100
AcDbSymbolTableRecord
100
AcDbBlockTableRecord
  2
*Paper_Space
340
1E
 70
     0
280
     1
281
     0
  0
BLOCK_RECORD
  5
23
330
1
100
AcDbSymbolTableRecord
100
AcDbBlockTableRecord
  2
*Paper_Space0
340
26
 70
     0
280
     1
281
     0
  0
BLOCK_RECORD
  5
41
330
1
100
AcDbSymbolTableRecord
100
AcDbBlockTableRecord
  2
block 2
340
0
102
{BLKREFS
331
42
102
}
 70
     0
280
     1
281
     0
  0
ENDTAB
  0
ENDSEC
  0
SECTION
  2
BLOCKS
  0
BLOCK
  5
20
330
1F
100
AcDbEntity
  8
0
100
AcDbBlockBegin
  2
*Model_Space
 70
     0
 10
0.0
 20
0.0
 30
0.0
  3
*Model_Space
  1

  0
ENDBLK
  5
21
330
1F
100
AcDbEntity
  8
0
100
AcDbBlockEnd
  0
BLOCK
  5
1C
330
1B
100
AcDbEntity
 67
     1
  8
0
100
AcDbBlockBegin
  2
*Paper_Space
 70
     0
 10
0.0
 20
0.0
 30
0.0
  3
*Paper_Space
  1

  0
ENDBLK
  5
1D
330
1B
100
AcDbEntity
 67
     1
  8
0
100
AcDbBlockEnd
  0
BLOCK
  5
24
330
23
100
AcDbEntity
  8
0
100
AcDbBlockBegin
  2
*Paper_Space0
 70
     0
 10
0.0
 20
0.0
 30
0.0
  3
*Paper_Space0
  1

  0
ENDBLK
  5
25
330
23
100
AcDbEntity
  8
0
100
AcDbBlockEnd
  0
BLOCK
  5
43
330
41
100
AcDbEntity
  8
0
100
AcDbBlockBegin
  2
block 2
 70
     0
 10
0.0
 20
0.0
 30
0.0
  3
block 2
  1

  0
SPLINE
  5
45
330
41
100
AcDbEntity
  8
Layer 1
 62
   156
420
  1785491
370
    18
100
AcDbSpline
210
0.0
220
0.0
230
1.0
 70
     8
 71
     3
 72
    17
 73
    13
 74
     0
 42
0.0000000001
 43
0.0000000001
 12
1.0
 22
0.0
 32
0.0
 13
1.0
 23
0.0
 33
0.0
 40
0.0
 40
0.0
 40
0.0
 40
0.0
 40
1.0
 40
1.0
 40
1.0
 40
2.0
 40
2.0
 40
2.0
 40
3.0
 40
3.0
 40
3.0
 40
4.0
 40
4.0
 40
4.0
 40
4.0
 10
200.6734555618204
 20
-112.8625212501092
 30
0.0
 10
168.8241559248136
 20
-111.825874941992
 30
0.0
 10
144.0980995852533
 20
-104.5897109634516
 30
0.0
 10
144.0980995852533
 20
-95.80374587568531
 30
0.0
 10
144.0980995852533
 20
-86.31973990632196
 30
0.0
 10
172.9092397149034
 20
-78.63197151178974
 30
0.0
 10
208.4741250603511
 20
-78.63197151178974
 30
0.0
 10
244.0390104057997
 20
-78.63197151178974
 30
0.0
 10
272.8912134911679
 20
-86.31973990632196
 30
0.0
 10
272.8912134911679
 20
-95.80374587568531
 30
0.0
 10
272.8912134911679
 20
-104.8258107231577
 30
0.0
 10
246.9026792698523
 20
-112.2056705753475
 30
0.0
 10
213.8730080854348
 20
-112.9344083411233
 30
0.0
  0
SPLINE
  5
46
330
41
100
AcDbEntity
  8
Layer 1
 62
   156
420
  1785491
370
    18
100
AcDbSpline
210
0.0
220
0.0
230
1.0
 70
     8
 71
     3
 72
    11
 73
     7
 74
     0
 42
0.0000000001
 43
0.0000000001
 12
1.0
 22
0.0
 32
0.0
 13
1.0
 23
0.0
 33
0.0
 40
0.0
 40
0.0
 40
0.0
 40
0.0
 40
1.0
 40
1.0
 40
1.0
 40
2.0
 40
2.0
 40
2.0
 40
2.0
 10
182.7216612330994
 20
-748.196062833129
 30
0.0
 10
153.4691604021555
 20
-707.2322969097313
 30
0.0
 10
140.6185891651476
 20
-675.9783024566423
 30
0.0
 10
146.1406414802977
 20
-627.2241327736465
 30
0.0
 10
148.2550313121683
 20
-608.6154388274263
 30
0.0
 10
156.4149404948275
 20
-599.7986398158191
 30
0.0
 10
165.8167960813826
 20
-582.2779233195015
 30
0.0
  0
SPLINE
  5
47
330
41
100
AcDbEntity
  8
Layer 1
 62
   156
420
  1785491
370
    18
100
AcDbSpline
210
0.0
220
0.0
230
1.0
 70
     8
 71
     3
 72
    14
 73
    10
 74
     0
 42
0.0000000001
 43
0.0000000001
 12
1.0
 22
0.0
 32
0.0
 13
1.0
 23
0.0
 33
0.0
 40
0.0
 40
0.0
 40
0.0
 40
0.0
 40
1.0
 40
1.0
 40
1.0
 40
2.0
 40
2.0
 40
2.0
 40
3.0
 40
3.0
 40
3.0
 40
3.0
 10
181.8389496190584
 20
-748.5758315479779
 30
0.0
 10
157.9032254788544
 20
-731.8249255617084
 30
0.0
 10
148.0189609181052
 20
-715.607749902867
 30
0.0
 10
139.5819232799367
 20
-688.5620183184783
 30
0.0
 10
132.2739260473918
 20
-665.4576697562588
 30
0.0
 10
127.583263993045
 20
-651.324094053909
 30
0.0
 10
131.1140908721154
 20
-627.6552301831471
 30
0.0
 10
134.0393443812018
 20
-608.2767355154319
 30
0.0
 10
144.2623220424912
 20
-598.9775177410829
 30
0.0
 10
156.8255015321947
 20
-583.3043308071956
 30
0.0
  0
SPLINE
  5
48
330
41
100
AcDbEntity
  8
Layer 1
 62
   156
420
  1785491
370
    18
100
AcDbSpline
210
0.0
220
0.0
230
1.0
 70
     8
 71
     3
 72
    14
 73
    10
 74
     0
 42
0.0000000001
 43
0.0000000001
 12
1.0
 22
0.0
 32
0.0
 13
1.0
 23
0.0
 33
0.0
 40
0.0
 40
0.0
 40
0.0
 40
0.0
 40
1.0
 40
1.0
 40
1.0
 40
2.0
 40
2.0
 40
2.0
 40
3.0
 40
3.0
 40
3.0
 40
3.0
 10
180.4225174661315
 20
-747.4878443095258
 30
0.0
 10
163.055769923807
 20
-739.379256480106
 30
0.0
 10
158.1085059975376
 20
-727.8732743534747
 30
0.0
 10
146.6127871626986
 20
-713.5241499463773
 30
0.0
 10
136.0408282147991
 20
-700.2732809637964
 30
0.0
 10
129.3384141407869
 20
-691.4051508104021
 30
0.0
 10
126.4131655259744
 20
-674.9826995271505
 30
0.0
 10
120.1828922400882
 20
-640.0336508434812
 30
0.0
 10
123.4673854333023
 20
-601.9335611255483
 30
0.0
 10
156.4867884316527
 20
-584.0843997147567
 30
0.0
  0
SPLINE
  5
49
330
41
100
AcDbEntity
  8
Layer 1
 62
   156
420
  1785491
370
    18
100
AcDbSpline
210
0.0
220
0.0
230
1.0
 70
     8
 71
     3
 72
    17
 73
    13
 74
     0
 42
0.0000000001
 43
0.0000000001
 12
1.0
 22
0.0
 32
0.0
 13
1.0
 23
0.0
 33
0.0
 40
0.0
 40
0.0
 40
0.0
 40
0.0
 40
1.0
 40
1.0
 40
1.0
 40
2.0
 40
2.0
 40
2.0
 40
3.0
 40
3.0
 40
3.0
 40
4.0
 40
4.0
 40
4.0
 40
4.0
 10
171.503065959495
 20
-747.2620347601205
 30
0.0
 10
150.3694211440379
 20
-739.379256480106
 30
0.0
 10
145.1963501154987
 20
-725.0404002590749
 30
0.0
 10
133.4645559923219
 20
-707.3965193669683
 30
0.0
 10
122.7694326486326
 20
-691.4051508104021
 30
0.0
 10
112.8954313796776
 20
-682.4241195530049
 30
0.0
 10
111.8484973083978
 20
-663.5793552127252
 30
0.0
 10
110.5654928430567
 20
-640.700818647043
 30
0.0
 10
110.4423235529912
 20
-624.9249890066767
 30
0.0
 10
124.5348460881669
 20
-606.1931257703945
 30
0.0
 10
132.9821470181287
 20
-595.0361200360967
 30
0.0
 10
141.080471555756
 20
-583.6327757216695
 30
0.0
 10
155.7785723551897
 20
-584.7412895437083
 30
0.0
  0
SPLINE
  5
4A
330
41
100
AcDbEntity
  8
Layer 1
 62
   156
420
  1785491
370
    18
100
AcDbSpline
210
0.0
220
0.0
230
1.0
 70
     8
 71
     3
 72
    14
 73
    10
 74
     0
 42
0.0000000001
 43
0.0000000001
 12
1.0
 22
0.0
 32
0.0
 13
1.0
 23
0.0
 33
0.0
 40
0.0
 40
0.0
 40
0.0
 40
0.0
 40
1.0
 40
1.0
 40
1.0
 40
2.0
 40
2.0
 40
2.0
 40
3.0
 40
3.0
 40
3.0
 40
3.0
 10
154.1260600196538
 20
-737.1930187114122
 30
0.0
 10
146.7154249749028
 20
-727.8732743534747
 30
0.0
 10
138.0217903590856
 20
-726.128387497527
 30
0.0
 10
130.1595362155222
 20
-717.0344502418611
 30
0.0
 10
111.7355962044003
 20
-695.787894533858
 30
0.0
 10
102.795618114179
 20
-679.9094319755604
 30
0.0
 10
100.5785904701033
 20
-652.6378932889038
 30
0.0
 10
97.86887587722049
 20
-619.3413569407712
 30
0.0
 10
120.3163248219471
 20
-591.6900421978498
 30
0.0
 10
155.1832573827251
 20
-583.5917225544981
 30
0.0
  0
SPLINE
  5
4B
330
41
100
AcDbEntity
  8
Layer 1
 62
   156
420
  1785491
370
    18
100
AcDbSpline
210
0.0
220
0.0
230
1.0
 70
     8
 71
     3
 72
    29
 73
    25
 74
     0
 42
0.0000000001
 43
0.0000000001
 12
1.0
 22
0.0
 32
0.0
 13
1.0
 23
0.0
 33
0.0
 40
0.0
 40
0.0
 40
0.0
 40
0.0
 40
1.0
 40
1.0
 40
1.0
 40
2.0
 40
2.0
 40
2.0
 40
3.0
 40
3.0
 40
3.0
 40
4.0
 40
4.0
 40
4.0
 40
5.0
 40
5.0
 40
5.0
 40
6.0
 40
6.0
 40
6.0
 40
7.0
 40
7.0
 40
7.0
 40
8.0
 40
8.0
 40
8.0
 40
8.0
 10
140.5056831668771
 20
-588.0257778426494
 30
0.0
 10
121.1169203130949
 20
-598.8646166370854
 30
0.0
 10
107.9892157263057
 20
-604.1197939999693
 30
0.0
 10
96.32927443422886
 20
-622.1947576187558
 30
0.0
 10
86.12682825079901
 20
-638.0834883631214
 30
0.0
 10
90.9406595952114
 20
-651.324094053909
 30
0.0
 10
95.87766022968935
 20
-669.0603445721536
 30
0.0
 10
106.685684677378
 20
-707.6223313635128
 30
0.0
 10
128.0554096754449
 20
-726.7852822207515
 30
0.0
 10
162.583624241408
 20
-750.1154378852443
 30
0.0
 10
145.6684957978978
 20
-747.0464909496441
 30
0.0
 10
140.1464434827494
 20
-736.8645689026634
 30
0.0
 10
127.3574568907752
 20
-726.4568373062775
 30
0.0
 10
103.7399094789798
 20
-707.2938815547641
 30
0.0
 10
95.28234036295089
 20
-689.9887186574724
 30
0.0
 10
88.37465066452751
 20
-661.6086563602294
 30
0.0
 10
78.97279018369863
 20
-623.3956557497531
 30
0.0
 10
115.1432537934061
 20
-586.157731485182
 30
0.0
 10
156.9589341140536
 20
-583.6327757216695
 30
0.0
 10
156.9589341140536
 20
-583.6327757216695
 30
0.0
 10
169.717125936374
 20
-580.1737967794252
 30
0.0
 10
169.717125936374
 20
-580.1737967794252
 30
0.0
 10
169.717125936374
 20
-580.1737967794252
 30
0.0
 10
177.733339245382
 20
-578.9010507116036
 30
0.0
 10
177.733339245382
 20
-578.9010507116036
 30
0.0
  0
SPLINE
  5
4C
330
41
100
AcDbEntity
  8
Layer 1
 62
   156
420
  1785491
370
    18
100
AcDbSpline
210
0.0
220
0.0
230
1.0
 70
     8
 71
     3
 72
    17
 73
    13
 74
     0
 42
0.0000000001
 43
0.0000000001
 12
1.0
 22
0.0
 32
0.0
 13
1.0
 23
0.0
 33
0.0
 40
0.0
 40
0.0
 40
0.0
 40
0.0
 40
1.0
 40
1.0
 40
1.0
 40
2.0
 40
2.0
 40
2.0
 40
3.0
 40
3.0
 40
3.0
 40
4.0
 40
4.0
 40
4.0
 40
4.0
 10
227.0417658393972
 20
-750.7107528577089
 30
0.0
 10
236.443626320226
 20
-741.9555287025851
 30
0.0
 10
247.1284814778492
 20
-740.703319006896
 30
0.0
 10
256.5098055865437
 20
-731.9378315599788
 30
0.0
 10
281.184560149959
 20
-708.9361257042347
 30
0.0
 10
295.3899740005854
 20
-691.4051508104021
 30
0.0
 10
298.8078997756566
 20
-659.2171380728523
 30
0.0
 10
301.4970877849537
 20
-634.0086629705511
 30
0.0
 10
302.6877079413371
 20
-614.1888222843627
 30
0.0
 10
283.2989450875548
 20
-596.1241170630947
 30
0.0
 10
272.6140801413849
 20
-586.157731485182
 30
0.0
 10
264.8544638100266
 20
-588.1386985237405
 30
0.0
 10
251.3367345580036
 20
-581.88788886572
 30
0.0
  0
SPLINE
  5
4D
330
41
100
AcDbEntity
  8
Layer 1
 62
   156
420
  1785491
370
    18
100
AcDbSpline
210
0.0
220
0.0
230
1.0
 70
     8
 71
     3
 72
    14
 73
    10
 74
     0
 42
0.0000000001
 43
0.0000000001
 12
1.0
 22
0.0
 32
0.0
 13
1.0
 23
0.0
 33
0.0
 40
0.0
 40
0.0
 40
0.0
 40
0.0
 40
1.0
 40
1.0
 40
1.0
 40
2.0
 40
2.0
 40
2.0
 40
3.0
 40
3.0
 40
3.0
 40
3.0
 10
246.6563406897221
 20
-737.6138430405736
 30
0.0
 10
266.1682630450214
 20
-713.3188694276942
 30
0.0
 10
280.0144567886146
 20
-698.6413050003921
 30
0.0
 10
286.5834333864959
 20
-668.8448007616771
 30
0.0
 10
294.4456924243323
 20
-633.4646742455989
 30
0.0
 10
289.9397696222622
 20
-588.2208048580869
 30
0.0
 10
251.7575637814371
 20
-581.9494784050275
 30
0.0
 10
238.404056986652
 20
-579.7529675559908
 30
0.0
 10
233.8981439731288
 20
-578.521294232436
 30
0.0
 10
233.8981439731288
 20
-578.521294232436
 30
0.0
  0
SPLINE
  5
4E
330
41
100
AcDbEntity
  8
Layer 1
 62
   156
420
  1785491
370
    18
100
AcDbSpline
210
0.0
220
0.0
230
1.0
 70
     8
 71
     3
 72
    26
 73
    22
 74
     0
 42
0.0000000001
 43
0.0000000001
 12
1.0
 22
0.0
 32
0.0
 13
1.0
 23
0.0
 33
0.0
 40
0.0
 40
0.0
 40
0.0
 40
0.0
 40
1.0
 40
1.0
 40
1.0
 40
2.0
 40
2.0
 40
2.0
 40
3.0
 40
3.0
 40
3.0
 40
4.0
 40
4.0
 40
4.0
 40
5.0
 40
5.0
 40
5.0
 40
6.0
 40
6.0
 40
6.0
 40
7.0
 40
7.0
 40
7.0
 40
7.0
 10
243.8439931789089
 20
-587.3688880136979
 30
0.0
 10
272.7372592199972
 20
-603.4526261964074
 30
0.0
 10
272.1521977507773
 20
-632.4895881111461
 30
0.0
 10
268.7342719757053
 20
-663.5793552127252
 30
0.0
 10
266.8456892461054
 20
-680.3507877825832
 30
0.0
 10
265.1008023901568
 20
-689.9887186574724
 30
0.0
 10
256.9716879771513
 20
-705.2102815982707
 30
0.0
 10
251.1211907475263
 20
-716.2646495203644
 30
0.0
 10
247.2413923703944
 20
-721.9611875845458
 30
0.0
 10
239.1533311245612
 20
-731.475949169373
 30
0.0
 10
234.9040150886876
 20
-736.4232130956407
 30
0.0
 10
233.5081095193473
 20
-742.2326571580943
 30
0.0
 10
226.9391231329191
 20
-743.7517344646367
 30
0.0
 10
246.0918155926374
 20
-713.9757690451916
 30
0.0
 10
258.1623277106291
 20
-696.1163492368814
 30
0.0
 10
261.2209942244772
 20
-661.8344683567739
 30
0.0
 10
262.5245350619534
 20
-646.9413503304495
 30
0.0
 10
260.7488534363511
 20
-638.6172186905533
 30
0.0
 10
258.8808070788837
 20
-623.7241006642271
 30
0.0
 10
256.9716879771513
 20
-608.728359508521
 30
0.0
 10
256.1711022745494
 20
-598.4232510415168
 30
0.0
 10
244.5522141496449
 20
-587.5844318241761
 30
0.0
  0
SPLINE
  5
4F
330
41
100
AcDbEntity
  8
Layer 1
 62
   156
420
  1785491
370
    18
100
AcDbSpline
210
0.0
220
0.0
230
1.0
 70
     8
 71
     3
 72
    14
 73
    10
 74
     0
 42
0.0000000001
 43
0.0000000001
 12
1.0
 22
0.0
 32
0.0
 13
1.0
 23
0.0
 33
0.0
 40
0.0
 40
0.0
 40
0.0
 40
0.0
 40
1.0
 40
1.0
 40
1.0
 40
2.0
 40
2.0
 40
2.0
 40
3.0
 40
3.0
 40
3.0
 40
3.0
 10
204.7996023076284
 20
-748.4629279968431
 30
0.0
 10
212.5386822668534
 20
-742.561106966843
 30
0.0
 10
211.7894081289451
 20
-734.3396180334239
 30
0.0
 10
214.2425159556315
 20
-725.3688451735507
 30
0.0
 10
221.0578311336403
 20
-700.8275378748149
 30
0.0
 10
216.7058821798364
 20
-686.1602318450332
 30
0.0
 10
218.4712956193707
 20
-660.951756742732
 30
0.0
 10
220.6985914495126
 20
-630.0775432401788
 30
0.0
 10
222.0021224984412
 20
-612.5465781348921
 30
0.0
 10
211.4301684448164
 20
-580.3585458202488
 30
0.0
  0
POLYLINE
  5
50
330
41
100
AcDbEntity
  8
Layer 1
 62
   156
420
  1785491
370
    18
100
AcDb2dPolyline
 66
     1
 10
0.0
 20
0.0
 30
0.0
  0
VERTEX
  5
51
330
50
100
AcDbEntity
  8
Layer 1
 62
   156
420
  1785491
370
    18
100
AcDbVertex
100
AcDb2dVertex
 10
204.9125034116278
 20
-748.4116066436036
 30
0.0
  0
VERTEX
  5
52
330
50
100
AcDbEntity
  8
Layer 1
 62
   156
420
  1785491
370
    18
100
AcDbVertex
100
AcDb2dVertex
 10
211.5020163816425
 20
-580.2969758580384
 30
0.0
  0
SEQEND
  5
53
330
50
100
AcDbEntity
  8
Layer 1
 62
   156
420
  1785491
370
    18
  0
SPLINE
  5
54
330
41
100
AcDbEntity
  8
Layer 1
 62
   156
420
  1785491
370
    18
100
AcDbSpline
210
0.0
220
0.0
230
1.0
 70
     8
 71
     3
 72
    14
 73
    10
 74
     0
 42
0.0000000001
 43
0.0000000001
 12
1.0
 22
0.0
 32
0.0
 13
1.0
 23
0.0
 33
0.0
 40
0.0
 40
0.0
 40
0.0
 40
0.0
 40
1.0
 40
1.0
 40
1.0
 40
2.0
 40
2.0
 40
2.0
 40
3.0
 40
3.0
 40
3.0
 40
3.0
 10
194.032631027113
 20
-749.0069216160682
 30
0.0
 10
178.9034426067246
 20
-715.074019575437
 30
0.0
 10
172.6834375069056
 20
-693.4990189529562
 30
0.0
 10
172.6834375069056
 20
-656.6819239118195
 30
0.0
 10
172.6834375069056
 20
-656.6819239118195
 30
0.0
 10
172.6834375069056
 20
-630.1699177605897
 30
0.0
 10
172.6834375069056
 20
-630.1699177605897
 30
0.0
 10
172.6834375069056
 20
-610.2474245793765
 30
0.0
 10
175.4649902480669
 20
-596.2062233974411
 30
0.0
 10
186.2730146957556
 20
-578.9010507116036
 30
0.0
  0
SPLINE
  5
55
330
41
100
AcDbEntity
  8
Layer 1
 62
   156
420
  1785491
370
    18
100
AcDbSpline
210
0.0
220
0.0
230
1.0
 70
     8
 71
     3
 72
    20
 73
    16
 74
     0
 42
0.0000000001
 43
0.0000000001
 12
1.0
 22
0.0
 32
0.0
 13
1.0
 23
0.0
 33
0.0
 40
0.0
 40
0.0
 40
0.0
 40
0.0
 40
1.0
 40
1.0
 40
1.0
 40
2.0
 40
2.0
 40
2.0
 40
3.0
 40
3.0
 40
3.0
 40
4.0
 40
4.0
 40
4.0
 40
5.0
 40
5.0
 40
5.0
 40
5.0
 10
191.8258617805568
 20
-743.7004155585346
 30
0.0
 10
191.8258617805568
 20
-743.7004155585346
 30
0.0
 10
184.4254851333271
 20
-706.5240759389962
 30
0.0
 10
184.4254851333271
 20
-706.5240759389962
 30
0.0
 10
184.4254851333271
 20
-706.5240759389962
 30
0.0
 10
184.4254851333271
 20
-663.4767125062463
 30
0.0
 10
184.4254851333271
 20
-663.4767125062463
 30
0.0
 10
184.4254851333271
 20
-642.3430627965154
 30
0.0
 10
187.935785428811
 20
-630.518889258652
 30
0.0
 10
187.935785428811
 20
-609.3749909399503
 30
0.0
 10
187.935785428811
 20
-609.3749909399503
 30
0.0
 10
187.935785428811
 20
-594.8205762256202
 30
0.0
 10
187.935785428811
 20
-594.8205762256202
 30
0.0
 10
187.935785428811
 20
-594.8205762256202
 30
0.0
 10
193.622060201199
 20
-579.4142642439983
 30
0.0
 10
193.622060201199
 20
-579.4142642439983
 30
0.0
  0
SPLINE
  5
56
330
41
100
AcDbEntity
  8
Layer 1
 62
   156
420
  1785491
370
    18
100
AcDbSpline
210
0.0
220
0.0
230
1.0
 70
     8
 71
     3
 72
    17
 73
    13
 74
     0
 42
0.0000000001
 43
0.0000000001
 12
1.0
 22
0.0
 32
0.0
 13
1.0
 23
0.0
 33
0.0
 40
0.0
 40
0.0
 40
0.0
 40
0.0
 40
1.0
 40
1.0
 40
1.0
 40
2.0
 40
2.0
 40
2.0
 40
3.0
 40
3.0
 40
3.0
 40
4.0
 40
4.0
 40
4.0
 40
4.0
 10
217.5475308381574
 20
-748.1550072188165
 30
0.0
 10
219.7645682707798
 20
-743.8646404629071
 30
0.0
 10
223.3056535473688
 20
-743.2077408454115
 30
0.0
 10
225.9948317681183
 20
-739.379256480106
 30
0.0
 10
231.9890346599414
 20
-730.9524821337327
 30
0.0
 10
233.8570908059564
 20
-725.2456807777598
 30
0.0
 10
238.6709221503679
 20
-716.151743522094
 30
0.0
 10
252.5273547143861
 20
-690.3069051744296
 30
0.0
 10
255.1036416196839
 20
-673.2275444851366
 30
0.0
 10
255.1036416196839
 20
-644.7448492699605
 30
0.0
 10
255.1036416196839
 20
-619.2387142342923
 30
0.0
 10
234.5550435906252
 20
-578.6547121314743
 30
0.0
 10
234.5550435906252
 20
-578.6547121314743
 30
0.0
  0
SPLINE
  5
57
330
41
100
AcDbEntity
  8
Layer 1
 62
   156
420
  1785491
370
    18
100
AcDbSpline
210
0.0
220
0.0
230
1.0
 70
     8
 71
     3
 72
    26
 73
    22
 74
     0
 42
0.0000000001
 43
0.0000000001
 12
1.0
 22
0.0
 32
0.0
 13
1.0
 23
0.0
 33
0.0
 40
0.0
 40
0.0
 40
0.0
 40
0.0
 40
1.0
 40
1.0
 40
1.0
 40
2.0
 40
2.0
 40
2.0
 40
3.0
 40
3.0
 40
3.0
 40
4.0
 40
4.0
 40
4.0
 40
5.0
 40
5.0
 40
5.0
 40
6.0
 40
6.0
 40
6.0
 40
7.0
 40
7.0
 40
7.0
 40
7.0
 10
215.1046911975382
 20
-579.5374237455144
 30
0.0
 10
221.0988940893603
 20
-601.8822299837611
 30
0.0
 10
225.9948317681183
 20
-619.3413569407712
 30
0.0
 10
225.9948317681183
 20
-642.2301616925142
 30
0.0
 10
225.9948317681183
 20
-669.0603445721536
 30
0.0
 10
225.6458602700568
 20
-684.0561053049569
 30
0.0
 10
225.5226909799912
 20
-710.8965563706588
 30
0.0
 10
225.5226909799912
 20
-710.8965563706588
 30
0.0
 10
222.2279344949848
 20
-720.1136629163921
 30
0.0
 10
222.2279344949848
 20
-720.1136629163921
 30
0.0
 10
233.969991909953
 20
-709.1619328065044
 30
0.0
 10
232.5535499684802
 20
-697.6559506798731
 30
0.0
 10
232.5535499684802
 20
-682.5472888430704
 30
0.0
 10
232.5535499684802
 20
-682.5472888430704
 30
0.0
 10
232.5535499684802
 20
-634.1215738630981
 30
0.0
 10
232.5535499684802
 20
-634.1215738630981
 30
0.0
 10
232.5535499684802
 20
-625.1508010032212
 30
0.0
 10
227.8628879141324
 20
-611.4585811078941
 30
0.0
 10
227.8628879141324
 20
-611.4585811078941
 30
0.0
 10
227.8628879141324
 20
-611.4585811078941
 30
0.0
 10
223.9728213509334
 20
-587.440735950524
 30
0.0
 10
215.6486897110372
 20
-579.6606028241258
 30
0.0
  0
POLYLINE
  5
58
330
41
100
AcDbEntity
  8
Layer 1
 62
   156
420
  1785491
370
    18
100
AcDb2dPolyline
 66
     1
 10
0.0
 20
0.0
 30
0.0
  0
VERTEX
  5
59
330
58
100
AcDbEntity
  8
Layer 1
 62
   156
420
  1785491
370
    18
100
AcDbVertex
100
AcDb2dVertex
 10
201.2071858892532
 20
-751.4292346730999
 30
0.0
  0
VERTEX
  5
5A
330
58
100
AcDbEntity
  8
Layer 1
 62
   156
420
  1785491
370
    18
100
AcDbVertex
100
AcDb2dVertex
 10
199.677842843781
 20
-667.9723573337014
 30
0.0
  0
VERTEX
  5
5B
330
58
100
AcDbEntity
  8
Layer 1
 62
   156
420
  1785491
370
    18
100
AcDbVertex
100
AcDb2dVertex
 10
199.677842843781
 20
-582.709010940458
 30
0.0
  0
VERTEX
  5
5C
330
58
100
AcDbEntity
  8
Layer 1
 62
   156
420
  1785491
370
    18
100
AcDbVertex
100
AcDb2dVertex
 10
201.7614428002717
 20
-579.6606028241258
 30
0.0
  0
SEQEND
  5
5D
330
58
100
AcDbEntity
  8
Layer 1
 62
   156
420
  1785491
370
    18
  0
SPLINE
  5
5E
330
41
100
AcDbEntity
  8
Layer 1
 62
   156
420
  1785491
370
    18
100
AcDbSpline
210
0.0
220
0.0
230
1.0
 70
     8
 71
     3
 72
    23
 73
    19
 74
     0
 42
0.0000000001
 43
0.0000000001
 12
1.0
 22
0.0
 32
0.0
 13
1.0
 23
0.0
 33
0.0
 40
0.0
 40
0.0
 40
0.0
 40
0.0
 40
1.0
 40
1.0
 40
1.0
 40
2.0
 40
2.0
 40
2.0
 40
3.0
 40
3.0
 40
3.0
 40
4.0
 40
4.0
 40
4.0
 40
5.0
 40
5.0
 40
5.0
 40
6.0
 40
6.0
 40
6.0
 40
6.0
 10
195.4695897636266
 20
-738.4965497603407
 30
0.0
 10
194.3918707112434
 20
-723.7060744404935
 30
0.0
 10
189.3419591842194
 20
-715.8232937133434
 30
0.0
 10
189.3419591842194
 20
-701.0430816852913
 30
0.0
 10
189.3419591842194
 20
-696.0034481328839
 30
0.0
 10
189.5882977643496
 20
-693.2732069564117
 30
0.0
 10
189.5882977643496
 20
-688.2335636154567
 30
0.0
 10
189.5882977643496
 20
-688.2335636154567
 30
0.0
 10
189.5882977643496
 20
-670.4973130972139
 30
0.0
 10
189.5882977643496
 20
-670.4973130972139
 30
0.0
 10
189.5882977643496
 20
-668.5163558472032
 30
0.0
 10
190.7686595232117
 20
-667.418100422683
 30
0.0
 10
190.7686595232117
 20
-665.4576697562588
 30
0.0
 10
190.7686595232117
 20
-665.4576697562588
 30
0.0
 10
190.7686595232117
 20
-618.9102693198147
 30
0.0
 10
190.7686595232117
 20
-618.9102693198147
 30
0.0
 10
190.7686595232117
 20
-618.9102693198147
 30
0.0
 10
194.9974489755004
 20
-591.7413733396388
 30
0.0
 10
194.9974489755004
 20
-591.7413733396388
 30
0.0
  0
SPLINE
  5
5F
330
41
100
AcDbEntity
  8
Layer 1
 62
   156
420
  1785491
370
    18
100
AcDbSpline
210
0.0
220
0.0
230
1.0
 70
     8
 71
     3
 72
    17
 73
    13
 74
     0
 42
0.0000000001
 43
0.0000000001
 12
1.0
 22
0.0
 32
0.0
 13
1.0
 23
0.0
 33
0.0
 40
0.0
 40
0.0
 40
0.0
 40
0.0
 40
1.0
 40
1.0
 40
1.0
 40
2.0
 40
2.0
 40
2.0
 40
3.0
 40
3.0
 40
3.0
 40
4.0
 40
4.0
 40
4.0
 40
4.0
 10
195.4695897636266
 20
-737.8396501428433
 30
0.0
 10
195.4695897636266
 20
-737.8396501428433
 30
0.0
 10
195.4695897636266
 20
-723.829243730559
 30
0.0
 10
195.4695897636266
 20
-723.829243730559
 30
0.0
 10
195.4695897636266
 20
-723.829243730559
 30
0.0
 10
191.928494698489
 20
-692.7292182314632
 30
0.0
 10
191.928494698489
 20
-692.7292182314632
 30
0.0
 10
191.928494698489
 20
-661.9371110632528
 30
0.0
 10
193.5912752200929
 20
-644.6422065634815
 30
0.0
 10
193.5912752200929
 20
-613.8603773698887
 30
0.0
 10
193.5912752200929
 20
-605.987859934532
 30
0.0
 10
192.6367156692259
 20
-599.8499513805091
 30
0.0
 10
194.5252983988266
 20
-592.1827193581103
 30
0.0
  0
SPLINE
  5
60
330
41
100
AcDbEntity
  8
Layer 1
 62
   156
420
  1785491
370
    18
100
AcDbSpline
210
0.0
220
0.0
230
1.0
 70
     8
 71
     3
 72
    17
 73
    13
 74
     0
 42
0.0000000001
 43
0.0000000001
 12
1.0
 22
0.0
 32
0.0
 13
1.0
 23
0.0
 33
0.0
 40
0.0
 40
0.0
 40
0.0
 40
0.0
 40
1.0
 40
1.0
 40
1.0
 40
2.0
 40
2.0
 40
2.0
 40
3.0
 40
3.0
 40
3.0
 40
4.0
 40
4.0
 40
4.0
 40
4.0
 10
189.4138071210455
 20
-750.3823030489602
 30
0.0
 10
183.6556844118313
 20
-741.2986339793606
 30
0.0
 10
180.3301429457188
 20
-733.3542686071796
 30
0.0
 10
176.2039961999089
 20
-723.6034317340163
 30
0.0
 10
172.7860704248378
 20
-715.607749902867
 30
0.0
 10
172.7860704248378
 20
-710.2499249392276
 30
0.0
 10
171.503065959495
 20
-701.6999813027869
 30
0.0
 10
168.198051076969
 20
-679.693888165084
 30
0.0
 10
165.868117434622
 20
-667.2025566122065
 30
0.0
 10
165.868117434622
 20
-644.9706514779591
 30
0.0
 10
165.868117434622
 20
-618.5818244053407
 30
0.0
 10
162.0396306221819
 20
-597.8176727772588
 30
0.0
 10
182.598491943033
 20
-578.6547121314743
 30
0.0
  0
SPLINE
  5
61
330
41
100
AcDbEntity
  8
Layer 1
 62
   156
420
  1785491
370
    18
100
AcDbSpline
210
0.0
220
0.0
230
1.0
 70
     8
 71
     3
 72
    17
 73
    13
 74
     0
 42
0.0000000001
 43
0.0000000001
 12
1.0
 22
0.0
 32
0.0
 13
1.0
 23
0.0
 33
0.0
 40
0.0
 40
0.0
 40
0.0
 40
0.0
 40
1.0
 40
1.0
 40
1.0
 40
2.0
 40
2.0
 40
2.0
 40
3.0
 40
3.0
 40
3.0
 40
4.0
 40
4.0
 40
4.0
 40
4.0
 10
182.772982586338
 20
-741.9965843168939
 30
0.0
 10
179.252414104787
 20
-733.6827184159283
 30
0.0
 10
174.2025123663116
 20
-730.624032324984
 30
0.0
 10
171.503065959495
 20
-722.2896373932945
 30
0.0
 10
160.7053048035996
 20
-689.8655493674069
 30
0.0
 10
155.0703513844528
 20
-670.3844119932146
 30
0.0
 10
155.0703513844528
 20
-636.4412442136509
 30
0.0
 10
155.0703513844528
 20
-615.2973361064014
 30
0.0
 10
159.6481123348012
 20
-600.178396294983
 30
0.0
 10
171.1540944614344
 20
-581.7852461592429
 30
0.0
 10
171.1540944614344
 20
-581.7852461592429
 30
0.0
 10
178.1952216359887
 20
-579.3321383325583
 30
0.0
 10
178.1952216359887
 20
-579.3321383325583
 30
0.0
  0
SPLINE
  5
62
330
41
100
AcDbEntity
  8
Layer 1
 62
   156
420
  1785491
370
    18
100
AcDbSpline
210
0.0
220
0.0
230
1.0
 70
     8
 71
     3
 72
    17
 73
    13
 74
     0
 42
0.0000000001
 43
0.0000000001
 12
1.0
 22
0.0
 32
0.0
 13
1.0
 23
0.0
 33
0.0
 40
0.0
 40
0.0
 40
0.0
 40
0.0
 40
1.0
 40
1.0
 40
1.0
 40
2.0
 40
2.0
 40
2.0
 40
3.0
 40
3.0
 40
3.0
 40
4.0
 40
4.0
 40
4.0
 40
4.0
 10
168.9062720477068
 20
-713.5241499463773
 30
0.0
 10
168.9062720477068
 20
-708.8129564141691
 30
0.0
 10
169.1526008392893
 20
-704.5533819807752
 30
0.0
 10
169.1526008392893
 20
-699.8524615289098
 30
0.0
 10
169.1526008392893
 20
-694.9051927083638
 30
0.0
 10
165.868117434622
 20
-692.5136744209867
 30
0.0
 10
164.9340893616154
 20
-687.6793067044382
 30
0.0
 10
160.8079475100794
 20
-667.315457716204
 30
0.0
 10
157.410548318594
 20
-655.8094804838474
 30
0.0
 10
157.410548318594
 20
-635.2198194990688
 30
0.0
 10
157.410548318594
 20
-625.1508010032212
 30
0.0
 10
158.3753711612526
 20
-619.3413569407712
 30
0.0
 10
158.3753711612526
 20
-609.2723482334713
 30
0.0
  0
SPLINE
  5
63
330
41
100
AcDbEntity
  8
Layer 1
 62
   156
420
  1785491
370
    18
100
AcDbSpline
210
0.0
220
0.0
230
1.0
 70
     8
 71
     3
 72
    17
 73
    13
 74
     0
 42
0.0000000001
 43
0.0000000001
 12
1.0
 22
0.0
 32
0.0
 13
1.0
 23
0.0
 33
0.0
 40
0.0
 40
0.0
 40
0.0
 40
0.0
 40
1.0
 40
1.0
 40
1.0
 40
2.0
 40
2.0
 40
2.0
 40
3.0
 40
3.0
 40
3.0
 40
4.0
 40
4.0
 40
4.0
 40
4.0
 10
209.2028726146746
 20
-750.2180781445859
 30
0.0
 10
224.1267756221041
 20
-743.3103811047531
 30
0.0
 10
226.2206437646619
 20
-730.624032324984
 30
0.0
 10
231.1679125852061
 20
-716.5930944348402
 30
0.0
 10
239.7281146191663
 20
-692.6163073389162
 30
0.0
 10
241.5037962447686
 20
-677.7129309150714
 30
0.0
 10
241.5037962447686
 20
-652.4223494784273
 30
0.0
 10
241.5037962447686
 20
-633.5878435356644
 30
0.0
 10
241.7295984527645
 20
-622.5232123217775
 30
0.0
 10
235.8483064534867
 20
-604.4584973119654
 30
0.0
 10
232.8101567346766
 20
-594.9334773296196
 30
0.0
 10
231.7119013101583
 20
-586.1269367155273
 30
0.0
 10
223.9625531648671
 20
-578.9010507116036
 30
0.0
  0
SPLINE
  5
64
330
41
100
AcDbEntity
  8
Layer 1
 62
   156
420
  1785491
370
    18
100
AcDbSpline
210
0.0
220
0.0
230
1.0
 70
     8
 71
     3
 72
    14
 73
    10
 74
     0
 42
0.0000000001
 43
0.0000000001
 12
1.0
 22
0.0
 32
0.0
 13
1.0
 23
0.0
 33
0.0
 40
0.0
 40
0.0
 40
0.0
 40
0.0
 40
1.0
 40
1.0
 40
1.0
 40
2.0
 40
2.0
 40
2.0
 40
3.0
 40
3.0
 40
3.0
 40
3.0
 10
170.7435334240672
 20
-577.761742119912
 30
0.0
 10
170.7435334240672
 20
-577.761742119912
 30
0.0
 10
167.6437941659497
 20
-578.0080807000431
 30
0.0
 10
162.347553847344
 20
-579.9274581992959
 30
0.0
 10
157.0307820508788
 20
-581.8262993264143
 30
0.0
 10
147.9163182116272
 20
-584.1049165097957
 30
0.0
 10
147.9163182116272
 20
-584.1049165097957
 30
0.0
 10
147.9163182116272
 20
-584.1049165097957
 30
0.0
 10
146.1303781885053
 20
-584.8747270198382
 30
0.0
 10
146.1303781885053
 20
-584.8747270198382
 30
0.0
  0
SPLINE
  5
65
330
41
100
AcDbEntity
  8
Layer 1
 62
   156
420
  1785491
370
    18
100
AcDbSpline
210
0.0
220
0.0
230
1.0
 70
     8
 71
     3
 72
    14
 73
    10
 74
     0
 42
0.0000000001
 43
0.0000000001
 12
1.0
 22
0.0
 32
0.0
 13
1.0
 23
0.0
 33
0.0
 40
0.0
 40
0.0
 40
0.0
 40
0.0
 40
1.0
 40
1.0
 40
1.0
 40
2.0
 40
2.0
 40
2.0
 40
3.0
 40
3.0
 40
3.0
 40
3.0
 10
205.7233670888436
 20
-120.9608604705572
 30
0.0
 10
205.7233670888436
 20
-120.9608604705572
 30
0.0
 10
205.7233670888436
 20
-120.2116059097434
 30
0.0
 10
205.7233670888436
 20
-120.2116059097434
 30
0.0
 10
205.7233670888436
 20
-120.2116059097434
 30
0.0
 10
203.9887386304126
 20
-119.9549893549975
 30
0.0
 10
203.9887386304126
 20
-118.6001761070183
 30
0.0
 10
203.9887386304126
 20
-118.6001761070183
 30
0.0
 10
203.9887386304126
 20
-110.6146792592863
 30
0.0
 10
203.9887386304126
 20
-110.6146792592863
 30
0.0
  0
POLYLINE
  5
66
330
41
100
AcDbEntity
  8
Layer 1
 62
   156
420
  1785491
370
    18
100
AcDb2dPolyline
 66
     1
 10
0.0
 20
0.0
 30
0.0
  0
VERTEX
  5
67
330
66
100
AcDbEntity
  8
Layer 1
 62
   156
420
  1785491
370
    18
100
AcDbVertex
100
AcDb2dVertex
 10
211.4096418612298
 20
-110.6146792592863
 30
0.0
  0
VERTEX
  5
68
330
66
100
AcDbEntity
  8
Layer 1
 62
   156
420
  1785491
370
    18
100
AcDbVertex
100
AcDb2dVertex
 10
210.5577250168417
 20
-119.4007226554313
 30
0.0
  0
VERTEX
  5
69
330
66
100
AcDbEntity
  8
Layer 1
 62
   156
420
  1785491
370
    18
100
AcDbVertex
100
AcDb2dVertex
 10
208.8128381608931
 20
-119.9549893549975
 30
0.0
  0
VERTEX
  5
6A
330
66
100
AcDbEntity
  8
Layer 1
 62
   156
420
  1785491
370
    18
100
AcDbVertex
100
AcDb2dVertex
 10
208.8128381608931
 20
-121.2482522178598
 30
0.0
  0
SEQEND
  5
6B
330
66
100
AcDbEntity
  8
Layer 1
 62
   156
420
  1785491
370
    18
  0
SPLINE
  5
6C
330
41
100
AcDbEntity
  8
Layer 1
 62
   156
420
  1785491
370
    18
100
AcDbSpline
210
0.0
220
0.0
230
1.0
 70
     8
 71
     3
 72
    44
 73
    40
 74
     0
 42
0.0000000001
 43
0.0000000001
 12
1.0
 22
0.0
 32
0.0
 13
1.0
 23
0.0
 33
0.0
 40
0.0
 40
0.0
 40
0.0
 40
0.0
 40
1.0
 40
1.0
 40
1.0
 40
2.0
 40
2.0
 40
2.0
 40
3.0
 40
3.0
 40
3.0
 40
4.0
 40
4.0
 40
4.0
 40
5.0
 40
5.0
 40
5.0
 40
6.0
 40
6.0
 40
6.0
 40
7.0
 40
7.0
 40
7.0
 40
8.0
 40
8.0
 40
8.0
 40
9.0
 40
9.0
 40
9.0
 40
10.0
 40
10.0
 40
10.0
 40
11.0
 40
11.0
 40
11.0
 40
12.0
 40
12.0
 40
12.0
 40
13.0
 40
13.0
 40
13.0
 40
13.0
 10
208.8231063469593
 20
-121.2482522178598
 30
0.0
 10
208.8231063469593
 20
-121.2482522178598
 30
0.0
 10
208.8231063469593
 20
-516.6907413158897
 30
0.0
 10
208.8231063469593
 20
-516.6907413158897
 30
0.0
 10
208.8231063469593
 20
-516.6907413158897
 30
0.0
 10
211.1325085114468
 20
-517.7684603682737
 30
0.0
 10
211.1325085114468
 20
-519.1130543729214
 30
0.0
 10
211.1325085114468
 20
-520.4576288004755
 30
0.0
 10
213.1442605311122
 20
-546.2511555834462
 30
0.0
 10
213.7087856281978
 20
-548.6734686404816
 30
0.0
 10
214.29383730887
 20
-551.0957816975133
 30
0.0
 10
217.5475308381574
 20
-565.865740222318
 30
0.0
 10
238.0037543468034
 20
-574.5491017577988
 30
0.0
 10
241.1753415417461
 20
-575.8936957624464
 30
0.0
 10
243.679770721671
 20
-577.761742119912
 30
0.0
 10
243.679770721671
 20
-577.761742119912
 30
0.0
 10
243.679770721671
 20
-577.761742119912
 30
0.0
 10
209.3876216554982
 20
-580.8614813780296
 30
0.0
 10
192.8214744985971
 20
-579.3116215375194
 30
0.0
 10
176.2553175531484
 20
-577.761742119912
 30
0.0
 10
178.0002044090988
 20
-580.3893405899034
 30
0.0
 10
170.8564345280647
 20
-577.761742119912
 30
0.0
 10
170.4766682603504
 20
-577.6385826183941
 30
0.0
 10
183.7480589322431
 20
-571.6443895151206
 30
0.0
 10
188.007633365638
 20
-568.1648742007401
 30
0.0
 10
192.2466812154444
 20
-564.6545836938039
 30
0.0
 10
198.5282758545709
 20
-559.6354669364337
 30
0.0
 10
200.5400278742363
 20
-544.9784290927182
 30
0.0
 10
202.5415117078337
 20
-530.331649646525
 30
0.0
 10
203.1265633885068
 20
-522.6130864823372
 30
0.0
 10
203.1265633885068
 20
-520.9913591279092
 30
0.0
 10
203.1265633885068
 20
-519.3799097480914
 30
0.0
 10
205.1383154081705
 20
-517.2347300408419
 30
0.0
 10
205.1383154081705
 20
-517.2347300408419
 30
0.0
 10
205.1383154081705
 20
-517.2347300408419
 30
0.0
 10
205.7233670888436
 20
-516.4341443382382
 30
0.0
 10
205.7233670888436
 20
-516.4341443382382
 30
0.0
 10
205.7233670888436
 20
-516.4341443382382
 30
0.0
 10
205.7233670888436
 20
-120.9608604705572
 30
0.0
 10
205.7233670888436
 20
-120.9608604705572
 30
0.0
  0
SPLINE
  5
6D
330
41
100
AcDbEntity
  8
Layer 1
 62
   156
420
  1785491
370
    18
100
AcDbSpline
210
0.0
220
0.0
230
1.0
 70
     8
 71
     3
 72
    26
 73
    22
 74
     0
 42
0.0000000001
 43
0.0000000001
 12
1.0
 22
0.0
 32
0.0
 13
1.0
 23
0.0
 33
0.0
 40
0.0
 40
0.0
 40
0.0
 40
0.0
 40
1.0
 40
1.0
 40
1.0
 40
2.0
 40
2.0
 40
2.0
 40
3.0
 40
3.0
 40
3.0
 40
4.0
 40
4.0
 40
4.0
 40
5.0
 40
5.0
 40
5.0
 40
6.0
 40
6.0
 40
6.0
 40
7.0
 40
7.0
 40
7.0
 40
7.0
 10
247.1182230803297
 20
-747.0464909496441
 30
0.0
 10
247.1182230803297
 20
-747.0464909496441
 30
0.0
 10
276.7299684896743
 20
-740.703319006896
 30
0.0
 10
300.6759657102193
 20
-711.7792630904296
 30
0.0
 10
324.6424797258023
 20
-682.8654753600258
 30
0.0
 10
326.0383852951436
 20
-664.0309694172647
 30
0.0
 10
326.0383852951436
 20
-664.0309694172647
 30
0.0
 10
326.0383852951436
 20
-664.0309694172647
 30
0.0
 10
331.2011979261642
 20
-647.8240619444914
 30
0.0
 10
325.0941037188895
 20
-631.1757888761513
 30
0.0
 10
318.9972679091352
 20
-614.5172671988385
 30
0.0
 10
300.2140833196117
 20
-596.9965507025227
 30
0.0
 10
281.4206207554744
 20
-589.1240332671659
 30
0.0
 10
262.6374361659509
 20
-581.2309990367703
 30
0.0
 10
252.0860086959128
 20
-579.7529675559908
 30
0.0
 10
252.0860086959128
 20
-579.7529675559908
 30
0.0
 10
252.0860086959128
 20
-579.7529675559908
 30
0.0
 10
242.9920763345208
 20
-577.761742119912
 30
0.0
 10
242.9920763345208
 20
-577.761742119912
 30
0.0
 10
242.9920763345208
 20
-577.761742119912
 30
0.0
 10
242.8278538772838
 20
-577.6385826183941
 30
0.0
 10
242.8278538772838
 20
-577.6385826183941
 30
0.0
  0
SPLINE
  5
6E
330
41
100
AcDbEntity
  8
Layer 1
 62
   156
420
  1785491
370
    18
100
AcDbSpline
210
0.0
220
0.0
230
1.0
 70
     8
 71
     3
 72
    29
 73
    25
 74
     0
 42
0.0000000001
 43
0.0000000001
 12
1.0
 22
0.0
 32
0.0
 13
1.0
 23
0.0
 33
0.0
 40
0.0
 40
0.0
 40
0.0
 40
0.0
 40
1.0
 40
1.0
 40
1.0
 40
2.0
 40
2.0
 40
2.0
 40
3.0
 40
3.0
 40
3.0
 40
4.0
 40
4.0
 40
4.0
 40
5.0
 40
5.0
 40
5.0
 40
6.0
 40
6.0
 40
6.0
 40
7.0
 40
7.0
 40
7.0
 40
8.0
 40
8.0
 40
8.0
 40
8.0
 10
245.0243549377719
 20
-745.9482379722613
 30
0.0
 10
245.0243549377719
 20
-745.9482379722613
 30
0.0
 10
253.2561120572555
 20
-741.5347043734237
 30
0.0
 10
263.6125125118579
 20
-734.9657228812684
 30
0.0
 10
279.4088785243584
 20
-724.9582841361826
 30
0.0
 10
300.6759657102193
 20
-709.459592739875
 30
0.0
 10
307.4707445160966
 20
-694.9051927083638
 30
0.0
 10
318.7611877265244
 20
-670.8257580116879
 30
0.0
 10
323.4621179669393
 20
-657.010368826297
 30
0.0
 10
321.8096154199502
 20
-643.8826642395034
 30
0.0
 10
320.1776296679982
 20
-630.7344330691303
 30
0.0
 10
315.7127796101959
 20
-604.8896045100137
 30
0.0
 10
283.7608274781624
 20
-592.83960918706
 30
0.0
 10
283.7608274781624
 20
-592.83960918706
 30
0.0
 10
310.5499669791752
 20
-613.2034679638437
 30
0.0
 10
311.9663893435536
 20
-637.9705872591239
 30
0.0
 10
311.9663893435536
 20
-637.9705872591239
 30
0.0
 10
313.8344552781145
 20
-660.951756742732
 30
0.0
 10
312.4385497087751
 20
-666.0119266672773
 30
0.0
 10
311.0221077672995
 20
-671.0413018221643
 30
0.0
 10
308.8871864575704
 20
-684.1792745950224
 30
0.0
 10
299.7419229543902
 20
-697.9844053828947
 30
0.0
 10
290.5864010536934
 20
-711.7792630904296
 30
0.0
 10
279.3062358178777
 20
-721.8585448780668
 30
0.0
 10
273.9073430042463
 20
-726.6826444085473
 30
0.0
  0
SPLINE
  5
6F
330
41
100
AcDbEntity
  8
Layer 1
 62
   156
420
  1785491
370
    18
100
AcDbSpline
210
0.0
220
0.0
230
1.0
 70
     8
 71
     3
 72
    80
 73
    76
 74
     0
 42
0.0000000001
 43
0.0000000001
 12
1.0
 22
0.0
 32
0.0
 13
1.0
 23
0.0
 33
0.0
 40
0.0
 40
0.0
 40
0.0
 40
0.0
 40
1.0
 40
1.0
 40
1.0
 40
2.0
 40
2.0
 40
2.0
 40
3.0
 40
3.0
 40
3.0
 40
4.0
 40
4.0
 40
4.0
 40
5.0
 40
5.0
 40
5.0
 40
6.0
 40
6.0
 40
6.0
 40
7.0
 40
7.0
 40
7.0
 40
8.0
 40
8.0
 40
8.0
 40
9.0
 40
9.0
 40
9.0
 40
10.0
 40
10.0
 40
10.0
 40
11.0
 40
11.0
 40
11.0
 40
12.0
 40
12.0
 40
12.0
 40
13.0
 40
13.0
 40
13.0
 40
14.0
 40
14.0
 40
14.0
 40
15.0
 40
15.0
 40
15.0
 40
16.0
 40
16.0
 40
16.0
 40
17.0
 40
17.0
 40
17.0
 40
18.0
 40
18.0
 40
18.0
 40
19.0
 40
19.0
 40
19.0
 40
20.0
 40
20.0
 40
20.0
 40
21.0
 40
21.0
 40
21.0
 40
22.0
 40
22.0
 40
22.0
 40
23.0
 40
23.0
 40
23.0
 40
24.0
 40
24.0
 40
24.0
 40
25.0
 40
25.0
 40
25.0
 40
25.0
 10
202.5107169381818
 20
-756.8999656350115
 30
0.0
 10
202.5415117078337
 20
-756.8281176981855
 30
0.0
 10
202.582564875006
 20
-756.7665330531527
 30
0.0
 10
202.623627830726
 20
-756.7152116999132
 30
0.0
 10
213.3290095719367
 20
-740.3953957817357
 30
0.0
 10
215.915554874754
 20
-759.0656768201225
 30
0.0
 10
218.7176341995009
 20
-753.1741215290513
 30
0.0
 10
221.5299817103141
 20
-747.2620347601205
 30
0.0
 10
228.7969208814138
 20
-751.860324741192
 30
0.0
 10
229.0432496729964
 20
-751.2034251236964
 30
0.0
 10
229.2793298556071
 20
-750.5465279533346
 30
0.0
 10
233.9802503074734
 20
-750.9878813132163
 30
0.0
 10
235.1606218548841
 20
-750.9878813132163
 30
0.0
 10
236.3307154276799
 20
-750.9878813132163
 30
0.0
 10
237.7368891830884
 20
-754.7137254191803
 30
0.0
 10
238.2090397597603
 20
-754.7137254191803
 30
0.0
 10
238.6811805478874
 20
-754.7137254191803
 30
0.0
 10
241.0213872705754
 20
-748.1550072188165
 30
0.0
 10
242.6738898175654
 20
-746.8309446920302
 30
0.0
 10
244.3161437555818
 20
-745.5068846123777
 30
0.0
 10
245.9481197189853
 20
-745.5068846123777
 30
0.0
 10
248.0727728426482
 20
-748.1550072188165
 30
0.0
 10
250.1768895941786
 20
-750.7723350556043
 30
0.0
 10
242.8997018141081
 20
-766.5378952863339
 30
0.0
 10
243.3718523907819
 20
-767.4206020061029
 30
0.0
 10
243.8439931789089
 20
-768.2930454340767
 30
0.0
 10
231.8761237673971
 20
-774.4309380817085
 30
0.0
 10
231.8761237673971
 20
-774.4309380817085
 30
0.0
 10
225.5226909799912
 20
-779.9016690436201
 30
0.0
 10
220.5959487430346
 20
-774.8620275380163
 30
0.0
 10
218.4712956193707
 20
-777.4896205019486
 30
0.0
 10
216.3671690792944
 20
-780.1172140776653
 30
0.0
 10
208.1354119598091
 20
-776.401632651714
 30
0.0
 10
206.7292382044016
 20
-778.8034172898078
 30
0.0
 10
205.323064448995
 20
-781.2154658314794
 30
0.0
 10
201.1045431827733
 20
-782.0879080358845
 30
0.0
 10
199.9344496099784
 20
-781.2154658314794
 30
0.0
 10
198.7335514789802
 20
-780.3430224035037
 30
0.0
 10
195.2129927859769
 20
-782.0879080358845
 30
0.0
 10
184.4254851333271
 20
-780.9999207974324
 30
0.0
 10
173.6277288717074
 20
-779.9016690436201
 30
0.0
 10
169.8505634125058
 20
-772.6757879339657
 30
0.0
 10
169.8505634125058
 20
-772.6757879339657
 30
0.0
 10
169.8505634125058
 20
-772.6757879339657
 30
0.0
 10
163.5279156062079
 20
-770.2637406158647
 30
0.0
 10
162.5938875332013
 20
-767.4206020061029
 30
0.0
 10
161.6290695848147
 20
-764.5672001045496
 30
0.0
 10
157.17447792453
 20
-754.2621087675016
 30
0.0
 10
159.299131048193
 20
-752.517221911552
 30
0.0
 10
161.4032624825441
 20
-750.7723350556043
 30
0.0
 10
162.111478559008
 20
-749.0069216160682
 30
0.0
 10
164.2258683908776
 20
-750.5465279533346
 30
0.0
 10
166.3402631170211
 20
-752.0861318434636
 30
0.0
 10
169.3886810218992
 20
-751.860324741192
 30
0.0
 10
169.3886810218992
 20
-751.860324741192
 30
0.0
 10
169.3886810218992
 20
-751.860324741192
 30
0.0
 10
170.0866338065689
 20
-746.8309446920302
 30
0.0
 10
171.9854749336891
 20
-747.2620347601205
 30
0.0
 10
173.8535310797024
 20
-747.7033881200041
 30
0.0
 10
175.9576576197796
 20
-748.1550072188165
 30
0.0
 10
176.6658785905174
 20
-749.0069216160682
 30
0.0
 10
177.3740995612543
 20
-749.8793650440439
 30
0.0
 10
179.9503668894567
 20
-749.6638212335674
 30
0.0
 10
179.9503668894567
 20
-749.6638212335674
 30
0.0
 10
179.9503668894567
 20
-749.6638212335674
 30
0.0
 10
183.245123374465
 20
-747.4878443095258
 30
0.0
 10
185.1234477065445
 20
-748.1550072188165
 30
0.0
 10
187.0017622500782
 20
-748.7913778055918
 30
0.0
 10
191.4563539103629
 20
-751.64477848358
 30
0.0
 10
192.1645748810988
 20
-753.1741215290513
 30
0.0
 10
192.8625276657694
 20
-754.7137254191803
 30
0.0
 10
199.2159604531735
 20
-747.9189343776161
 30
0.0
 10
201.1045431827733
 20
-751.2034251236964
 30
0.0
 10
202.9828675148538
 20
-754.498181608702
 30
0.0
 10
202.5107169381818
 20
-756.2430684646533
 30
0.0
 10
202.5107169381818
 20
-756.2430684646533
 30
0.0
  0
SPLINE
  5
70
330
41
100
AcDbEntity
  8
Layer 1
 62
   156
420
  1785491
370
    18
100
AcDbSpline
210
0.0
220
0.0
230
1.0
 70
    11
 71
     3
 72
    20
 73
    16
 74
     0
 42
0.0000000001
 43
0.0000000001
 12
1.0
 22
0.0
 32
0.0
 13
1.0
 23
0.0
 33
0.0
 40
0.0
 40
0.0
 40
0.0
 40
0.0
 40
1.0
 40
1.0
 40
1.0
 40
2.0
 40
2.0
 40
2.0
 40
3.0
 40
3.0
 40
3.0
 40
4.0
 40
4.0
 40
4.0
 40
5.0
 40
5.0
 40
5.0
 40
5.0
 10
210.0342628754752
 20
-773.1068773902734
 30
0.0
 10
210.0342628754752
 20
-773.1068773902734
 30
0.0
 10
217.9888866451784
 20
-775.0878364756372
 30
0.0
 10
222.710343469178
 20
-768.2930454340767
 30
0.0
 10
227.4112737095929
 20
-761.5085189078782
 30
0.0
 10
230.6752354249475
 20
-757.3413189948951
 30
0.0
 10
229.0432496729964
 20
-754.2621087675016
 30
0.0
 10
227.4112737095929
 20
-751.2034251236964
 30
0.0
 10
222.710343469178
 20
-748.5758315479779
 30
0.0
 10
219.4155869841707
 20
-753.6154748889348
 30
0.0
 10
216.1208304991642
 20
-758.6551157827544
 30
0.0
 10
210.2498066859534
 20
-769.606842221936
 30
0.0
 10
210.2498066859534
 20
-770.7050939757482
 30
0.0
 10
210.2498066859534
 20
-771.7930812142004
 30
0.0
 10
210.0342628754752
 20
-773.1068773902734
 30
0.0
 10
210.0342628754752
 20
-773.1068773902734
 30
0.0
  0
SPLINE
  5
71
330
41
100
AcDbEntity
  8
Layer 1
 62
   156
420
  1785491
370
    18
100
AcDbSpline
210
0.0
220
0.0
230
1.0
 70
     8
 71
     3
 72
    14
 73
    10
 74
     0
 42
0.0000000001
 43
0.0000000001
 12
1.0
 22
0.0
 32
0.0
 13
1.0
 23
0.0
 33
0.0
 40
0.0
 40
0.0
 40
0.0
 40
0.0
 40
1.0
 40
1.0
 40
1.0
 40
2.0
 40
2.0
 40
2.0
 40
3.0
 40
3.0
 40
3.0
 40
3.0
 10
220.1238079549075
 20
-770.9309023015885
 30
0.0
 10
220.1238079549075
 20
-770.9309023015885
 30
0.0
 10
229.2793298556071
 20
-770.4792844263411
 30
0.0
 10
232.7998885486104
 20
-765.4396435325216
 30
0.0
 10
236.3307154276799
 20
-760.4000026387021
 30
0.0
 10
237.7368891830884
 20
-754.2621087675016
 30
0.0
 10
234.8937566911673
 20
-752.3016781010756
 30
0.0
 10
232.0916675778726
 20
-750.3309816957208
 30
0.0
 10
228.5711088848693
 20
-752.7430314609592
 30
0.0
 10
228.5711088848693
 20
-752.7430314609592
 30
0.0
  0
SPLINE
  5
72
330
41
100
AcDbEntity
  8
Layer 1
 62
   156
420
  1785491
370
    18
100
AcDbSpline
210
0.0
220
0.0
230
1.0
 70
    11
 71
     3
 72
    20
 73
    16
 74
     0
 42
0.0000000001
 43
0.0000000001
 12
1.0
 22
0.0
 32
0.0
 13
1.0
 23
0.0
 33
0.0
 40
0.0
 40
0.0
 40
0.0
 40
0.0
 40
1.0
 40
1.0
 40
1.0
 40
2.0
 40
2.0
 40
2.0
 40
3.0
 40
3.0
 40
3.0
 40
4.0
 40
4.0
 40
4.0
 40
5.0
 40
5.0
 40
5.0
 40
5.0
 10
231.8761237673971
 20
-770.4792844263411
 30
0.0
 10
231.8761237673971
 20
-770.4792844263411
 30
0.0
 10
240.5595048799678
 20
-770.9309023015885
 30
0.0
 10
242.6738898175654
 20
-762.5965049227616
 30
0.0
 10
244.788284543708
 20
-754.2621087675016
 30
0.0
 10
248.9965376238633
 20
-749.2224678736839
 30
0.0
 10
245.7325759085088
 20
-748.7913778055918
 30
0.0
 10
242.427561025982
 20
-748.3602877375015
 30
0.0
 10
239.5946869315812
 20
-755.1448154872705
 30
0.0
 10
238.9172607304972
 20
-756.8999656350115
 30
0.0
 10
238.2090397597603
 20
-758.6551157827544
 30
0.0
 10
238.4451101538234
 20
-763.910301710619
 30
0.0
 10
235.8585746395547
 20
-766.0965419264521
 30
0.0
 10
233.2925657088699
 20
-768.2930454340767
 30
0.0
 10
231.8761237673971
 20
-770.4792844263411
 30
0.0
 10
231.8761237673971
 20
-770.4792844263411
 30
0.0
  0
SPLINE
  5
73
330
41
100
AcDbEntity
  8
Layer 1
 62
   156
420
  1785491
370
    18
100
AcDbSpline
210
0.0
220
0.0
230
1.0
 70
     8
 71
     3
 72
    41
 73
    37
 74
     0
 42
0.0000000001
 43
0.0000000001
 12
1.0
 22
0.0
 32
0.0
 13
1.0
 23
0.0
 33
0.0
 40
0.0
 40
0.0
 40
0.0
 40
0.0
 40
1.0
 40
1.0
 40
1.0
 40
2.0
 40
2.0
 40
2.0
 40
3.0
 40
3.0
 40
3.0
 40
4.0
 40
4.0
 40
4.0
 40
5.0
 40
5.0
 40
5.0
 40
6.0
 40
6.0
 40
6.0
 40
7.0
 40
7.0
 40
7.0
 40
8.0
 40
8.0
 40
8.0
 40
9.0
 40
9.0
 40
9.0
 40
10.0
 40
10.0
 40
10.0
 40
11.0
 40
11.0
 40
11.0
 40
12.0
 40
12.0
 40
12.0
 40
12.0
 10
198.7335514789802
 20
-780.9999207974324
 30
0.0
 10
199.1543807024154
 20
-780.6201520825816
 30
0.0
 10
199.677842843781
 20
-780.2917022738311
 30
0.0
 10
199.677842843781
 20
-779.6758607177799
 30
0.0
 10
199.677842843781
 20
-776.6684978154299
 30
0.0
 10
196.3420331916004
 20
-775.0878364756372
 30
0.0
 10
193.1293928294854
 20
-775.0878364756372
 30
0.0
 10
191.2408100998864
 20
-775.0878364756372
 30
0.0
 10
190.1630812589547
 20
-775.518925931945
 30
0.0
 10
188.2950349014873
 20
-775.518925931945
 30
0.0
 10
184.7744664199372
 20
-775.518925931945
 30
0.0
 10
182.3111001957304
 20
-774.3693540484601
 30
0.0
 10
179.9503668894567
 20
-772.0086262482455
 30
0.0
 10
178.6160410708762
 20
-770.6435093307155
 30
0.0
 10
177.3740995612543
 20
-769.606842221936
 30
0.0
 10
177.3740995612543
 20
-767.6874671698188
 30
0.0
 10
177.3740995612543
 20
-767.6874671698188
 30
0.0
 10
177.3740995612543
 20
-762.1038314332054
 30
0.0
 10
177.3740995612543
 20
-762.1038314332054
 30
0.0
 10
177.3740995612543
 20
-758.9733022997098
 30
0.0
 10
178.3286493235737
 20
-757.1770940905208
 30
0.0
 10
178.3286493235737
 20
-754.0465625098877
 30
0.0
 10
178.3286493235737
 20
-751.7063631286128
 30
0.0
 10
176.3682186571477
 20
-749.6638212335674
 30
0.0
 10
173.8535310797024
 20
-749.6638212335674
 30
0.0
 10
171.9854749336891
 20
-749.6638212335674
 30
0.0
 10
171.2669955654328
 20
-751.4805535792057
 30
0.0
 10
170.7948547773058
 20
-753.1741215290513
 30
0.0
 10
170.0866338065689
 20
-755.8017126576306
 30
0.0
 10
169.6350098134826
 20
-757.45422254603
 30
0.0
 10
169.6350098134826
 20
-760.1844563810901
 30
0.0
 10
169.6350098134826
 20
-765.5422837918632
 30
0.0
 10
170.8564345280647
 20
-768.7754544082709
 30
0.0
 10
173.8535310797024
 20
-773.3326863278962
 30
0.0
 10
175.5573647684796
 20
-775.8986952585801
 30
0.0
 10
177.5485902045584
 20
-776.8327221080199
 30
0.0
 10
179.4987526849172
 20
-779.2447706496896
 30
0.0
  0
SPLINE
  5
74
330
41
100
AcDbEntity
  8
Layer 1
 62
   156
420
  1785491
370
    18
100
AcDbSpline
210
0.0
220
0.0
230
1.0
 70
     8
 71
     3
 72
    29
 73
    25
 74
     0
 42
0.0000000001
 43
0.0000000001
 12
1.0
 22
0.0
 32
0.0
 13
1.0
 23
0.0
 33
0.0
 40
0.0
 40
0.0
 40
0.0
 40
0.0
 40
1.0
 40
1.0
 40
1.0
 40
2.0
 40
2.0
 40
2.0
 40
3.0
 40
3.0
 40
3.0
 40
4.0
 40
4.0
 40
4.0
 40
5.0
 40
5.0
 40
5.0
 40
6.0
 40
6.0
 40
6.0
 40
7.0
 40
7.0
 40
7.0
 40
8.0
 40
8.0
 40
8.0
 40
8.0
 10
167.9825072664917
 20
-770.9309023015885
 30
0.0
 10
167.2742911900286
 20
-769.7197457730708
 30
0.0
 10
166.5865968028784
 20
-768.8986236983346
 30
0.0
 10
166.5865968028784
 20
-767.4719221357736
 30
0.0
 10
166.5865968028784
 20
-767.4719221357736
 30
0.0
 10
166.5865968028784
 20
-762.760729827136
 30
0.0
 10
166.5865968028784
 20
-762.760729827136
 30
0.0
 10
166.5865968028784
 20
-759.5172959189367
 30
0.0
 10
167.9825072664917
 20
-757.7210877097459
 30
0.0
 10
167.9825072664917
 20
-754.498181608702
 30
0.0
 10
167.9825072664917
 20
-753.5025688906626
 30
0.0
 10
167.1613851917564
 20
-753.061215530779
 30
0.0
 10
166.3402631170211
 20
-752.517221911552
 30
0.0
 10
166.3402631170211
 20
-752.517221911552
 30
0.0
 10
161.0440179041416
 20
-752.517221911552
 30
0.0
 10
161.0440179041416
 20
-752.517221911552
 30
0.0
 10
161.0440179041416
 20
-752.517221911552
 30
0.0
 10
161.0440179041416
 20
-758.3779873272451
 30
0.0
 10
161.0440179041416
 20
-758.3779873272451
 30
0.0
 10
161.0440179041416
 20
-760.728450000317
 30
0.0
 10
162.5117763045828
 20
-761.8780243309357
 30
0.0
 10
163.7537227084777
 20
-763.910301710619
 30
0.0
 10
165.3446503989817
 20
-766.4249905116321
 30
0.0
 10
166.2786784719883
 20
-767.8619553659864
 30
0.0
 10
167.9825072664917
 20
-770.2637406158647
 30
0.0
  0
SPLINE
  5
75
330
41
100
AcDbEntity
  8
Layer 1
 62
   156
420
  1785491
370
    18
100
AcDbSpline
210
0.0
220
0.0
230
1.0
 70
     8
 71
     3
 72
    17
 73
    13
 74
     0
 42
0.0000000001
 43
0.0000000001
 12
1.0
 22
0.0
 32
0.0
 13
1.0
 23
0.0
 33
0.0
 40
0.0
 40
0.0
 40
0.0
 40
0.0
 40
1.0
 40
1.0
 40
1.0
 40
2.0
 40
2.0
 40
2.0
 40
3.0
 40
3.0
 40
3.0
 40
4.0
 40
4.0
 40
4.0
 40
4.0
 10
201.3303551793178
 20
-770.2637406158647
 30
0.0
 10
203.4960712587008
 20
-768.8473035686657
 30
0.0
 10
204.2658719801966
 20
-767.0818889055627
 30
0.0
 10
206.7292382044016
 20
-766.0965419264521
 30
0.0
 10
208.5562411832443
 20
-765.3985866946459
 30
0.0
 10
209.7263347560402
 20
-765.2240984984765
 30
0.0
 10
211.4301684448164
 20
-764.3619195858628
 30
0.0
 10
214.9507271378188
 20
-762.5349202777288
 30
0.0
 10
215.8950185026197
 20
-759.363334306352
 30
0.0
 10
215.8950185026197
 20
-755.5861688471541
 30
0.0
 10
215.8950185026197
 20
-753.7283784400697
 30
0.0
 10
214.7659780969962
 20
-752.6301279098243
 30
0.0
 10
213.3084829883492
 20
-751.4292346730999
 30
0.0
  0
SPLINE
  5
76
330
41
100
AcDbEntity
  8
Layer 1
 62
   156
420
  1785491
370
    18
100
AcDbSpline
210
0.0
220
0.0
230
1.0
 70
     8
 71
     3
 72
    23
 73
    19
 74
     0
 42
0.0000000001
 43
0.0000000001
 12
1.0
 22
0.0
 32
0.0
 13
1.0
 23
0.0
 33
0.0
 40
0.0
 40
0.0
 40
0.0
 40
0.0
 40
1.0
 40
1.0
 40
1.0
 40
2.0
 40
2.0
 40
2.0
 40
3.0
 40
3.0
 40
3.0
 40
4.0
 40
4.0
 40
4.0
 40
5.0
 40
5.0
 40
5.0
 40
6.0
 40
6.0
 40
6.0
 40
6.0
 10
202.0385761500547
 20
-756.6844218245351
 30
0.0
 10
200.6837237478876
 20
-754.9805905828962
 30
0.0
 10
199.5649417397817
 20
-753.399928631321
 30
0.0
 10
197.2863245564013
 20
-753.399928631321
 30
0.0
 10
196.1572841507777
 20
-753.399928631321
 30
0.0
 10
195.5209111168651
 20
-753.5538902439021
 30
0.0
 10
194.3918707112434
 20
-753.6154748889348
 30
0.0
 10
194.3918707112434
 20
-753.6154748889348
 30
0.0
 10
194.3918707112434
 20
-756.1814838196169
 30
0.0
 10
194.3918707112434
 20
-756.1814838196169
 30
0.0
 10
194.3918707112434
 20
-760.2357777343277
 30
0.0
 10
200.0370825279088
 20
-760.4615872837348
 30
0.0
 10
201.3303551793178
 20
-764.3619195858628
 30
0.0
 10
202.2130667933598
 20
-767.0818889055627
 30
0.0
 10
202.5107169381818
 20
-768.7754544082709
 30
0.0
 10
202.5107169381818
 20
-771.628856309826
 30
0.0
 10
202.5107169381818
 20
-771.628856309826
 30
0.0
 10
202.5107169381818
 20
-775.0878364756372
 30
0.0
 10
202.5107169381818
 20
-775.0878364756372
 30
0.0
  0
SPLINE
  5
77
330
41
100
AcDbEntity
  8
Layer 1
 62
   156
420
  1785491
370
    18
100
AcDbSpline
210
0.0
220
0.0
230
1.0
 70
     8
 71
     3
 72
    23
 73
    19
 74
     0
 42
0.0000000001
 43
0.0000000001
 12
1.0
 22
0.0
 32
0.0
 13
1.0
 23
0.0
 33
0.0
 40
0.0
 40
0.0
 40
0.0
 40
0.0
 40
1.0
 40
1.0
 40
1.0
 40
2.0
 40
2.0
 40
2.0
 40
3.0
 40
3.0
 40
3.0
 40
4.0
 40
4.0
 40
4.0
 40
5.0
 40
5.0
 40
5.0
 40
6.0
 40
6.0
 40
6.0
 40
6.0
 10
196.8655051215137
 20
-769.1654876384819
 30
0.0
 10
196.4549342955997
 20
-764.310599456192
 30
0.0
 10
193.283347100657
 20
-762.1038314332054
 30
0.0
 10
192.4109134612299
 20
-757.3413189948951
 30
0.0
 10
191.589781597947
 20
-752.9072563653335
 30
0.0
 10
188.34634646618
 20
-749.0069216160682
 30
0.0
 10
183.4811937685281
 20
-749.0069216160682
 30
0.0
 10
180.6688560462608
 20
-749.0069216160682
 30
0.0
 10
178.7802733166609
 20
-751.5318749324451
 30
0.0
 10
178.7802733166609
 20
-754.15946850816
 30
0.0
 10
178.7802733166609
 20
-758.9322442382636
 30
0.0
 10
182.5471705897944
 20
-761.2211247134401
 30
0.0
 10
186.7656918560151
 20
-763.910301710619
 30
0.0
 10
191.0457928729948
 20
-766.6507988374688
 30
0.0
 10
194.5868879381323
 20
-767.0818889055627
 30
0.0
 10
198.0458668803776
 20
-770.7050939757482
 30
0.0
 10
199.1543807024154
 20
-771.9059859889057
 30
0.0
 10
199.3288713457196
 20
-773.1068773902734
 30
0.0
 10
200.3963320005851
 20
-774.4309380817085
 30
0.0
  0
ENDBLK
  5
44
330
41
100
AcDbEntity
  8
0
100
AcDbBlockEnd
  0
ENDSEC
  0
SECTION
  2
ENTITIES
  0
INSERT
  5
42
330
1F
100
AcDbEntity
  8
Layer 1
100
AcDbBlockReference
  2
block 2
 10
0.0
 20
0.0
 30
0.0
  0
ENDSEC
  0
SECTION
  2
OBJECTS
  0
DICTIONARY
  5
C
330
0
100
AcDbDictionary
281
     1
  3
ACAD_GROUP
350
D
  3
ACAD_LAYOUT
350
1A
  3
ACAD_MATERIAL
350
3B
  3
ACAD_MLEADERSTYLE
350
79
  3
ACAD_MLINESTYLE
350
17
  3
ACAD_PLOTSETTINGS
350
19
  3
ACAD_PLOTSTYLENAME
350
E
  3
ACAD_TABLESTYLE
350
78
  3
ACAD_VISUALSTYLE
350
2A
  0
SUN
  5
3F
330
29
100
AcDbSun
 90
        1
290
     0
 63
     7
421
 16777215
 40
1.0
291
     1
 91
  2455826
 92
 54000000
292
     0
 70
     2
 71
   256
280
     1
  0
DICTIONARY
  5
D
102
{ACAD_REACTORS
330
C
102
}
330
C
100
AcDbDictionary
281
     1
  0
DICTIONARY
  5
1A
102
{ACAD_REACTORS
330
C
102
}
330
C
100
AcDbDictionary
281
     1
  3
Layout1
350
1E
  3
Layout2
350
26
  3
Model
350
22
  0
DICTIONARY
  5
3B
102
{ACAD_REACTORS
330
C
102
}
330
C
100
AcDbDictionary
281
     1
  3
ByBlock
350
3D
  3
ByLayer
350
3C
  3
Global
350
3E
  0
DICTIONARY
  5
79
102
{ACAD_REACTORS
330
C
102
}
330
C
100
AcDbDictionary
281
     1
  0
DICTIONARY
  5
17
102
{ACAD_REACTORS
330
C
102
}
330
C
100
AcDbDictionary
281
     1
  3
Standard
350
18
  0
DICTIONARY
  5
19
102
{ACAD_REACTORS
330
C
102
}
330
C
100
AcDbDictionary
281
     1
  0
ACDBDICTIONARYWDFLT
  5
E
102
{ACAD_REACTORS
330
C
102
}
330
C
100
AcDbDictionary
281
     1
  3
Normal
350
F
100
AcDbDictionaryWithDefault
340
F
  0
DICTIONARY
  5
78
102
{ACAD_REACTORS
330
C
102
}
330
C
100
AcDbDictionary
281
     1
  0
DICTIONARY
  5
2A
102
{ACAD_REACTORS
330
C
102
}
330
C
100
AcDbDictionary
281
     1
  3
2dWireframe
350
2F
  3
3D Hidden
350
31
  3
3dWireframe
350
30
  3
Basic
350
32
  3
Brighten
350
36
  3
ColorChange
350
3A
  3
Conceptual
350
34
  3
Dim
350
35
  3
Facepattern
350
39
  3
Flat
350
2B
  3
FlatWithEdges
350
2C
  3
Gouraud
350
2D
  3
GouraudWithEdges
350
2E
  3
Linepattern
350
38
  3
Realistic
350
33
  3
Thicken
350
37
  0
LAYOUT
  5
1E
102
{ACAD_REACTORS
330
1A
102
}
330
1A
100
AcDbPlotSettings
  1

  2
none_device
  4

  6

 40
0.0
 41
0.0
 42
0.0
 43
0.0
 44
0.0
 45
0.0
 46
0.0
 47
0.0
 48
0.0
 49
0.0
140
0.0
141
0.0
142
1.0
143
1.0
 70
   688
 72
     0
 73
     0
 74
     5
  7

 75
    16
 76
     0
 77
     2
 78
   300
147
1.0
148
0.0
149
0.0
100
AcDbLayout
  1
Layout1
 70
     1
 71
     1
 10
0.0
 20
0.0
 11
12.0
 21
9.0
 12
0.0
 22
0.0
 32
0.0
 14
1.000000000000000E+20
 24
1.000000000000000E+20
 34
1.000000000000000E+20
 15
-1.000000000000000E+20
 25
-1.000000000000000E+20
 35
-1.000000000000000E+20
146
0.0
 13
0.0
 23
0.0
 33
0.0
 16
1.0
 26
0.0
 36
0.0
 17
0.0
 27
1.0
 37
0.0
 76
     0
330
1B
  0
LAYOUT
  5
26
102
{ACAD_REACTORS
330
1A
102
}
330
1A
100
AcDbPlotSettings
  1

  2
none_device
  4

  6

 40
0.0
 41
0.0
 42
0.0
 43
0.0
 44
0.0
 45
0.0
 46
0.0
 47
0.0
 48
0.0
 49
0.0
140
0.0
141
0.0
142
1.0
143
1.0
 70
   688
 72
     0
 73
     0
 74
     5
  7

 75
    16
 76
     0
 77
     2
 78
   300
147
1.0
148
0.0
149
0.0
100
AcDbLayout
  1
Layout2
 70
     1
 71
     2
 10
0.0
 20
0.0
 11
0.0
 21
0.0
 12
0.0
 22
0.0
 32
0.0
 14
0.0
 24
0.0
 34
0.0
 15
0.0
 25
0.0
 35
0.0
146
0.0
 13
0.0
 23
0.0
 33
0.0
 16
1.0
 26
0.0
 36
0.0
 17
0.0
 27
1.0
 37
0.0
 76
     0
330
23
  0
LAYOUT
  5
22
102
{ACAD_REACTORS
330
1A
102
}
330
1A
100
AcDbPlotSettings
  1

  2
none_device
  4

  6

 40
0.0
 41
0.0
 42
0.0
 43
0.0
 44
0.0
 45
0.0
 46
0.0
 47
0.0
 48
0.0
 49
0.0
140
0.0
141
0.0
142
1.0
143
1.0
 70
  1712
 72
     0
 73
     0
 74
     0
  7

 75
     0
 76
     0
 77
     2
 78
   300
147
1.0
148
0.0
149
0.0
100
AcDbLayout
  1
Model
 70
     1
 71
     0
 10
0.0
 20
0.0
 11
12.0
 21
9.0
 12
0.0
 22
0.0
 32
0.0
 14
1.000000000000000E+20
 24
1.000000000000000E+20
 34
1.000000000000000E+20
 15
-1.000000000000000E+20
 25
-1.000000000000000E+20
 35
-1.000000000000000E+20
146
0.0
 13
0.0
 23
0.0
 33
0.0
 16
1.0
 26
0.0
 36
0.0
 17
0.0
 27
1.0
 37
0.0
 76
     0
330
1F
331
29
  0
MATERIAL
  5
3D
102
{ACAD_REACTORS
330
3B
102
}
330
3B
100
AcDbMaterial
  1
ByBlock
 72
     1
 94
      127
  0
MATERIAL
  5
3C
102
{ACAD_REACTORS
330
3B
102
}
330
3B
100
AcDbMaterial
  1
ByLayer
 72
     1
 94
      127
  0
MATERIAL
  5
3E
102
{ACAD_REACTORS
330
3B
102
}
330
3B
100
AcDbMaterial
  1
Global
 72
     1
 94
      127
  0
MLINESTYLE
  5
18
102
{ACAD_REACTORS
330
17
102
}
330
17
100
AcDbMlineStyle
  2
Standard
 70
     0
  3

 62
   256
 51
90.0
 52
90.0
 71
     2
 49
0.5
 62
   256
  6
BYLAYER
 49
-0.5
 62
   256
  6
BYLAYER
  0
ACDBPLACEHOLDER
  5
F
102
{ACAD_REACTORS
330
E
102
}
330
E
  0
VISUALSTYLE
  5
2F
102
{ACAD_REACTORS
330
2A
102
}
330
2A
100
AcDbVisualStyle
  2
2dWireframe
 70
     4
177
     2
291
     0
 71
     0
176
     1
 72
     2
176
     1
 73
     0
176
     1
 90
        0
176
     1
 40
-0.6
176
     1
 41
-30.0
176
     1
 62
     5
 63
     7
421
 16777215
176
     1
 74
     1
176
     1
 91
        4
176
     1
 64
     7
176
     1
 65
   257
176
     1
 75
     1
176
     1
175
     1
176
     1
 42
1.0
176
     1
 92
        0
176
     1
 66
   257
176
     1
 43
1.0
176
     1
 76
     1
176
     1
 77
     6
176
     1
 78
     2
176
     1
 67
     7
176
     1
 79
     5
176
     1
170
     0
176
     1
171
     0
176
     1
290
     0
176
     1
 93
        1
176
     1
 44
0.0
176
     1
173
     0
176
     1
  0
VISUALSTYLE
  5
31
102
{ACAD_REACTORS
330
2A
102
}
330
2A
100
AcDbVisualStyle
  2
3D Hidden
 70
     6
177
     2
291
     0
 71
     1
176
     1
 72
     2
176
     1
 73
     2
176
     1
 90
        0
176
     1
 40
-0.6
176
     1
 41
-30.0
176
     1
 62
     5
 63
     7
421
 16777215
176
     1
 74
     2
176
     1
 91
        2
176
     1
 64
     7
176
     1
 65
   257
176
     1
 75
     2
176
     1
175
     1
176
     1
 42
40.0
176
     1
 92
        0
176
     1
 66
   257
176
     1
 43
1.0
176
     1
 76
     1
176
     1
 77
     6
176
     1
 78
     2
176
     1
 67
     7
176
     1
 79
     3
176
     1
170
     0
176
     1
171
     0
176
     1
290
     0
176
     1
 93
        1
176
     1
 44
0.0
176
     1
173
     0
176
     1
  0
VISUALSTYLE
  5
30
102
{ACAD_REACTORS
330
2A
102
}
330
2A
100
AcDbVisualStyle
  2
3dWireframe
 70
     5
177
     2
291
     0
 71
     0
176
     1
 72
     2
176
     1
 73
     0
176
     1
 90
        0
176
     1
 40
-0.6
176
     1
 41
-30.0
176
     1
 62
     5
 63
     7
421
 16777215
176
     1
 74
     1
176
     1
 91
        4
176
     1
 64
     7
176
     1
 65
   257
176
     1
 75
     1
176
     1
175
     1
176
     1
 42
1.0
176
     1
 92
        0
176
     1
 66
   257
176
     1
 43
1.0
176
     1
 76
     1
176
     1
 77
     6
176
     1
 78
     2
176
     1
 67
     7
176
     1
 79
     5
176
     1
170
     0
176
     1
171
     0
176
     1
290
     0
176
     1
 93
        1
176
     1
 44
0.0
176
     1
173
     0
176
     1
  0
VISUALSTYLE
  5
32
102
{ACAD_REACTORS
330
2A
102
}
330
2A
100
AcDbVisualStyle
  2
Basic
 70
     7
177
     2
291
     1
 71
     1
176
     1
 72
     0
176
     1
 73
     1
176
     1
 90
        0
176
     1
 40
-0.6
176
     1
 41
-30.0
176
     1
 62
     5
 63
     7
421
 16777215
176
     1
 74
     0
176
     1
 91
        4
176
     1
 64
     7
176
     1
 65
   257
176
     1
 75
     1
176
     1
175
     1
176
     1
 42
1.0
176
     1
 92
        8
176
     1
 66
     7
176
     1
 43
1.0
176
     1
 76
     1
176
     1
 77
     6
176
     1
 78
     2
176
     1
 67
     7
176
     1
 79
     5
176
     1
170
     0
176
     1
171
     0
176
     1
290
     0
176
     1
 93
        1
176
     1
 44
0.0
176
     1
173
     0
176
     1
  0
VISUALSTYLE
  5
36
102
{ACAD_REACTORS
330
2A
102
}
330
2A
100
AcDbVisualStyle
  2
Brighten
 70
    12
177
     2
291
     1
 71
     2
176
     1
 72
     2
176
     1
 73
     0
176
     1
 90
        0
176
     1
 40
-0.6
176
     1
 41
-30.0
176
     1
 62
     5
 63
     7
421
 16777215
176
     1
 74
     1
176
     1
 91
        4
176
     1
 64
     7
176
     1
 65
   257
176
     1
 75
     1
176
     1
175
     1
176
     1
 42
1.0
176
     1
 92
        8
176
     1
 66
     7
176
     1
 43
1.0
176
     1
 76
     1
176
     1
 77
     6
176
     1
 78
     2
176
     1
 67
     7
176
     1
 79
     5
176
     1
170
     0
176
     1
171
     0
176
     1
290
     0
176
     1
 93
        1
176
     1
 44
50.0
176
     1
173
     0
176
     1
  0
VISUALSTYLE
  5
3A
102
{ACAD_REACTORS
330
2A
102
}
330
2A
100
AcDbVisualStyle
  2
ColorChange
 70
    16
177
     2
291
     1
 71
     2
176
     1
 72
     2
176
     1
 73
     3
176
     1
 90
        0
176
     1
 40
-0.6
176
     1
 41
-30.0
176
     1
 62
     5
 63
     8
421
  8421504
176
     1
 74
     1
176
     1
 91
        4
176
     1
 64
     7
176
     1
 65
   257
176
     1
 75
     1
176
     1
175
     1
176
     1
 42
1.0
176
     1
 92
        8
176
     1
 66
     8
424
  8421504
176
     1
 43
1.0
176
     1
 76
     1
176
     1
 77
     6
176
     1
 78
     2
176
     1
 67
     7
176
     1
 79
     5
176
     1
170
     0
176
     1
171
     0
176
     1
290
     0
176
     1
 93
        1
176
     1
 44
0.0
176
     1
173
     0
176
     1
  0
VISUALSTYLE
  5
34
102
{ACAD_REACTORS
330
2A
102
}
330
2A
100
AcDbVisualStyle
  2
Conceptual
 70
     9
177
     2
291
     0
 71
     3
176
     1
 72
     2
176
     1
 73
     0
176
     1
 90
        0
176
     1
 40
-0.6
176
     1
 41
-30.0
176
     1
 62
     5
 63
     7
421
 16777215
176
     1
 74
     2
176
     1
 91
        2
176
     1
 64
     7
176
     1
 65
   257
176
     1
 75
     1
176
     1
175
     1
176
     1
 42
40.0
176
     1
 92
        8
176
     1
 66
     7
176
     1
 43
1.0
176
     1
 76
     1
176
     1
 77
     6
176
     1
 78
     2
176
     1
 67
     7
176
     1
 79
     3
176
     1
170
     0
176
     1
171
     0
176
     1
290
     0
176
     1
 93
        1
176
     1
 44
0.0
176
     1
173
     0
176
     1
  0
VISUALSTYLE
  5
35
102
{ACAD_REACTORS
330
2A
102
}
330
2A
100
AcDbVisualStyle
  2
Dim
 70
    11
177
     2
291
     1
 71
     2
176
     1
 72
     2
176
     1
 73
     0
176
     1
 90
        0
176
     1
 40
-0.6
176
     1
 41
-30.0
176
     1
 62
     5
 63
     7
421
 16777215
176
     1
 74
     1
176
     1
 91
        4
176
     1
 64
     7
176
     1
 65
   257
176
     1
 75
     1
176
     1
175
     1
176
     1
 42
1.0
176
     1
 92
        8
176
     1
 66
     7
176
     1
 43
1.0
176
     1
 76
     1
176
     1
 77
     6
176
     1
 78
     2
176
     1
 67
     7
176
     1
 79
     5
176
     1
170
     0
176
     1
171
     0
176
     1
290
     0
176
     1
 93
        1
176
     1
 44
-50.0
176
     1
173
     0
176
     1
  0
VISUALSTYLE
  5
39
102
{ACAD_REACTORS
330
2A
102
}
330
2A
100
AcDbVisualStyle
  2
Facepattern
 70
    15
177
     2
291
     1
 71
     2
176
     1
 72
     2
176
     1
 73
     0
176
     1
 90
        0
176
     1
 40
-0.6
176
     1
 41
-30.0
176
     1
 62
     5
 63
     7
421
 16777215
176
     1
 74
     1
176
     1
 91
        4
176
     1
 64
     7
176
     1
 65
   257
176
     1
 75
     1
176
     1
175
     1
176
     1
 42
1.0
176
     1
 92
        8
176
     1
 66
     7
176
     1
 43
1.0
176
     1
 76
     1
176
     1
 77
     6
176
     1
 78
     2
176
     1
 67
     7
176
     1
 79
     5
176
     1
170
     0
176
     1
171
     0
176
     1
290
     0
176
     1
 93
        1
176
     1
 44
0.0
176
     1
173
     0
176
     1
  0
VISUALSTYLE
  5
2B
102
{ACAD_REACTORS
330
2A
102
}
330
2A
100
AcDbVisualStyle
  2
Flat
 70
     0
177
     2
291
     1
 71
     2
176
     1
 72
     1
176
     1
 73
     1
176
     1
 90
        2
176
     1
 40
-0.6
176
     1
 41
30.0
176
     1
 62
     5
 63
     7
421
 16777215
176
     1
 74
     0
176
     1
 91
        4
176
     1
 64
     7
176
     1
 65
   257
176
     1
 75
     1
176
     1
175
     1
176
     1
 42
1.0
176
     1
 92
        8
176
     1
 66
     7
176
     1
 43
1.0
176
     1
 76
     1
176
     1
 77
     6
176
     1
 78
     2
176
     1
 67
     7
176
     1
 79
     5
176
     1
170
     0
176
     1
171
     0
176
     1
290
     0
176
     1
 93
       13
176
     1
 44
0.0
176
     1
173
     0
176
     1
  0
VISUALSTYLE
  5
2C
102
{ACAD_REACTORS
330
2A
102
}
330
2A
100
AcDbVisualStyle
  2
FlatWithEdges
 70
     1
177
     2
291
     1
 71
     2
176
     1
 72
     1
176
     1
 73
     1
176
     1
 90
        2
176
     1
 40
-0.6
176
     1
 41
30.0
176
     1
 62
     5
 63
     7
421
 16777215
176
     1
 74
     1
176
     1
 91
        4
176
     1
 64
     7
176
     1
 65
   257
176
     1
 75
     1
176
     1
175
     1
176
     1
 42
1.0
176
     1
 92
        0
176
     1
 66
   257
176
     1
 43
1.0
176
     1
 76
     1
176
     1
 77
     6
176
     1
 78
     2
176
     1
 67
     7
176
     1
 79
     5
176
     1
170
     0
176
     1
171
     0
176
     1
290
     0
176
     1
 93
       13
176
     1
 44
0.0
176
     1
173
     0
176
     1
  0
VISUALSTYLE
  5
2D
102
{ACAD_REACTORS
330
2A
102
}
330
2A
100
AcDbVisualStyle
  2
Gouraud
 70
     2
177
     2
291
     1
 71
     2
176
     1
 72
     2
176
     1
 73
     1
176
     1
 90
        2
176
     1
 40
-0.6
176
     1
 41
30.0
176
     1
 62
     5
 63
     7
421
 16777215
176
     1
 74
     0
176
     1
 91
        4
176
     1
 64
     7
176
     1
 65
   257
176
     1
 75
     1
176
     1
175
     1
176
     1
 42
1.0
176
     1
 92
        0
176
     1
 66
     7
176
     1
 43
1.0
176
     1
 76
     1
176
     1
 77
     6
176
     1
 78
     2
176
     1
 67
     7
176
     1
 79
     5
176
     1
170
     0
176
     1
171
     0
176
     1
290
     0
176
     1
 93
       13
176
     1
 44
0.0
176
     1
173
     0
176
     1
  0
VISUALSTYLE
  5
2E
102
{ACAD_REACTORS
330
2A
102
}
330
2A
100
AcDbVisualStyle
  2
GouraudWithEdges
 70
     3
177
     2
291
     1
 71
     2
176
     1
 72
     2
176
     1
 73
     1
176
     1
 90
        2
176
     1
 40
-0.6
176
     1
 41
30.0
176
     1
 62
     5
 63
     7
421
 16777215
176
     1
 74
     1
176
     1
 91
        4
176
     1
 64
     7
176
     1
 65
   257
176
     1
 75
     1
176
     1
175
     1
176
     1
 42
1.0
176
     1
 92
        0
176
     1
 66
   257
176
     1
 43
1.0
176
     1
 76
     1
176
     1
 77
     6
176
     1
 78
     2
176
     1
 67
     7
176
     1
 79
     5
176
     1
170
     0
176
     1
171
     0
176
     1
290
     0
176
     1
 93
       13
176
     1
 44
0.0
176
     1
173
     0
176
     1
  0
VISUALSTYLE
  5
38
102
{ACAD_REACTORS
330
2A
102
}
330
2A
100
AcDbVisualStyle
  2
Linepattern
 70
    14
177
     2
291
     1
 71
     2
176
     1
 72
     2
176
     1
 73
     0
176
     1
 90
        0
176
     1
 40
-0.6
176
     1
 41
-30.0
176
     1
 62
     5
 63
     7
421
 16777215
176
     1
 74
     1
176
     1
 91
        4
176
     1
 64
     7
176
     1
 65
   257
176
     1
 75
     7
176
     1
175
     7
176
     1
 42
1.0
176
     1
 92
        8
176
     1
 66
     7
176
     1
 43
1.0
176
     1
 76
     1
176
     1
 77
     6
176
     1
 78
     2
176
     1
 67
     7
176
     1
 79
     5
176
     1
170
     0
176
     1
171
     0
176
     1
290
     0
176
     1
 93
        1
176
     1
 44
0.0
176
     1
173
     0
176
     1
  0
VISUALSTYLE
  5
33
102
{ACAD_REACTORS
330
2A
102
}
330
2A
100
AcDbVisualStyle
  2
Realistic
 70
     8
177
     2
291
     0
 71
     2
176
     1
 72
     2
176
     1
 73
     0
176
     1
 90
        0
176
     1
 40
-0.6
176
     1
 41
-30.0
176
     1
 62
     5
 63
     7
421
 16777215
176
     1
 74
     1
176
     1
 91
        0
176
     1
 64
     7
176
     1
 65
   257
176
     1
 75
     1
176
     1
175
     1
176
     1
 42
1.0
176
     1
 92
        8
176
     1
 66
     8
424
  7895160
176
     1
 43
1.0
176
     1
 76
     1
176
     1
 77
     6
176
     1
 78
     2
176
     1
 67
     7
176
     1
 79
     5
176
     1
170
     0
176
     1
171
     0
176
     1
290
     0
176
     1
 93
       13
176
     1
 44
0.0
176
     1
173
     0
176
     1
  0
VISUALSTYLE
  5
37
102
{ACAD_REACTORS
330
2A
102
}
330
2A
100
AcDbVisualStyle
  2
Thicken
 70
    13
177
     2
291
     1
 71
     2
176
     1
 72
     2
176
     1
 73
     0
176
     1
 90
        0
176
     1
 40
-0.6
176
     1
 41
-30.0
176
     1
 62
     5
 63
     7
421
 16777215
176
     1
 74
     1
176
     1
 91
        4
176
     1
 64
     7
176
     1
 65
   257
176
     1
 75
     1
176
     1
175
     1
176
     1
 42
1.0
176
     1
 92
       12
176
     1
 66
     7
176
     1
 43
1.0
176
     1
 76
     1
176
     1
 77
     6
176
     1
 78
     2
176
     1
 67
     7
176
     1
 79
     5
176
     1
170
     0
176
     1
171
     0
176
     1
290
     0
176
     1
 93
        1
176
     1
 44
0.0
176
     1
173
     0
176
     1
  0
ENDSEC
  0
EOF
