  0
SECTION
  2
HEADER
  9
$ACADVER
  1
AC1024
  9
$ACADMAINTVER
 70
     6
  9
$DWGCODEPAGE
  3
UNDEFINED
  9
$INSBASE
 10
0.0
 20
0.0
 30
0.0
  9
$EXTMIN
 10
1.000000000000000E+20
 20
1.000000000000000E+20
 30
1.000000000000000E+20
  9
$EXTMAX
 10
-1.000000000000000E+20
 20
-1.000000000000000E+20
 30
-1.000000000000000E+20
  9
$LIMMIN
 10
0.0
 20
0.0
  9
$LIMMAX
 10
12.0
 20
9.0
  9
$ORTHOMODE
 70
     0
  9
$REGENMODE
 70
     1
  9
$FILLMODE
 70
     1
  9
$QTEXTMODE
 70
     0
  9
$MIRRTEXT
 70
     1
  9
$LTSCALE
 40
1.0
  9
$ATTMODE
 70
     1
  9
$TEXTSIZE
 40
0.2
  9
$TRACEWID
 40
0.05
  9
$TEXTSTYLE
  7
Standard
  9
$CLAYER
  8
0
  9
$CELTYPE
  6
ByLayer
  9
$CECOLOR
 62
   256
  9
$CELTSCALE
 40
1.0
  9
$DISPSILH
 70
     0
  9
$DIMSCALE
 40
1.0
  9
$DIMASZ
 40
0.18
  9
$DIMEXO
 40
0.0625
  9
$DIMDLI
 40
0.38
  9
$DIMRND
 40
0.0
  9
$DIMDLE
 40
0.0
  9
$DIMEXE
 40
0.18
  9
$DIMTP
 40
0.0
  9
$DIMTM
 40
0.0
  9
$DIMTXT
 40
0.18
  9
$DIMCEN
 40
0.09
  9
$DIMTSZ
 40
0.0
  9
$DIMTOL
 70
     0
  9
$DIMLIM
 70
     0
  9
$DIMTIH
 70
     1
  9
$DIMTOH
 70
     1
  9
$DIMSE1
 70
     0
  9
$DIMSE2
 70
     0
  9
$DIMTAD
 70
     0
  9
$DIMZIN
 70
     0
  9
$DIMBLK
  1

  9
$DIMASO
 70
     1
  9
$DIMSHO
 70
     1
  9
$DIMPOST
  1

  9
$DIMAPOST
  1

  9
$DIMALT
 70
     0
  9
$DIMALTD
 70
     2
  9
$DIMALTF
 40
25.4
  9
$DIMLFAC
 40
1.0
  9
$DIMTOFL
 70
     0
  9
$DIMTVP
 40
0.0
  9
$DIMTIX
 70
     0
  9
$DIMSOXD
 70
     0
  9
$DIMSAH
 70
     0
  9
$DIMBLK1
  1

  9
$DIMBLK2
  1

  9
$DIMSTYLE
  2
Standard
  9
$DIMCLRD
 70
     0
  9
$DIMCLRE
 70
     0
  9
$DIMCLRT
 70
     0
  9
$DIMTFAC
 40
1.0
  9
$DIMGAP
 40
0.09
  9
$DIMJUST
 70
     0
  9
$DIMSD1
 70
     0
  9
$DIMSD2
 70
     0
  9
$DIMTOLJ
 70
     1
  9
$DIMTZIN
 70
     0
  9
$DIMALTZ
 70
     0
  9
$DIMALTTZ
 70
     0
  9
$DIMUPT
 70
     0
  9
$DIMDEC
 70
     4
  9
$DIMTDEC
 70
     4
  9
$DIMALTU
 70
     2
  9
$DIMALTTD
 70
     2
  9
$DIMTXSTY
  7
Standard
  9
$DIMAUNIT
 70
     0
  9
$DIMADEC
 70
     0
  9
$DIMALTRND
 40
0.0
  9
$DIMAZIN
 70
     0
  9
$DIMDSEP
 70
    46
  9
$DIMATFIT
 70
     3
  9
$DIMFRAC
 70
     0
  9
$DIMLDRBLK
  1

  9
$DIMLUNIT
 70
     2
  9
$DIMLWD
 70
    -2
  9
$DIMLWE
 70
    -2
  9
$DIMTMOVE
 70
     0
  9
$DIMFXL
 40
1.0
  9
$DIMFXLON
 70
     0
  9
$DIMJOGANG
 40
0.7853981633974483
  9
$DIMTFILL
 70
     0
  9
$DIMTFILLCLR
 70
     0
  9
$DIMARCSYM
 70
     0
  9
$DIMLTYPE
  6

  9
$DIMLTEX1
  6

  9
$DIMLTEX2
  6

  9
$DIMTXTDIRECTION
 70
     0
  9
$LUNITS
 70
     2
  9
$LUPREC
 70
     4
  9
$SKETCHINC
 40
0.1
  9
$FILLETRAD
 40
0.5
  9
$AUNITS
 70
     0
  9
$AUPREC
 70
     0
  9
$MENU
  1
.
  9
$ELEVATION
 40
0.0
  9
$PELEVATION
 40
0.0
  9
$THICKNESS
 40
0.0
  9
$LIMCHECK
 70
     0
  9
$CHAMFERA
 40
0.5
  9
$CHAMFERB
 40
0.5
  9
$CHAMFERC
 40
1.0
  9
$CHAMFERD
 40
0.0
  9
$SKPOLY
 70
     0
  9
$TDCREATE
 40
2458113.725428241
  9
$TDUCREATE
 40
2458113.642094907
  9
$TDUPDATE
 40
2458113.725428241
  9
$TDUUPDATE
 40
2458113.642094907
  9
$TDINDWG
 40
0.0000000116
  9
$TDUSRTIMER
 40
0.0000000116
  9
$USRTIMER
 70
     1
  9
$ANGBASE
 50
0.0
  9
$ANGDIR
 70
     0
  9
$PDMODE
 70
     0
  9
$PDSIZE
 40
0.0
  9
$PLINEWID
 40
0.0
  9
$SPLFRAME
 70
     0
  9
$SPLINETYPE
 70
     6
  9
$SPLINESEGS
 70
     8
  9
$HANDSEED
  5
A9
  9
$SURFTAB1
 70
     6
  9
$SURFTAB2
 70
     6
  9
$SURFTYPE
 70
     6
  9
$SURFU
 70
     6
  9
$SURFV
 70
     6
  9
$UCSBASE
  2

  9
$UCSNAME
  2

  9
$UCSORG
 10
0.0
 20
0.0
 30
0.0
  9
$UCSXDIR
 10
1.0
 20
0.0
 30
0.0
  9
$UCSYDIR
 10
0.0
 20
1.0
 30
0.0
  9
$UCSORTHOREF
  2

  9
$UCSORTHOVIEW
 70
     0
  9
$UCSORGTOP
 10
0.0
 20
0.0
 30
0.0
  9
$UCSORGBOTTOM
 10
0.0
 20
0.0
 30
0.0
  9
$UCSORGLEFT
 10
0.0
 20
0.0
 30
0.0
  9
$UCSORGRIGHT
 10
0.0
 20
0.0
 30
0.0
  9
$UCSORGFRONT
 10
0.0
 20
0.0
 30
0.0
  9
$UCSORGBACK
 10
0.0
 20
0.0
 30
0.0
  9
$PUCSBASE
  2

  9
$PUCSNAME
  2

  9
$PUCSORG
 10
0.0
 20
0.0
 30
0.0
  9
$PUCSXDIR
 10
1.0
 20
0.0
 30
0.0
  9
$PUCSYDIR
 10
0.0
 20
1.0
 30
0.0
  9
$PUCSORTHOREF
  2

  9
$PUCSORTHOVIEW
 70
     0
  9
$PUCSORGTOP
 10
0.0
 20
0.0
 30
0.0
  9
$PUCSORGBOTTOM
 10
0.0
 20
0.0
 30
0.0
  9
$PUCSORGLEFT
 10
0.0
 20
0.0
 30
0.0
  9
$PUCSORGRIGHT
 10
0.0
 20
0.0
 30
0.0
  9
$PUCSORGFRONT
 10
0.0
 20
0.0
 30
0.0
  9
$PUCSORGBACK
 10
0.0
 20
0.0
 30
0.0
  9
$USERI1
 70
     0
  9
$USERI2
 70
     0
  9
$USERI3
 70
     0
  9
$USERI4
 70
     0
  9
$USERI5
 70
     0
  9
$USERR1
 40
0.0
  9
$USERR2
 40
0.0
  9
$USERR3
 40
0.0
  9
$USERR4
 40
0.0
  9
$USERR5
 40
0.0
  9
$WORLDVIEW
 70
     1
  9
$SHADEDGE
 70
     3
  9
$SHADEDIF
 70
    70
  9
$TILEMODE
 70
     1
  9
$MAXACTVP
 70
    64
  9
$PINSBASE
 10
0.0
 20
0.0
 30
0.0
  9
$PLIMCHECK
 70
     0
  9
$PEXTMIN
 10
1.000000000000000E+20
 20
1.000000000000000E+20
 30
1.000000000000000E+20
  9
$PEXTMAX
 10
-1.000000000000000E+20
 20
-1.000000000000000E+20
 30
-1.000000000000000E+20
  9
$PLIMMIN
 10
0.0
 20
0.0
  9
$PLIMMAX
 10
12.0
 20
9.0
  9
$UNITMODE
 70
     0
  9
$VISRETAIN
 70
     1
  9
$PLINEGEN
 70
     0
  9
$PSLTSCALE
 70
     1
  9
$TREEDEPTH
 70
  3020
  9
$CMLSTYLE
  2
Standard
  9
$CMLJUST
 70
     0
  9
$CMLSCALE
 40
1.0
  9
$PROXYGRAPHICS
 70
     1
  9
$MEASUREMENT
 70
     0
  9
$CELWEIGHT
370
    -1
  9
$ENDCAPS
280
     0
  9
$JOINSTYLE
280
     0
  9
$LWDISPLAY
290
     1
  9
$INSUNITS
 70
     1
  9
$HYPERLINKBASE
  1

  9
$STYLESHEET
  1

  9
$XEDIT
290
     1
  9
$CEPSNTYPE
380
     0
  9
$PSTYLEMODE
290
     1
  9
$FINGERPRINTGUID
  2
{7345EC08-9525-4F2E-7FF3-880241698E34}
  9
$VERSIONGUID
  2
{FAEB1C32-E019-11D5-929B-00C0DF256EC4}
  9
$EXTNAMES
290
     1
  9
$PSVPSCALE
 40
0.0
  9
$OLESTARTUP
290
     0
  9
$SORTENTS
280
   127
  9
$INDEXCTL
280
     0
  9
$HIDETEXT
280
     1
  9
$XCLIPFRAME
280
     2
  9
$HALOGAP
280
     0
  9
$OBSCOLOR
 70
   257
  9
$OBSLTYPE
280
     0
  9
$INTERSECTIONDISPLAY
280
     0
  9
$INTERSECTIONCOLOR
 70
   257
  9
$DIMASSOC
280
     2
  9
$PROJECTNAME
  1

  9
$CAMERADISPLAY
290
     0
  9
$LENSLENGTH
 40
50.0
  9
$CAMERAHEIGHT
 40
0.0
  9
$STEPSPERSEC
 40
2.0
  9
$STEPSIZE
 40
6.0
  9
$3DDWFPREC
 40
2.0
  9
$PSOLWIDTH
 40
0.25
  9
$PSOLHEIGHT
 40
4.0
  9
$LOFTANG1
 40
1.570796326794897
  9
$LOFTANG2
 40
1.570796326794897
  9
$LOFTMAG1
 40
0.0
  9
$LOFTMAG2
 40
0.0
  9
$LOFTPARAM
 70
     7
  9
$LOFTNORMALS
280
     1
  9
$LATITUDE
 40
37.795
  9
$LONGITUDE
 40
-122.394
  9
$NORTHDIRECTION
 40
0.0
  9
$TIMEZONE
 70
 -8000
  9
$LIGHTGLYPHDISPLAY
280
     1
  9
$TILEMODELIGHTSYNCH
280
     1
  9
$CMATERIAL
347
3C
  9
$SOLIDHIST
280
     1
  9
$SHOWHIST
280
     1
  9
$DWFFRAME
280
     2
  9
$DGNFRAME
280
     2
  9
$REALWORLDSCALE
290
     1
  9
$INTERFERECOLOR
 62
   256
  9
$CSHADOW
280
     0
  9
$SHADOWPLANELOCATION
 40
0.0
  0
ENDSEC
  0
SECTION
  2
CLASSES
  0
CLASS
  1
ACDBDICTIONARYWDFLT
  2
AcDbDictionaryWithDefault
  3
ObjectDBX Classes
 90
        0
 91
        4
280
     0
281
     0
  0
CLASS
  1
VISUALSTYLE
  2
AcDbVisualStyle
  3
ObjectDBX Classes
 90
     4095
 91
        4
280
     0
281
     0
  0
CLASS
  1
MATERIAL
  2
AcDbMaterial
  3
ObjectDBX Classes
 90
     1153
 91
        4
280
     0
281
     0
  0
CLASS
  1
SUN
  2
AcDbSun
  3
SCENEOE
 90
     1024
 91
        4
280
     0
281
     0
  0
ENDSEC
  0
SECTION
  2
TABLES
  0
TABLE
  2
VPORT
  5
8
330
0
100
AcDbSymbolTable
 70
     1
  0
VPORT
  5
29
330
8
100
AcDbSymbolTableRecord
100
AcDbViewportTableRecord
  2
*Active
 70
     0
 10
0.0
 20
0.0
 11
1.0
 21
1.0
 12
0.0
 22
0.0
 13
0.0
 23
0.0
 14
0.5
 24
0.5
 15
0.5
 25
0.5
 16
0.0
 26
0.0
 36
1.0
 17
297.6379999999999
 27
-420.9449999999997
 37
0.0
 40
841.8899999999994
 41
0.7070709950231031
 42
50.0
 43
0.0
 44
0.0
 50
0.0
 51
0.0
 71
     0
 72
   100
 73
     1
 74
     3
 75
     0
 76
     0
 77
     0
 78
     0
281
     0
 65
     1
110
0.0
120
0.0
130
0.0
111
1.0
121
0.0
131
0.0
112
0.0
122
1.0
132
0.0
 79
     0
146
0.0
 60
     3
 61
     5
292
     1
282
     1
141
0.0
142
0.0
 63
   250
361
3F
  0
ENDTAB
  0
TABLE
  2
LTYPE
  5
5
330
0
100
AcDbSymbolTable
 70
     1
  0
LTYPE
  5
14
330
5
100
AcDbSymbolTableRecord
100
AcDbLinetypeTableRecord
  2
ByBlock
 70
     0
  3

 72
    65
 73
     0
 40
0.0
  0
LTYPE
  5
15
330
5
100
AcDbSymbolTableRecord
100
AcDbLinetypeTableRecord
  2
ByLayer
 70
     0
  3

 72
    65
 73
     0
 40
0.0
  0
LTYPE
  5
16
330
5
100
AcDbSymbolTableRecord
100
AcDbLinetypeTableRecord
  2
Continuous
 70
     0
  3
Solid line
 72
    65
 73
     0
 40
0.0
  0
ENDTAB
  0
TABLE
  2
LAYER
  5
2
330
0
100
AcDbSymbolTable
 70
     2
  0
LAYER
  5
10
330
2
100
AcDbSymbolTableRecord
100
AcDbLayerTableRecord
  2
0
 70
     0
 62
     7
  6
Continuous
370
    -3
390
F
347
3E
  0
LAYER
  5
40
330
2
100
AcDbSymbolTableRecord
100
AcDbLayerTableRecord
  2
Layer 1
 70
     0
 62
     7
  6
Continuous
370
    -3
390
F
347
3E
  0
ENDTAB
  0
TABLE
  2
STYLE
  5
3
330
0
100
AcDbSymbolTable
 70
     1
  0
STYLE
  5
11
330
3
100
AcDbSymbolTableRecord
100
AcDbTextStyleTableRecord
  2
Standard
 70
     0
 40
0.0
 41
1.0
 50
0.0
 71
     0
 42
0.2
  3
txt
  4

  0
ENDTAB
  0
TABLE
  2
VIEW
  5
6
330
0
100
AcDbSymbolTable
 70
     0
  0
ENDTAB
  0
TABLE
  2
UCS
  5
7
330
0
100
AcDbSymbolTable
 70
     0
  0
ENDTAB
  0
TABLE
  2
APPID
  5
9
330
0
100
AcDbSymbolTable
 70
     1
  0
APPID
  5
12
330
9
100
AcDbSymbolTableRecord
100
AcDbRegAppTableRecord
  2
ACAD
 70
     0
  0
ENDTAB
  0
TABLE
  2
DIMSTYLE
  5
A
330
0
100
AcDbSymbolTable
 70
     1
100
AcDbDimStyleTable
  0
DIMSTYLE
105
27
330
A
100
AcDbSymbolTableRecord
100
AcDbDimStyleTableRecord
  2
Standard
 70
     0
178
     0
340
11
  0
ENDTAB
  0
TABLE
  2
BLOCK_RECORD
  5
1
330
0
100
AcDbSymbolTable
 70
     2
  0
BLOCK_RECORD
  5
1F
330
1
100
AcDbSymbolTableRecord
100
AcDbBlockTableRecord
  2
*Model_Space
340
22
 70
     0
280
     1
281
     0
  0
BLOCK_RECORD
  5
1B
330
1
100
AcDbSymbolTableRecord
100
AcDbBlockTableRecord
  2
*Paper_Space
340
1E
 70
     0
280
     1
281
     0
  0
BLOCK_RECORD
  5
23
330
1
100
AcDbSymbolTableRecord
100
AcDbBlockTableRecord
  2
*Paper_Space0
340
26
 70
     0
280
     1
281
     0
  0
BLOCK_RECORD
  5
41
330
1
100
AcDbSymbolTableRecord
100
AcDbBlockTableRecord
  2
block 2
340
0
102
{BLKREFS
331
42
102
}
 70
     0
280
     1
281
     0
  0
ENDTAB
  0
ENDSEC
  0
SECTION
  2
BLOCKS
  0
BLOCK
  5
20
330
1F
100
AcDbEntity
  8
0
100
AcDbBlockBegin
  2
*Model_Space
 70
     0
 10
0.0
 20
0.0
 30
0.0
  3
*Model_Space
  1

  0
ENDBLK
  5
21
330
1F
100
AcDbEntity
  8
0
100
AcDbBlockEnd
  0
BLOCK
  5
1C
330
1B
100
AcDbEntity
 67
     1
  8
0
100
AcDbBlockBegin
  2
*Paper_Space
 70
     0
 10
0.0
 20
0.0
 30
0.0
  3
*Paper_Space
  1

  0
ENDBLK
  5
1D
330
1B
100
AcDbEntity
 67
     1
  8
0
100
AcDbBlockEnd
  0
BLOCK
  5
24
330
23
100
AcDbEntity
  8
0
100
AcDbBlockBegin
  2
*Paper_Space0
 70
     0
 10
0.0
 20
0.0
 30
0.0
  3
*Paper_Space0
  1

  0
ENDBLK
  5
25
330
23
100
AcDbEntity
  8
0
100
AcDbBlockEnd
  0
BLOCK
  5
43
330
41
100
AcDbEntity
  8
0
100
AcDbBlockBegin
  2
block 2
 70
     0
 10
0.0
 20
0.0
 30
0.0
  3
block 2
  1

  0
POLYLINE
  5
45
330
41
100
AcDbEntity
  8
Layer 1
 62
   156
420
  1785491
370
    18
100
AcDb2dPolyline
 66
     1
 10
0.0
 20
0.0
 30
0.0
  0
VERTEX
  5
46
330
45
100
AcDbEntity
  8
Layer 1
 62
   156
420
  1785491
370
    18
100
AcDbVertex
100
AcDb2dVertex
 10
395.0724287876546
 20
-721.4670633463556
 30
0.0
  0
VERTEX
  5
47
330
45
100
AcDbEntity
  8
Layer 1
 62
   156
420
  1785491
370
    18
100
AcDbVertex
100
AcDb2dVertex
 10
395.5761221656885
 20
-733.5040446795283
 30
0.0
  0
SEQEND
  5
48
330
45
100
AcDbEntity
  8
Layer 1
 62
   156
420
  1785491
370
    18
  0
POLYLINE
  5
49
330
41
100
AcDbEntity
  8
Layer 1
 62
   156
420
  1785491
370
    18
100
AcDb2dPolyline
 66
     1
 10
0.0
 20
0.0
 30
0.0
  0
VERTEX
  5
4A
330
49
100
AcDbEntity
  8
Layer 1
 62
   156
420
  1785491
370
    18
100
AcDbVertex
100
AcDb2dVertex
 10
402.3758845151697
 20
-721.0950520855749
 30
0.0
  0
VERTEX
  5
4B
330
49
100
AcDbEntity
  8
Layer 1
 62
   156
420
  1785491
370
    18
100
AcDbVertex
100
AcDb2dVertex
 10
402.633462684169
 20
-734.8204728362853
 30
0.0
  0
SEQEND
  5
4C
330
49
100
AcDbEntity
  8
Layer 1
 62
   156
420
  1785491
370
    18
  0
POLYLINE
  5
4D
330
41
100
AcDbEntity
  8
Layer 1
 62
   156
420
  1785491
370
    18
100
AcDb2dPolyline
 66
     1
 10
0.0
 20
0.0
 30
0.0
  0
VERTEX
  5
4E
330
4D
100
AcDbEntity
  8
Layer 1
 62
   156
420
  1785491
370
    18
100
AcDbVertex
100
AcDb2dVertex
 10
411.694091920599
 20
-721.0950520855749
 30
0.0
  0
VERTEX
  5
4F
330
4D
100
AcDbEntity
  8
Layer 1
 62
   156
420
  1785491
370
    18
100
AcDbVertex
100
AcDb2dVertex
 10
412.1977634644227
 20
-735.1409990311568
 30
0.0
  0
SEQEND
  5
50
330
4D
100
AcDbEntity
  8
Layer 1
 62
   156
420
  1785491
370
    18
  0
POLYLINE
  5
51
330
41
100
AcDbEntity
  8
Layer 1
 62
   156
420
  1785491
370
    18
100
AcDb2dPolyline
 66
     1
 10
0.0
 20
0.0
 30
0.0
  0
VERTEX
  5
52
330
51
100
AcDbEntity
  8
Layer 1
 62
   156
420
  1785491
370
    18
100
AcDbVertex
100
AcDb2dVertex
 10
417.4005935682144
 20
-720.7458794078921
 30
0.0
  0
VERTEX
  5
53
330
51
100
AcDbEntity
  8
Layer 1
 62
   156
420
  1785491
370
    18
100
AcDbVertex
100
AcDb2dVertex
 10
417.8069718746829
 20
-735.3241880485257
 30
0.0
  0
SEQEND
  5
54
330
51
100
AcDbEntity
  8
Layer 1
 62
   156
420
  1785491
370
    18
  0
POLYLINE
  5
55
330
41
100
AcDbEntity
  8
Layer 1
 62
   156
420
  1785491
370
    18
100
AcDb2dPolyline
 66
     1
 10
0.0
 20
0.0
 30
0.0
  0
VERTEX
  5
56
330
55
100
AcDbEntity
  8
Layer 1
 62
   156
420
  1785491
370
    18
100
AcDbVertex
100
AcDb2dVertex
 10
425.7400388661845
 20
-736.148385787219
 30
0.0
  0
VERTEX
  5
57
330
55
100
AcDbEntity
  8
Layer 1
 62
   156
420
  1785491
370
    18
100
AcDbVertex
100
AcDb2dVertex
 10
426.0491239352996
 20
-721.2152275744429
 30
0.0
  0
SEQEND
  5
58
330
55
100
AcDbEntity
  8
Layer 1
 62
   156
420
  1785491
370
    18
  0
POLYLINE
  5
59
330
41
100
AcDbEntity
  8
Layer 1
 62
   156
420
  1785491
370
    18
100
AcDb2dPolyline
 66
     1
 10
0.0
 20
0.0
 30
0.0
  0
VERTEX
  5
5A
330
59
100
AcDbEntity
  8
Layer 1
 62
   156
420
  1785491
370
    18
100
AcDbVertex
100
AcDb2dVertex
 10
439.7860294801849
 20
-721.3468878574877
 30
0.0
  0
VERTEX
  5
5B
330
59
100
AcDbEntity
  8
Layer 1
 62
   156
420
  1785491
370
    18
100
AcDbVertex
100
AcDb2dVertex
 10
439.0304784960317
 20
-734.0706860834307
 30
0.0
  0
SEQEND
  5
5C
330
59
100
AcDbEntity
  8
Layer 1
 62
   156
420
  1785491
370
    18
  0
SPLINE
  5
5D
330
41
100
AcDbEntity
  8
Layer 1
 62
   156
420
  1785491
370
    18
100
AcDbSpline
210
0.0
220
0.0
230
1.0
 70
    11
 71
     3
 72
    26
 73
    22
 74
     0
 42
0.0000000001
 43
0.0000000001
 12
1.0
 22
0.0
 32
0.0
 13
1.0
 23
0.0
 33
0.0
 40
0.0
 40
0.0
 40
0.0
 40
0.0
 40
1.0
 40
1.0
 40
1.0
 40
2.0
 40
2.0
 40
2.0
 40
3.0
 40
3.0
 40
3.0
 40
4.0
 40
4.0
 40
4.0
 40
5.0
 40
5.0
 40
5.0
 40
6.0
 40
6.0
 40
6.0
 40
7.0
 40
7.0
 40
7.0
 40
7.0
 10
346.4495438965823
 20
-750.7953411823964
 30
0.0
 10
345.8714613669199
 20
-750.4004040016862
 30
0.0
 10
346.5983658682617
 20
-747.7903862712628
 30
0.0
 10
346.5983658682617
 20
-747.7903862712628
 30
0.0
 10
353.3237172319041
 20
-734.0706860834307
 30
0.0
 10
379.0803987529089
 20
-751.0758234371206
 30
0.0
 10
389.6291822035018
 20
-741.7118296944536
 30
0.0
 10
390.5735990994835
 20
-740.6185908267908
 30
0.0
 10
391.5294571212198
 20
-738.4378773227709
 30
0.0
 10
390.6079443109629
 20
-736.7551147996946
 30
0.0
 10
390.7167005082829
 20
-736.6177339537699
 30
0.0
 10
390.8769636057186
 20
-735.3241880485257
 30
0.0
 10
391.8671668389361
 20
-736.6463367681645
 30
0.0
 10
392.7371727490772
 20
-740.681560686875
 30
0.0
 10
390.8426183942374
 20
-742.1010463122857
 30
0.0
 10
389.205642208397
 20
-743.2572113716069
 30
0.0
 10
377.1915649609473
 20
-751.7054347011072
 30
0.0
 10
349.2942357102802
 20
-733.692910591355
 30
0.0
 10
347.5485033271198
 20
-751.2589687860691
 30
0.0
 10
347.5485033271198
 20
-751.2589687860691
 30
0.0
 10
347.0905962863253
 20
-751.2303659716781
 30
0.0
 10
346.4495438965823
 20
-750.7953411823964
 30
0.0
  0
SPLINE
  5
5E
330
41
100
AcDbEntity
  8
Layer 1
 62
   156
420
  1785491
370
    18
100
AcDbSpline
210
0.0
220
0.0
230
1.0
 70
     8
 71
     3
 72
    35
 73
    31
 74
     0
 42
0.0000000001
 43
0.0000000001
 12
1.0
 22
0.0
 32
0.0
 13
1.0
 23
0.0
 33
0.0
 40
0.0
 40
0.0
 40
0.0
 40
0.0
 40
1.0
 40
1.0
 40
1.0
 40
2.0
 40
2.0
 40
2.0
 40
3.0
 40
3.0
 40
3.0
 40
4.0
 40
4.0
 40
4.0
 40
5.0
 40
5.0
 40
5.0
 40
6.0
 40
6.0
 40
6.0
 40
7.0
 40
7.0
 40
7.0
 40
8.0
 40
8.0
 40
8.0
 40
9.0
 40
9.0
 40
9.0
 40
10.0
 40
10.0
 40
10.0
 40
10.0
 10
383.3903406950449
 20
-730.705117368856
 30
0.0
 10
383.3903406950449
 20
-730.705117368856
 30
0.0
 10
383.7795573128788
 20
-731.9528987710728
 30
0.0
 10
384.5179247741853
 20
-732.4222469376236
 30
0.0
 10
385.2562704012817
 20
-732.8915951041745
 30
0.0
 10
385.0273387150937
 20
-732.8515074956049
 30
0.0
 10
386.3838544804239
 20
-733.6700283398404
 30
0.0
 10
387.7460908086287
 20
-734.4827849527792
 30
0.0
 10
392.4223671170839
 20
-735.8106979037129
 30
0.0
 10
393.8590144311293
 20
-736.119782972828
 30
0.0
 10
395.3013823080546
 20
-736.4288243735227
 30
0.0
 10
396.0511908951175
 20
-736.7837176140856
 30
0.0
 10
397.8770548269968
 20
-736.8981725400736
 30
0.0
 10
399.7029187588741
 20
-737.018391697362
 30
0.0
 10
404.0758305610943
 20
-737.6823263386177
 30
0.0
 10
405.5067573122597
 20
-737.6823263386177
 30
0.0
 10
406.9491251891832
 20
-737.6823263386177
 30
0.0
 10
412.9475502172772
 20
-738.3863485884449
 30
0.0
 10
414.97376485516
 20
-738.3405404170007
 30
0.0
 10
416.9999358246223
 20
-738.3062170397261
 30
0.0
 10
430.5536960205609
 20
-738.1459539422904
 30
0.0
 10
434.9151666970229
 20
-737.407608315194
 30
0.0
 10
439.2766373734848
 20
-736.6692190196773
 30
0.0
 10
444.3420866313536
 20
-735.4958922717196
 30
0.0
 10
444.9259333923128
 20
-735.3012621285943
 30
0.0
 10
445.5040159219734
 20
-735.1066756538876
 30
0.0
 10
450.414966313705
 20
-732.9717266528933
 30
0.0
 10
450.8843144802559
 20
-732.3822029974745
 30
0.0
 10
451.3536189783881
 20
-731.8040767993934
 30
0.0
 10
451.1876353180724
 20
-731.5636821532389
 30
0.0
 10
451.1876353180724
 20
-731.5636821532389
 30
0.0
  0
SPLINE
  5
5F
330
41
100
AcDbEntity
  8
Layer 1
 62
   156
420
  1785491
370
    18
100
AcDbSpline
210
0.0
220
0.0
230
1.0
 70
     8
 71
     3
 72
     8
 73
     4
 74
     0
 42
0.0000000001
 43
0.0000000001
 12
1.0
 22
0.0
 32
0.0
 13
1.0
 23
0.0
 33
0.0
 40
0.0
 40
0.0
 40
0.0
 40
0.0
 40
1.0
 40
1.0
 40
1.0
 40
1.0
 10
451.2906927867261
 20
-733.6299407312745
 30
0.0
 10
442.1613731273319
 20
-742.3814848985894
 30
0.0
 10
387.1336630674869
 20
-743.3373429203257
 30
0.0
 10
381.5873808488923
 20
-731.0485694836607
 30
0.0
  0
SPLINE
  5
60
330
41
100
AcDbEntity
  8
Layer 1
 62
   156
420
  1785491
370
    18
100
AcDbSpline
210
0.0
220
0.0
230
1.0
 70
     8
 71
     3
 72
    14
 73
    10
 74
     0
 42
0.0000000001
 43
0.0000000001
 12
1.0
 22
0.0
 32
0.0
 13
1.0
 23
0.0
 33
0.0
 40
0.0
 40
0.0
 40
0.0
 40
0.0
 40
1.0
 40
1.0
 40
1.0
 40
2.0
 40
2.0
 40
2.0
 40
3.0
 40
3.0
 40
3.0
 40
3.0
 10
382.3200277473188
 20
-728.243921610112
 30
0.0
 10
381.5587562002893
 20
-729.7320976584833
 30
0.0
 10
381.6274466232499
 20
-732.010148068277
 30
0.0
 10
382.2570578872364
 20
-733.5154858052829
 30
0.0
 10
391.8900490904525
 20
-745.5467029071588
 30
0.0
 10
446.8147235158558
 20
-744.0242034815183
 30
0.0
 10
451.1132243322336
 20
-734.4083739669386
 30
0.0
 10
451.3078544753589
 20
-733.4009872108763
 30
0.0
 10
451.4681175727965
 20
-730.3559883595917
 30
0.0
 10
451.1533119408014
 20
-729.388689212099
 30
0.0
  0
SPLINE
  5
61
330
41
100
AcDbEntity
  8
Layer 1
 62
   156
420
  1785491
370
    18
100
AcDbSpline
210
0.0
220
0.0
230
1.0
 70
     8
 71
     3
 72
   143
 73
   139
 74
     0
 42
0.0000000001
 43
0.0000000001
 12
1.0
 22
0.0
 32
0.0
 13
1.0
 23
0.0
 33
0.0
 40
0.0
 40
0.0
 40
0.0
 40
0.0
 40
1.0
 40
1.0
 40
1.0
 40
2.0
 40
2.0
 40
2.0
 40
3.0
 40
3.0
 40
3.0
 40
4.0
 40
4.0
 40
4.0
 40
5.0
 40
5.0
 40
5.0
 40
6.0
 40
6.0
 40
6.0
 40
7.0
 40
7.0
 40
7.0
 40
8.0
 40
8.0
 40
8.0
 40
9.0
 40
9.0
 40
9.0
 40
10.0
 40
10.0
 40
10.0
 40
11.0
 40
11.0
 40
11.0
 40
12.0
 40
12.0
 40
12.0
 40
13.0
 40
13.0
 40
13.0
 40
14.0
 40
14.0
 40
14.0
 40
15.0
 40
15.0
 40
15.0
 40
16.0
 40
16.0
 40
16.0
 40
17.0
 40
17.0
 40
17.0
 40
18.0
 40
18.0
 40
18.0
 40
19.0
 40
19.0
 40
19.0
 40
20.0
 40
20.0
 40
20.0
 40
21.0
 40
21.0
 40
21.0
 40
22.0
 40
22.0
 40
22.0
 40
23.0
 40
23.0
 40
23.0
 40
24.0
 40
24.0
 40
24.0
 40
25.0
 40
25.0
 40
25.0
 40
26.0
 40
26.0
 40
26.0
 40
27.0
 40
27.0
 40
27.0
 40
28.0
 40
28.0
 40
28.0
 40
29.0
 40
29.0
 40
29.0
 40
30.0
 40
30.0
 40
30.0
 40
31.0
 40
31.0
 40
31.0
 40
32.0
 40
32.0
 40
32.0
 40
33.0
 40
33.0
 40
33.0
 40
34.0
 40
34.0
 40
34.0
 40
35.0
 40
35.0
 40
35.0
 40
36.0
 40
36.0
 40
36.0
 40
37.0
 40
37.0
 40
37.0
 40
38.0
 40
38.0
 40
38.0
 40
39.0
 40
39.0
 40
39.0
 40
40.0
 40
40.0
 40
40.0
 40
41.0
 40
41.0
 40
41.0
 40
42.0
 40
42.0
 40
42.0
 40
43.0
 40
43.0
 40
43.0
 40
44.0
 40
44.0
 40
44.0
 40
45.0
 40
45.0
 40
45.0
 40
46.0
 40
46.0
 40
46.0
 40
46.0
 10
372.7843297814579
 20
-620.5524040118125
 30
0.0
 10
372.7843297814579
 20
-620.5524040118125
 30
0.0
 10
374.3640566700924
 20
-633.155983080469
 30
0.0
 10
374.2553223069826
 20
-634.0546354734215
 30
0.0
 10
374.1408455467863
 20
-634.9532441979572
 30
0.0
 10
374.9249775111202
 20
-642.4512864001772
 30
0.0
 10
375.2626872288365
 20
-643.6876266766376
 30
0.0
 10
375.6003751123462
 20
-644.9124821589212
 30
0.0
 10
376.8309729917182
 20
-662.9536090830643
 30
0.0
 10
376.8309729917182
 20
-662.9536090830643
 30
0.0
 10
376.8309729917182
 20
-662.9536090830643
 30
0.0
 10
377.3403869326266
 20
-670.0567577729926
 30
0.0
 10
377.2831594696327
 20
-670.5089005824902
 30
0.0
 10
377.2259101724303
 20
-670.9553664975265
 30
0.0
 10
378.5709848119986
 20
-682.8320410648466
 30
0.0
 10
378.6282341092028
 20
-683.6677235977149
 30
0.0
 10
378.6797410093186
 20
-684.5090830250447
 30
0.0
 10
378.7369684723126
 20
-688.538586380877
 30
0.0
 10
379.4066455106604
 20
-691.6809221379335
 30
0.0
 10
380.0820431118846
 20
-694.8117731008151
 30
0.0
 10
379.6871059311725
 20
-703.2656733247732
 30
0.0
 10
379.6871059311725
 20
-704.2043696578748
 30
0.0
 10
379.6871059311725
 20
-705.1373454280965
 30
0.0
 10
379.8473690286082
 20
-707.5069685123672
 30
0.0
 10
380.2480267721985
 20
-709.8651068024592
 30
0.0
 10
380.6544269128772
 20
-712.2404504496062
 30
0.0
 10
381.037901133619
 20
-717.5234557705371
 30
0.0
 10
381.037901133619
 20
-718.0500095658736
 30
0.0
 10
381.037901133619
 20
-718.5766070296268
 30
0.0
 10
381.2782957797735
 20
-723.0353709434439
 30
0.0
 10
381.1924436681802
 20
-724.575032057719
 30
0.0
 10
381.1237532452178
 20
-726.1090162775381
 30
0.0
 10
382.2055509871207
 20
-726.8473619046345
 30
0.0
 10
382.2055509871207
 20
-727.1850497881442
 30
0.0
 10
382.2055509871207
 20
-727.5170171087702
 30
0.0
 10
382.2627784501146
 20
-727.740250066292
 30
0.0
 10
382.8236992911388
 20
-728.9765903427506
 30
0.0
 10
383.3846201321667
 20
-730.2014458250342
 30
0.0
 10
383.0469322486606
 20
-730.9283503263741
 30
0.0
 10
384.6152180115387
 20
-731.6609753905941
 30
0.0
 10
386.183525608627
 20
-732.3879235603526
 30
0.0
 10
386.6814765895724
 20
-733.0060500301624
 30
0.0
 10
387.0191863072887
 20
-732.3363948260285
 30
0.0
 10
387.3625947536748
 20
-731.6609753905941
 30
0.0
 10
387.5286002481971
 20
-731.4949917302802
 30
0.0
 10
388.3127322125347
 20
-731.9414576453164
 30
0.0
 10
389.0911654481988
 20
-732.3879235603526
 30
0.0
 10
388.2555047495407
 20
-732.5023784863406
 30
0.0
 10
389.766563049423
 20
-732.8973156670527
 30
0.0
 10
391.2719007864307
 20
-733.2808117220065
 30
0.0
 10
391.4436050096228
 20
-733.2808117220065
 30
0.0
 10
392.5082192286809
 20
-733.3437815820907
 30
0.0
 10
393.5728334477371
 20
-733.3952666479981
 30
0.0
 10
393.0176331695893
 20
-734.2366697437446
 30
0.0
 10
394.190981751759
 20
-734.0134367862283
 30
0.0
 10
395.364352168137
 20
-733.7902038287066
 30
0.0
 10
395.2555959708152
 20
-733.2808117220065
 30
0.0
 10
396.0340292064811
 20
-733.8417325630344
 30
0.0
 10
396.8181611708169
 20
-734.4083739669386
 30
0.0
 10
396.4861938501872
 20
-734.9063249478822
 30
0.0
 10
398.2204851075912
 20
-734.8548398819748
 30
0.0
 10
399.9547545307832
 20
-734.7975905847725
 30
0.0
 10
400.063510728105
 20
-733.9561874890223
 30
0.0
 10
401.1910729730371
 20
-734.3511246697344
 30
0.0
 10
402.3014735293309
 20
-734.7403412875665
 30
0.0
 10
401.517341564997
 20
-735.2497770626869
 30
0.0
 10
404.0987128126071
 20
-735.4100401601227
 30
0.0
 10
406.6743634973409
 20
-735.5817443833166
 30
0.0
 10
406.8403471576548
 20
-735.0780291710762
 30
0.0
 10
408.242671094431
 20
-735.4100401601227
 30
0.0
 10
409.6392744683253
 20
-735.7477280436324
 30
0.0
 10
409.9769623518314
 20
-735.5244950861106
 30
0.0
 10
411.4880206517191
 20
-735.3069826914725
 30
0.0
 10
412.9990789516014
 20
-735.0780291710762
 30
0.0
 10
413.4455448666395
 20
-734.9635742450864
 30
0.0
 10
414.1209206336553
 20
-735.5244950861106
 30
0.0
 10
414.7906195062114
 20
-736.0854159271385
 30
0.0
 10
416.1928997745654
 20
-736.4231038106445
 30
0.0
 10
417.0343028703137
 20
-735.9194322668227
 30
0.0
 10
417.8699417347652
 20
-735.4100401601227
 30
0.0
 10
418.2648789154755
 20
-735.2497770626869
 30
0.0
 10
418.4881118729936
 20
-735.2497770626869
 30
0.0
 10
418.7113448305136
 20
-735.2497770626869
 30
0.0
 10
416.9198042759053
 20
-735.4672457889083
 30
0.0
 10
420.2281236932758
 20
-735.8049773408347
 30
0.0
 10
423.5249583164714
 20
-736.1426652243408
 30
0.0
 10
422.4088371972994
 20
-735.9194322668227
 30
0.0
 10
424.5323450725336
 20
-735.9194322668227
 30
0.0
 10
426.6558529477697
 20
-735.9194322668227
 30
0.0
 10
426.7130585765572
 20
-736.0854159271385
 30
0.0
 10
427.6631960354152
 20
-736.3143694475348
 30
0.0
 10
428.6133334942733
 20
-736.5318818421765
 30
0.0
 10
428.8422870146715
 20
-736.7551147996946
 30
0.0
 10
429.9069230679379
 20
-735.9194322668227
 30
0.0
 10
430.9715154527858
 20
-735.0780291710762
 30
0.0
 10
430.3018602486482
 20
-735.1352784682786
 30
0.0
 10
432.2593407951535
 20
-734.8548398819748
 30
0.0
 10
434.2168650100757
 20
-734.5686370643762
 30
0.0
 10
436.1743892249979
 20
-733.3437815820907
 30
0.0
 10
437.5251407590276
 20
-733.9047024231186
 30
0.0
 10
438.8587742728378
 20
-734.4541821383846
 30
0.0
 10
438.7500399097298
 20
-735.3585114257967
 30
0.0
 10
439.9863365177716
 20
-734.6830919903641
 30
0.0
 10
441.2169562313502
 20
-734.0134367862283
 30
0.0
 10
440.7132846875302
 20
-733.727233968626
 30
0.0
 10
442.5620308709222
 20
-733.6814694655968
 30
0.0
 10
444.405056491436
 20
-733.6184996055163
 30
0.0
 10
444.965977332462
 20
-733.9047024231186
 30
0.0
 10
446.253802674828
 20
-733.1205486245744
 30
0.0
 10
447.5473922484925
 20
-732.3363948260285
 30
0.0
 10
447.7190964716865
 20
-731.9987069425206
 30
0.0
 10
449.0012012511743
 20
-731.4377861014927
 30
0.0
 10
450.2890265935403
 20
-730.8768652604685
 30
0.0
 10
450.62099391417
 20
-730.7108816001546
 30
0.0
 10
451.1304296892886
 20
-729.8179497700803
 30
0.0
 10
451.6283806702322
 20
-728.9193410455482
 30
0.0
 10
451.2391640523983
 20
-729.3658069605826
 30
0.0
 10
451.8000848934262
 20
-728.1351872470022
 30
0.0
 10
452.3610057344504
 20
-726.8988906389604
 30
0.0
 10
452.6414879891727
 20
-725.1645993815564
 30
0.0
 10
453.1451595329945
 20
-723.37305882695
 30
0.0
 10
453.6488310768182
 20
-721.5872825036386
 30
0.0
 10
454.896612479035
 20
-708.5486786457004
 30
0.0
 10
455.0225521991979
 20
-707.3237794949982
 30
0.0
 10
455.1484482509441
 20
-706.144688515742
 30
0.0
 10
456.7567997881852
 20
-692.1044621330366
 30
0.0
 10
456.7567997881852
 20
-692.1044621330366
 30
0.0
 10
456.7567997881852
 20
-692.1044621330366
 30
0.0
 10
458.4853704827074
 20
-676.1811225212514
 30
0.0
 10
458.4853704827074
 20
-676.1811225212514
 30
0.0
 10
458.4853704827074
 20
-676.1811225212514
 30
0.0
 10
459.8762532937271
 20
-661.9977510613298
 30
0.0
 10
459.8762532937271
 20
-661.9977510613298
 30
0.0
 10
459.8762532937271
 20
-661.9977510613298
 30
0.0
 10
460.6661276551495
 20
-650.7678494466327
 30
0.0
 10
460.889316944249
 20
-650.2069286056067
 30
0.0
 10
461.1125499017689
 20
-649.6517283274588
 30
0.0
 10
463.4421290458868
 20
-631.5247492917188
 30
0.0
 10
463.4421290458868
 20
-631.5247492917188
 30
0.0
  0
SPLINE
  5
62
330
41
100
AcDbEntity
  8
Layer 1
 62
   156
420
  1785491
370
    18
100
AcDbSpline
210
0.0
220
0.0
230
1.0
 70
     8
 71
     3
 72
    41
 73
    37
 74
     0
 42
0.0000000001
 43
0.0000000001
 12
1.0
 22
0.0
 32
0.0
 13
1.0
 23
0.0
 33
0.0
 40
0.0
 40
0.0
 40
0.0
 40
0.0
 40
1.0
 40
1.0
 40
1.0
 40
2.0
 40
2.0
 40
2.0
 40
3.0
 40
3.0
 40
3.0
 40
4.0
 40
4.0
 40
4.0
 40
5.0
 40
5.0
 40
5.0
 40
6.0
 40
6.0
 40
6.0
 40
7.0
 40
7.0
 40
7.0
 40
8.0
 40
8.0
 40
8.0
 40
9.0
 40
9.0
 40
9.0
 40
10.0
 40
10.0
 40
10.0
 40
11.0
 40
11.0
 40
11.0
 40
12.0
 40
12.0
 40
12.0
 40
12.0
 10
367.3754284087845
 20
-92.31719987368433
 30
0.0
 10
367.3754284087845
 20
-92.31719987368433
 30
0.0
 10
386.1148351856664
 20
-159.9485326706072
 30
0.0
 10
388.9766886880006
 20
-168.7344438836144
 30
0.0
 10
391.8442627532131
 20
-177.5203114282012
 30
0.0
 10
392.2506410596816
 20
-178.9798846621798
 30
0.0
 10
394.4199352721553
 20
-190.1239341652781
 30
0.0
 10
396.5949500475072
 20
-201.256542542621
 30
0.0
 10
398.3120577820664
 20
-211.8739945819652
 30
0.0
 10
398.3120577820664
 20
-217.7808906040018
 30
0.0
 10
398.3120577820664
 20
-223.6934635204989
 30
0.0
 10
398.8844197488488
 20
-239.279115248778
 30
0.0
 10
398.8844197488488
 20
-251.0928636244316
 30
0.0
 10
398.8844197488488
 20
-262.9065683316676
 30
0.0
 10
400.3153465000159
 20
-300.5514092141666
 30
0.0
 10
400.595806920528
 20
-311.9530150520568
 30
0.0
 10
400.8934508638886
 20
-323.360385121242
 30
0.0
 10
401.7462732511813
 20
-330.0513912734041
 30
0.0
 10
401.7462732511813
 20
-339.3581357188677
 30
0.0
 10
401.7462732511813
 20
-348.6648801643323
 30
0.0
 10
402.3186570521757
 20
-359.2823322036757
 30
0.0
 10
403.1772000023502
 20
-370.5752473468729
 30
0.0
 10
404.0357647867349
 20
-381.8623982587724
 30
0.0
 10
405.6326751982142
 20
-410.984582991724
 30
0.0
 10
406.2050153307882
 20
-421.3445005304893
 30
0.0
 10
406.777420965991
 20
-431.6986756721653
 30
0.0
 10
405.9188561816081
 20
-432.070730601361
 30
0.0
 10
406.777420965991
 20
-450.5754632949684
 30
0.0
 10
407.641706313254
 20
-469.0801959885794
 30
0.0
 10
407.641706313254
 20
-487.0240296753709
 30
0.0
 10
408.4945068663401
 20
-514.3146517477726
 30
0.0
 10
409.358792213603
 20
-541.6110380514765
 30
0.0
 10
411.699812483479
 20
-662.6617293710042
 30
0.0
 10
411.4136096658785
 20
-673.5310171822603
 30
0.0
 10
411.127406848278
 20
-684.4175103505695
 30
0.0
 10
411.9344865667535
 20
-735.1868072026045
 30
0.0
 10
411.9344865667535
 20
-735.1868072026045
 30
0.0
  0
SPLINE
  5
63
330
41
100
AcDbEntity
  8
Layer 1
 62
   156
420
  1785491
370
    18
100
AcDbSpline
210
0.0
220
0.0
230
1.0
 70
     8
 71
     3
 72
    29
 73
    25
 74
     0
 42
0.0000000001
 43
0.0000000001
 12
1.0
 22
0.0
 32
0.0
 13
1.0
 23
0.0
 33
0.0
 40
0.0
 40
0.0
 40
0.0
 40
0.0
 40
1.0
 40
1.0
 40
1.0
 40
2.0
 40
2.0
 40
2.0
 40
3.0
 40
3.0
 40
3.0
 40
4.0
 40
4.0
 40
4.0
 40
5.0
 40
5.0
 40
5.0
 40
6.0
 40
6.0
 40
6.0
 40
7.0
 40
7.0
 40
7.0
 40
8.0
 40
8.0
 40
8.0
 40
8.0
 10
435.3444272550041
 20
-218.5650007341274
 30
0.0
 10
435.3444272550041
 20
-218.5650007341274
 30
0.0
 10
460.3513220231562
 20
-275.8764817666452
 30
0.0
 10
466.6473909946053
 20
-292.1432734932368
 30
0.0
 10
472.9549010918145
 20
-308.3985804256527
 30
0.0
 10
483.0171965214286
 20
-346.7245613064651
 30
0.0
 10
483.5952790510928
 20
-351.1718404261046
 30
0.0
 10
484.1676410178752
 20
-355.6191632141627
 30
0.0
 10
487.31569733781
 20
-381.971132621884
 30
0.0
 10
487.5961359241137
 20
-388.4102811679259
 30
0.0
 10
487.8823387417124
 20
-394.8380104224198
 30
0.0
 10
487.31569733781
 20
-425.419768389349
 30
0.0
 10
486.4571325534271
 20
-438.3897036585367
 30
0.0
 10
485.5985677690423
 20
-451.3596170935125
 30
0.0
 10
479.7031565411817
 20
-508.6710762918228
 30
0.0
 10
478.558432607615
 20
-514.3146517477726
 30
0.0
 10
477.4136650056298
 20
-519.9639477666005
 30
0.0
 10
468.9368825301572
 20
-584.6361338238348
 30
0.0
 10
467.5116763418682
 20
-598.1326447225711
 30
0.0
 10
466.0807495907029
 20
-611.6291556213037
 30
0.0
 10
460.1853383628404
 20
-654.144815618547
 30
0.0
 10
459.8991355452399
 20
-661.608534443496
 30
0.0
 10
459.6129327276394
 20
-669.0894149570813
 30
0.0
 10
453.1966882673205
 20
-723.1097819292809
 30
0.0
 10
453.1966882673205
 20
-723.1097819292809
 30
0.0
  0
SPLINE
  5
64
330
41
100
AcDbEntity
  8
Layer 1
 62
   156
420
  1785491
370
    18
100
AcDbSpline
210
0.0
220
0.0
230
1.0
 70
     8
 71
     3
 72
     8
 73
     4
 74
     0
 42
0.0000000001
 43
0.0000000001
 12
1.0
 22
0.0
 32
0.0
 13
1.0
 23
0.0
 33
0.0
 40
0.0
 40
0.0
 40
0.0
 40
0.0
 40
1.0
 40
1.0
 40
1.0
 40
1.0
 10
263.0837592339094
 20
-173.6625559639797
 30
0.0
 10
262.6544768417189
 20
-174.8416469432359
 30
0.0
 10
261.6299283970202
 20
-177.8408376230736
 30
0.0
 10
261.6299283970202
 20
-179.0828984624113
 30
0.0
  0
SPLINE
  5
65
330
41
100
AcDbEntity
  8
Layer 1
 62
   156
420
  1785491
370
    18
100
AcDbSpline
210
0.0
220
0.0
230
1.0
 70
     8
 71
     3
 72
     8
 73
     4
 74
     0
 42
0.0000000001
 43
0.0000000001
 12
1.0
 22
0.0
 32
0.0
 13
1.0
 23
0.0
 33
0.0
 40
0.0
 40
0.0
 40
0.0
 40
0.0
 40
1.0
 40
1.0
 40
1.0
 40
1.0
 10
260.7713854468448
 20
-161.4481498447349
 30
0.0
 10
259.5579492561101
 20
-163.7376413802867
 30
0.0
 10
257.1253781459664
 20
-167.0974458635637
 30
0.0
 10
255.9806323781922
 20
-169.4556278220753
 30
0.0
  0
SPLINE
  5
66
330
41
100
AcDbEntity
  8
Layer 1
 62
   156
420
  1785491
370
    18
100
AcDbSpline
210
0.0
220
0.0
230
1.0
 70
     8
 71
     3
 72
    11
 73
     7
 74
     0
 42
0.0000000001
 43
0.0000000001
 12
1.0
 22
0.0
 32
0.0
 13
1.0
 23
0.0
 33
0.0
 40
0.0
 40
0.0
 40
0.0
 40
0.0
 40
1.0
 40
1.0
 40
1.0
 40
2.0
 40
2.0
 40
2.0
 40
2.0
 10
269.7289790488339
 20
-129.4125610409146
 30
0.0
 10
269.7289790488339
 20
-134.9073145251859
 30
0.0
 10
268.3094934234232
 20
-141.6384082859167
 30
0.0
 10
264.6635079567559
 20
-146.0170406510142
 30
0.0
 10
262.2996054353653
 20
-148.890335279104
 30
0.0
 10
258.1842718021471
 20
-152.9370003235726
 30
0.0
 10
254.5325439383878
 20
-154.5739983436233
 30
0.0
  0
SPLINE
  5
67
330
41
100
AcDbEntity
  8
Layer 1
 62
   156
420
  1785491
370
    18
100
AcDbSpline
210
0.0
220
0.0
230
1.0
 70
     8
 71
     3
 72
     8
 73
     4
 74
     0
 42
0.0000000001
 43
0.0000000001
 12
1.0
 22
0.0
 32
0.0
 13
1.0
 23
0.0
 33
0.0
 40
0.0
 40
0.0
 40
0.0
 40
0.0
 40
1.0
 40
1.0
 40
1.0
 40
1.0
 10
306.8357813418224
 20
-108.366479205637
 30
0.0
 10
302.3254886936811
 20
-115.8244774677078
 30
0.0
 10
291.5992586228076
 20
-115.2120278923558
 30
0.0
 10
285.6580610577093
 20
-121.754255741258
 30
0.0
  0
SPLINE
  5
68
330
41
100
AcDbEntity
  8
Layer 1
 62
   156
420
  1785491
370
    18
100
AcDbSpline
210
0.0
220
0.0
230
1.0
 70
     8
 71
     3
 72
    11
 73
     7
 74
     0
 42
0.0000000001
 43
0.0000000001
 12
1.0
 22
0.0
 32
0.0
 13
1.0
 23
0.0
 33
0.0
 40
0.0
 40
0.0
 40
0.0
 40
0.0
 40
1.0
 40
1.0
 40
1.0
 40
2.0
 40
2.0
 40
2.0
 40
2.0
 10
269.5515542627636
 20
-129.4125610409146
 30
0.0
 10
271.0511496026811
 20
-129.4125610409146
 30
0.0
 10
274.3937923973244
 20
-128.7314647110215
 30
0.0
 10
275.8991301343312
 20
-128.7314647110215
 30
0.0
 10
279.9744198273993
 20
-128.7314647110215
 30
0.0
 10
283.5059503680804
 20
-124.9366354384638
 30
0.0
 10
285.6523404948302
 20
-121.7313298213248
 30
0.0
  0
SPLINE
  5
69
330
41
100
AcDbEntity
  8
Layer 1
 62
   156
420
  1785491
370
    18
100
AcDbSpline
210
0.0
220
0.0
230
1.0
 70
     8
 71
     3
 72
    11
 73
     7
 74
     0
 42
0.0000000001
 43
0.0000000001
 12
1.0
 22
0.0
 32
0.0
 13
1.0
 23
0.0
 33
0.0
 40
0.0
 40
0.0
 40
0.0
 40
0.0
 40
1.0
 40
1.0
 40
1.0
 40
2.0
 40
2.0
 40
2.0
 40
2.0
 10
306.9101704934528
 20
-108.6068738517897
 30
0.0
 10
309.4858430123968
 20
-105.98541499561
 30
0.0
 10
315.5300762119368
 20
-105.7106969721854
 30
0.0
 10
319.1818040756898
 20
-104.4686361328468
 30
0.0
 10
326.5539502261672
 20
-101.8528978395461
 30
0.0
 10
333.9775814425484
 20
-99.59205278680474
 30
0.0
 10
341.853399136844
 20
-99.59205278680474
 30
0.0
  0
SPLINE
  5
6A
330
41
100
AcDbEntity
  8
Layer 1
 62
   156
420
  1785491
370
    18
100
AcDbSpline
210
0.0
220
0.0
230
1.0
 70
     8
 71
     3
 72
    14
 73
    10
 74
     0
 42
0.0000000001
 43
0.0000000001
 12
1.0
 22
0.0
 32
0.0
 13
1.0
 23
0.0
 33
0.0
 40
0.0
 40
0.0
 40
0.0
 40
0.0
 40
1.0
 40
1.0
 40
1.0
 40
2.0
 40
2.0
 40
2.0
 40
3.0
 40
3.0
 40
3.0
 40
3.0
 10
369.2928650151371
 20
-92.12833396185579
 30
0.0
 10
365.2175753220672
 20
-92.12833396185579
 30
0.0
 10
362.853694634885
 20
-92.78654804023608
 30
0.0
 10
358.7784049418169
 20
-92.78654804023608
 30
0.0
 10
358.7784049418169
 20
-92.78654804023608
 30
0.0
 10
349.5403509193129
 20
-92.78654804023608
 30
0.0
 10
349.5403509193129
 20
-92.78654804023608
 30
0.0
 10
346.8215769915696
 20
-95.72281252840912
 30
0.0
 10
345.4650612262412
 20
-97.6230874461271
 30
0.0
 10
341.882023785447
 20
-99.59205278680474
 30
0.0
  0
SPLINE
  5
6B
330
41
100
AcDbEntity
  8
Layer 1
 62
   156
420
  1785491
370
    18
100
AcDbSpline
210
0.0
220
0.0
230
1.0
 70
     8
 71
     3
 72
    26
 73
    22
 74
     0
 42
0.0000000001
 43
0.0000000001
 12
1.0
 22
0.0
 32
0.0
 13
1.0
 23
0.0
 33
0.0
 40
0.0
 40
0.0
 40
0.0
 40
0.0
 40
1.0
 40
1.0
 40
1.0
 40
2.0
 40
2.0
 40
2.0
 40
3.0
 40
3.0
 40
3.0
 40
4.0
 40
4.0
 40
4.0
 40
5.0
 40
5.0
 40
5.0
 40
6.0
 40
6.0
 40
6.0
 40
7.0
 40
7.0
 40
7.0
 40
7.0
 10
369.1955499435735
 20
-91.99667367881284
 30
0.0
 10
370.128525713797
 20
-92.26571480777784
 30
0.0
 10
371.891419785592
 20
-91.60750072939845
 30
0.0
 10
372.8930641445677
 20
-91.60750072939845
 30
0.0
 10
376.6134824312867
 20
-91.60750072939845
 30
0.0
 10
378.7655931209156
 20
-91.08090326564343
 30
0.0
 10
382.4860114076328
 20
-91.08090326564343
 30
0.0
 10
389.7894453009394
 20
-91.08090326564343
 30
0.0
 10
395.0152013246607
 20
-89.18634891080455
 30
0.0
 10
401.1681907215207
 20
-92.78082747735698
 30
0.0
 10
404.0300442238549
 20
-94.41782549740674
 30
0.0
 10
405.8215629442529
 20
-95.59691647666295
 30
0.0
 10
407.8935420851631
 20
-98.01802462683827
 30
0.0
 10
409.2557784133714
 20
-99.64930208401074
 30
0.0
 10
409.7594499571933
 20
-101.8071333365178
 30
0.0
 10
412.0432209298669
 20
-101.8071333365178
 30
0.0
 10
413.4054572580717
 20
-101.8071333365178
 30
0.0
 10
413.3310462722329
 20
-100.1071654563839
 30
0.0
 10
414.3384330282934
 20
-99.32877588913834
 30
0.0
 10
416.622204000967
 20
-97.49147083150183
 30
0.0
 10
419.3810000346512
 20
-95.70565083977272
 30
0.0
 10
421.103850166297
 20
-93.35323311255888
 30
0.0
  0
SPLINE
  5
6C
330
41
100
AcDbEntity
  8
Layer 1
 62
   156
420
  1785491
370
    18
100
AcDbSpline
210
0.0
220
0.0
230
1.0
 70
     8
 71
     3
 72
    11
 73
     7
 74
     0
 42
0.0000000001
 43
0.0000000001
 12
1.0
 22
0.0
 32
0.0
 13
1.0
 23
0.0
 33
0.0
 40
0.0
 40
0.0
 40
0.0
 40
0.0
 40
1.0
 40
1.0
 40
1.0
 40
2.0
 40
2.0
 40
2.0
 40
2.0
 10
435.6649534498774
 20
-94.48651592036731
 30
0.0
 10
430.7254002437548
 20
-94.48651592036731
 30
0.0
 10
427.2568177289468
 20
-92.80375339728926
 30
0.0
 10
422.3229850857024
 20
-92.80375339728926
 30
0.0
 10
421.8135929790024
 20
-92.80375339728926
 30
0.0
 10
421.4586997384395
 20
-93.26161676966422
 30
0.0
 10
421.0294391804582
 20
-93.3303071926266
 30
0.0
  0
SPLINE
  5
6D
330
41
100
AcDbEntity
  8
Layer 1
 62
   156
420
  1785491
370
    18
100
AcDbSpline
210
0.0
220
0.0
230
1.0
 70
     8
 71
     3
 72
    11
 73
     7
 74
     0
 42
0.0000000001
 43
0.0000000001
 12
1.0
 22
0.0
 32
0.0
 13
1.0
 23
0.0
 33
0.0
 40
0.0
 40
0.0
 40
0.0
 40
0.0
 40
1.0
 40
1.0
 40
1.0
 40
2.0
 40
2.0
 40
2.0
 40
2.0
 10
468.9082360473458
 20
-101.4121961558058
 30
0.0
 10
471.4839304004981
 20
-102.9747831900158
 30
0.0
 10
474.3858278429798
 20
-106.0426642928142
 30
0.0
 10
477.5281636000382
 20
-106.0426642928142
 30
0.0
 10
478.5355066876837
 20
-106.0426642928142
 30
0.0
 10
481.5461821616955
 20
-104.5201648671718
 30
0.0
 10
482.4791579319171
 20
-104.2568879695054
 30
0.0
  0
SPLINE
  5
6E
330
41
100
AcDbEntity
  8
Layer 1
 62
   156
420
  1785491
370
    18
100
AcDbSpline
210
0.0
220
0.0
230
1.0
 70
     8
 71
     3
 72
    11
 73
     7
 74
     0
 42
0.0000000001
 43
0.0000000001
 12
1.0
 22
0.0
 32
0.0
 13
1.0
 23
0.0
 33
0.0
 40
0.0
 40
0.0
 40
0.0
 40
0.0
 40
1.0
 40
1.0
 40
1.0
 40
2.0
 40
2.0
 40
2.0
 40
2.0
 10
458.1419620363231
 20
-109.7802442681677
 30
0.0
 10
459.2924065327679
 20
-109.9748744112931
 30
0.0
 10
463.4764524231578
 20
-105.7736668322686
 30
0.0
 10
464.6211763567226
 20
-105.7736668322686
 30
0.0
 10
467.1281802869144
 20
-105.7736668322686
 30
0.0
 10
468.919677173104
 20
-103.6158355797597
 30
0.0
 10
468.919677173104
 20
-101.3320646070879
 30
0.0
  0
SPLINE
  5
6F
330
41
100
AcDbEntity
  8
Layer 1
 62
   156
420
  1785491
370
    18
100
AcDbSpline
210
0.0
220
0.0
230
1.0
 70
     8
 71
     3
 72
    17
 73
    13
 74
     0
 42
0.0000000001
 43
0.0000000001
 12
1.0
 22
0.0
 32
0.0
 13
1.0
 23
0.0
 33
0.0
 40
0.0
 40
0.0
 40
0.0
 40
0.0
 40
1.0
 40
1.0
 40
1.0
 40
2.0
 40
2.0
 40
2.0
 40
3.0
 40
3.0
 40
3.0
 40
4.0
 40
4.0
 40
4.0
 40
4.0
 10
435.6649534498774
 20
-94.48651592036731
 30
0.0
 10
440.5987860931218
 20
-94.48651592036731
 30
0.0
 10
444.2161905796074
 20
-96.73019928447138
 30
0.0
 10
449.1557437857318
 20
-96.73019928447138
 30
0.0
 10
449.1557437857318
 20
-96.73019928447138
 30
0.0
 10
455.0282727620761
 20
-96.73019928447138
 30
0.0
 10
455.0282727620761
 20
-96.73019928447138
 30
0.0
 10
456.459199513245
 20
-96.73019928447138
 30
0.0
 10
456.6022572536258
 20
-98.29850688156057
 30
0.0
 10
457.3177206292094
 20
-99.35165814065203
 30
0.0
 10
459.7503135735606
 20
-102.6828598095362
 30
0.0
 10
459.1092611838194
 20
-105.7507409123355
 30
0.0
 10
458.1762854135923
 20
-109.8088907509791
 30
0.0
  0
SPLINE
  5
70
330
41
100
AcDbEntity
  8
Layer 1
 62
   156
420
  1785491
370
    18
100
AcDbSpline
210
0.0
220
0.0
230
1.0
 70
     8
 71
     3
 72
    14
 73
    10
 74
     0
 42
0.0000000001
 43
0.0000000001
 12
1.0
 22
0.0
 32
0.0
 13
1.0
 23
0.0
 33
0.0
 40
0.0
 40
0.0
 40
0.0
 40
0.0
 40
1.0
 40
1.0
 40
1.0
 40
2.0
 40
2.0
 40
2.0
 40
3.0
 40
3.0
 40
3.0
 40
3.0
 10
278.2973778672012
 20
-188.8189034658581
 30
0.0
 10
276.5802482984336
 20
-187.5139164348557
 30
0.0
 10
276.1567083033315
 20
-188.3953634707541
 30
0.0
 10
273.4207726869508
 20
-186.3062226412076
 30
0.0
 10
270.6676753819356
 20
-184.2055970174852
 30
0.0
 10
271.4117415719111
 20
-182.3797330856059
 30
0.0
 10
267.8115424424795
 20
-181.5955792870618
 30
0.0
 10
264.1998803530842
 20
-180.8114691569372
 30
0.0
 10
260.8629581213208
 20
-178.8196215647431
 30
0.0
 10
260.8629581213208
 20
-178.8196215647431
 30
0.0
  0
SPLINE
  5
71
330
41
100
AcDbEntity
  8
Layer 1
 62
   156
420
  1785491
370
    18
100
AcDbSpline
210
0.0
220
0.0
230
1.0
 70
     8
 71
     3
 72
    11
 73
     7
 74
     0
 42
0.0000000001
 43
0.0000000001
 12
1.0
 22
0.0
 32
0.0
 13
1.0
 23
0.0
 33
0.0
 40
0.0
 40
0.0
 40
0.0
 40
0.0
 40
1.0
 40
1.0
 40
1.0
 40
2.0
 40
2.0
 40
2.0
 40
2.0
 10
256.0264187154289
 20
-169.4556278220753
 30
0.0
 10
256.0264187154289
 20
-169.4556278220753
 30
0.0
 10
267.8115424424795
 20
-175.2709075012181
 30
0.0
 10
266.9472570952184
 20
-178.0411883290772
 30
0.0
 10
266.088714145043
 20
-180.8057485940581
 30
0.0
 10
260.7713854468448
 20
-178.8253421276222
 30
0.0
 10
260.7713854468448
 20
-178.8253421276222
 30
0.0
  0
SPLINE
  5
72
330
41
100
AcDbEntity
  8
Layer 1
 62
   156
420
  1785491
370
    18
100
AcDbSpline
210
0.0
220
0.0
230
1.0
 70
     8
 71
     3
 72
    11
 73
     7
 74
     0
 42
0.0000000001
 43
0.0000000001
 12
1.0
 22
0.0
 32
0.0
 13
1.0
 23
0.0
 33
0.0
 40
0.0
 40
0.0
 40
0.0
 40
0.0
 40
1.0
 40
1.0
 40
1.0
 40
2.0
 40
2.0
 40
2.0
 40
2.0
 10
254.4466918267935
 20
-154.4766614378495
 30
0.0
 10
254.4466918267935
 20
-154.4766614378495
 30
0.0
 10
264.1998803530842
 20
-163.7605236318004
 30
0.0
 10
262.7689536019161
 20
-166.3762619251029
 30
0.0
 10
261.343747413629
 20
-168.9977207812817
 30
0.0
 10
255.9005008294744
 20
-169.5185976821576
 30
0.0
 10
255.9005008294744
 20
-169.5185976821576
 30
0.0
  0
SPLINE
  5
73
330
41
100
AcDbEntity
  8
Layer 1
 62
   156
420
  1785491
370
    18
100
AcDbSpline
210
0.0
220
0.0
230
1.0
 70
     8
 71
     3
 72
     8
 73
     4
 74
     0
 42
0.0000000001
 43
0.0000000001
 12
1.0
 22
0.0
 32
0.0
 13
1.0
 23
0.0
 33
0.0
 40
0.0
 40
0.0
 40
0.0
 40
0.0
 40
1.0
 40
1.0
 40
1.0
 40
1.0
 10
254.5325439383878
 20
-154.4766614378495
 30
0.0
 10
254.5325439383878
 20
-154.4766614378495
 30
0.0
 10
274.571239017605
 20
-151.4087803350531
 30
0.0
 10
269.82055172331
 20
-129.5041337153889
 30
0.0
  0
SPLINE
  5
74
330
41
100
AcDbEntity
  8
Layer 1
 62
   156
420
  1785491
370
    18
100
AcDbSpline
210
0.0
220
0.0
230
1.0
 70
     8
 71
     3
 72
     8
 73
     4
 74
     0
 42
0.0000000001
 43
0.0000000001
 12
1.0
 22
0.0
 32
0.0
 13
1.0
 23
0.0
 33
0.0
 40
0.0
 40
0.0
 40
0.0
 40
0.0
 40
1.0
 40
1.0
 40
1.0
 40
1.0
 10
269.9121462319936
 20
-129.5041337153889
 30
0.0
 10
269.9121462319936
 20
-129.5041337153889
 30
0.0
 10
304.9355064241026
 20
-136.0405973329953
 30
0.0
 10
306.9101704934528
 20
-108.4466107543549
 30
0.0
  0
SPLINE
  5
75
330
41
100
AcDbEntity
  8
Layer 1
 62
   156
420
  1785491
370
    18
100
AcDbSpline
210
0.0
220
0.0
230
1.0
 70
     8
 71
     3
 72
     8
 73
     4
 74
     0
 42
0.0000000001
 43
0.0000000001
 12
1.0
 22
0.0
 32
0.0
 13
1.0
 23
0.0
 33
0.0
 40
0.0
 40
0.0
 40
0.0
 40
0.0
 40
1.0
 40
1.0
 40
1.0
 40
1.0
 10
306.9903020421716
 20
-108.5210217401936
 30
0.0
 10
306.9903020421716
 20
-108.5210217401936
 30
0.0
 10
357.1872150932122
 20
-119.584939694575
 30
0.0
 10
367.4555599575015
 20
-92.55187395695975
 30
0.0
  0
SPLINE
  5
76
330
41
100
AcDbEntity
  8
Layer 1
 62
   156
420
  1785491
370
    18
100
AcDbSpline
210
0.0
220
0.0
230
1.0
 70
     8
 71
     3
 72
     8
 73
     4
 74
     0
 42
0.0000000001
 43
0.0000000001
 12
1.0
 22
0.0
 32
0.0
 13
1.0
 23
0.0
 33
0.0
 40
0.0
 40
0.0
 40
0.0
 40
0.0
 40
1.0
 40
1.0
 40
1.0
 40
1.0
 10
367.3754284087845
 20
-92.31719987368433
 30
0.0
 10
367.3754284087845
 20
-92.31719987368433
 30
0.0
 10
389.4861026289109
 20
-123.4427388272143
 30
0.0
 10
435.5275726039545
 20
-94.62389676629027
 30
0.0
  0
SPLINE
  5
77
330
41
100
AcDbEntity
  8
Layer 1
 62
   156
420
  1785491
370
    18
100
AcDbSpline
210
0.0
220
0.0
230
1.0
 70
     8
 71
     3
 72
     8
 73
     4
 74
     0
 42
0.0000000001
 43
0.0000000001
 12
1.0
 22
0.0
 32
0.0
 13
1.0
 23
0.0
 33
0.0
 40
0.0
 40
0.0
 40
0.0
 40
0.0
 40
1.0
 40
1.0
 40
1.0
 40
1.0
 10
435.61918894685
 20
-94.5322804233956
 30
0.0
 10
435.61918894685
 20
-94.5322804233956
 30
0.0
 10
452.2579919342188
 20
-122.1720751734838
 30
0.0
 10
482.5192455404867
 20
-104.2568879695054
 30
0.0
  0
SPLINE
  5
78
330
41
100
AcDbEntity
  8
Layer 1
 62
   156
420
  1785491
370
    18
100
AcDbSpline
210
0.0
220
0.0
230
1.0
 70
     8
 71
     3
 72
     8
 73
     4
 74
     0
 42
0.0000000001
 43
0.0000000001
 12
1.0
 22
0.0
 32
0.0
 13
1.0
 23
0.0
 33
0.0
 40
0.0
 40
0.0
 40
0.0
 40
0.0
 40
1.0
 40
1.0
 40
1.0
 40
1.0
 10
534.2615184344759
 20
-153.120145672523
 30
0.0
 10
526.0766156710633
 20
-151.5518817438533
 30
0.0
 10
518.8533351606857
 20
-149.726017811975
 30
0.0
 10
522.8599125965866
 20
-140.001410265867
 30
0.0
  0
SPLINE
  5
79
330
41
100
AcDbEntity
  8
Layer 1
 62
   156
420
  1785491
370
    18
100
AcDbSpline
210
0.0
220
0.0
230
1.0
 70
     8
 71
     3
 72
     8
 73
     4
 74
     0
 42
0.0000000001
 43
0.0000000001
 12
1.0
 22
0.0
 32
0.0
 13
1.0
 23
0.0
 33
0.0
 40
0.0
 40
0.0
 40
0.0
 40
0.0
 40
1.0
 40
1.0
 40
1.0
 40
1.0
 10
513.2269213933741
 20
-118.6462870298919
 30
0.0
 10
513.2269213933741
 20
-118.6462870298919
 30
0.0
 10
501.470422314922
 20
-141.901685183585
 30
0.0
 10
528.2459317177472
 20
-137.15099788929
 30
0.0
  0
SPLINE
  5
7A
330
41
100
AcDbEntity
  8
Layer 1
 62
   156
420
  1785491
370
    18
100
AcDbSpline
210
0.0
220
0.0
230
1.0
 70
     8
 71
     3
 72
     8
 73
     4
 74
     0
 42
0.0000000001
 43
0.0000000001
 12
1.0
 22
0.0
 32
0.0
 13
1.0
 23
0.0
 33
0.0
 40
0.0
 40
0.0
 40
0.0
 40
0.0
 40
1.0
 40
1.0
 40
1.0
 40
1.0
 10
482.4734373690389
 20
-104.2568879695054
 30
0.0
 10
482.4734373690389
 20
-104.2568879695054
 30
0.0
 10
484.8258987646732
 20
-129.9563201933051
 30
0.0
 10
513.1868337848045
 20
-118.6520075927701
 30
0.0
  0
SPLINE
  5
7B
330
41
100
AcDbEntity
  8
Layer 1
 62
   156
420
  1785491
370
    18
100
AcDbSpline
210
0.0
220
0.0
230
1.0
 70
     8
 71
     3
 72
    77
 73
    73
 74
     0
 42
0.0000000001
 43
0.0000000001
 12
1.0
 22
0.0
 32
0.0
 13
1.0
 23
0.0
 33
0.0
 40
0.0
 40
0.0
 40
0.0
 40
0.0
 40
1.0
 40
1.0
 40
1.0
 40
2.0
 40
2.0
 40
2.0
 40
3.0
 40
3.0
 40
3.0
 40
4.0
 40
4.0
 40
4.0
 40
5.0
 40
5.0
 40
5.0
 40
6.0
 40
6.0
 40
6.0
 40
7.0
 40
7.0
 40
7.0
 40
8.0
 40
8.0
 40
8.0
 40
9.0
 40
9.0
 40
9.0
 40
10.0
 40
10.0
 40
10.0
 40
11.0
 40
11.0
 40
11.0
 40
12.0
 40
12.0
 40
12.0
 40
13.0
 40
13.0
 40
13.0
 40
14.0
 40
14.0
 40
14.0
 40
15.0
 40
15.0
 40
15.0
 40
16.0
 40
16.0
 40
16.0
 40
17.0
 40
17.0
 40
17.0
 40
18.0
 40
18.0
 40
18.0
 40
19.0
 40
19.0
 40
19.0
 40
20.0
 40
20.0
 40
20.0
 40
21.0
 40
21.0
 40
21.0
 40
22.0
 40
22.0
 40
22.0
 40
23.0
 40
23.0
 40
23.0
 40
24.0
 40
24.0
 40
24.0
 40
24.0
 10
534.3073266059237
 20
-153.0801017323738
 30
0.0
 10
534.3073266059237
 20
-153.0801017323738
 30
0.0
 10
536.5395688442695
 20
-151.8380408930352
 30
0.0
 10
534.2500773087177
 20
-149.336801194142
 30
0.0
 10
531.9605857731694
 20
-146.8297972639511
 30
0.0
 10
531.9605857731694
 20
-147.6139510624962
 30
0.0
 10
529.9572970552181
 20
-145.7766460048597
 30
0.0
 10
527.9540083372685
 20
-143.9450615101023
 30
0.0
 10
529.8371215663483
 20
-144.7292153086473
 30
0.0
 10
527.6678055196662
 20
-143.4241846092264
 30
0.0
 10
525.4985331414027
 20
-142.1191975782249
 30
0.0
 10
524.9204506117421
 20
-143.6875051753141
 30
0.0
 10
524.3480886449561
 20
-142.645795041979
 30
0.0
 10
523.7757266781755
 20
-141.592600114469
 30
0.0
 10
524.6342477941398
 20
-140.1330705489108
 30
0.0
 10
525.779015396125
 20
-140.1330705489108
 30
0.0
 10
526.9294598925699
 20
-140.1330705489108
 30
0.0
 10
528.5263703040509
 20
-140.8084463159248
 30
0.0
 10
529.9572970552181
 20
-141.3350437796807
 30
0.0
 10
529.9572970552181
 20
-141.3350437796807
 30
0.0
 10
530.8158618395992
 20
-140.1330705489108
 30
0.0
 10
530.8158618395992
 20
-140.1330705489108
 30
0.0
 10
530.8158618395992
 20
-140.1330705489108
 30
0.0
 10
526.3513773629074
 20
-134.6383170646386
 30
0.0
 10
526.3513773629074
 20
-134.6383170646386
 30
0.0
 10
526.3513773629074
 20
-134.6383170646386
 30
0.0
 10
524.6342477941398
 20
-135.685747760851
 30
0.0
 10
524.6342477941398
 20
-135.685747760851
 30
0.0
 10
524.6342477941398
 20
-135.685747760851
 30
0.0
 10
522.6366796390685
 20
-137.4085978924986
 30
0.0
 10
520.6219497953607
 20
-133.3275658023404
 30
0.0
 10
518.6243816402894
 20
-129.2580185063571
 30
0.0
 10
518.3381788226907
 20
-126.8998365478456
 30
0.0
 10
518.3381788226907
 20
-126.8998365478456
 30
0.0
 10
518.3381788226907
 20
-126.8998365478456
 30
0.0
 10
516.1631858815454
 20
-126.11572641772
 30
0.0
 10
515.3046210971625
 20
-126.6422802130564
 30
0.0
 10
514.4460563127795
 20
-127.1631571139333
 30
0.0
 10
512.1565647772277
 20
-126.8998365478456
 30
0.0
 10
512.1565647772277
 20
-126.8998365478456
 30
0.0
 10
512.1565647772277
 20
-126.8998365478456
 30
0.0
 10
512.1565647772277
 20
-123.6087224875291
 30
0.0
 10
513.587491528393
 20
-123.6087224875291
 30
0.0
 10
515.0184182795601
 20
-123.6087224875291
 30
0.0
 10
515.5965444776411
 20
-123.0821250237741
 30
0.0
 10
515.5965444776411
 20
-123.0821250237741
 30
0.0
 10
515.5965444776411
 20
-123.0821250237741
 30
0.0
 10
514.6120399730917
 20
-118.1139690032587
 30
0.0
 10
511.870405628044
 20
-118.1139690032587
 30
0.0
 10
509.1287276145777
 20
-118.1139690032587
 30
0.0
 10
501.3902907662032
 20
-116.3911188716111
 30
0.0
 10
501.3902907662032
 20
-116.3911188716111
 30
0.0
 10
501.3902907662032
 20
-116.3911188716111
 30
0.0
 10
501.3902907662032
 20
-115.0861318406096
 30
0.0
 10
501.3902907662032
 20
-115.0861318406096
 30
0.0
 10
501.3902907662032
 20
-115.0861318406096
 30
0.0
 10
499.7933803547221
 20
-112.9912704481858
 30
0.0
 10
499.7933803547221
 20
-112.9912704481858
 30
0.0
 10
499.7933803547221
 20
-112.9912704481858
 30
0.0
 10
500.3714628843827
 20
-113.6266022750497
 30
0.0
 10
498.0819713488345
 20
-115.3436881753996
 30
0.0
 10
495.7867592504026
 20
-117.0722588699246
 30
0.0
 10
496.0729620680049
 20
-116.6544394376988
 30
0.0
 10
495.5006001012207
 20
-114.0387011443972
 30
0.0
 10
494.9282381344383
 20
-111.4229628510966
 30
0.0
 10
496.8170282579813
 20
-113.1457693143229
 30
0.0
 10
492.9249057480702
 20
-110.6388090525525
 30
0.0
 10
489.0385474694558
 20
-108.1318051223607
 30
0.0
 10
487.8880593045924
 20
-107.0843744261483
 30
0.0
 10
487.0294945202077
 20
-105.7793873951459
 30
0.0
 10
486.1709297358248
 20
-104.4686361328468
 30
0.0
 10
482.4791579319171
 20
-104.2110797980567
 30
0.0
 10
482.4791579319171
 20
-104.2110797980567
 30
0.0
  0
SPLINE
  5
7C
330
41
100
AcDbEntity
  8
Layer 1
 62
   156
420
  1785491
370
    18
100
AcDbSpline
210
0.0
220
0.0
230
1.0
 70
     8
 71
     3
 72
    74
 73
    70
 74
     0
 42
0.0000000001
 43
0.0000000001
 12
1.0
 22
0.0
 32
0.0
 13
1.0
 23
0.0
 33
0.0
 40
0.0
 40
0.0
 40
0.0
 40
0.0
 40
1.0
 40
1.0
 40
1.0
 40
2.0
 40
2.0
 40
2.0
 40
3.0
 40
3.0
 40
3.0
 40
4.0
 40
4.0
 40
4.0
 40
5.0
 40
5.0
 40
5.0
 40
6.0
 40
6.0
 40
6.0
 40
7.0
 40
7.0
 40
7.0
 40
8.0
 40
8.0
 40
8.0
 40
9.0
 40
9.0
 40
9.0
 40
10.0
 40
10.0
 40
10.0
 40
11.0
 40
11.0
 40
11.0
 40
12.0
 40
12.0
 40
12.0
 40
13.0
 40
13.0
 40
13.0
 40
14.0
 40
14.0
 40
14.0
 40
15.0
 40
15.0
 40
15.0
 40
16.0
 40
16.0
 40
16.0
 40
17.0
 40
17.0
 40
17.0
 40
18.0
 40
18.0
 40
18.0
 40
19.0
 40
19.0
 40
19.0
 40
20.0
 40
20.0
 40
20.0
 40
21.0
 40
21.0
 40
21.0
 40
22.0
 40
22.0
 40
22.0
 40
23.0
 40
23.0
 40
23.0
 40
23.0
 10
432.064754320445
 20
-202.9850695687264
 30
0.0
 10
432.064754320445
 20
-202.9850695687264
 30
0.0
 10
451.4280299642269
 20
-195.6129670866712
 30
0.0
 10
453.4313623505968
 20
-195.6129670866712
 30
0.0
 10
455.4346510685464
 20
-195.6129670866712
 30
0.0
 10
453.551537839463
 20
-197.1812310153409
 30
0.0
 10
456.2932158529293
 20
-195.3496465205844
 30
0.0
 10
459.0405707608552
 20
-193.5180620258279
 30
0.0
 10
456.0070130353306
 20
-192.9972287933697
 30
0.0
 10
461.0381389159265
 20
-191.6864775310714
 30
0.0
 10
466.0750290278229
 20
-190.375769937189
 30
0.0
 10
463.785537492271
 20
-189.3340598038558
 30
0.0
 10
467.7978354910501
 20
-189.8548930363131
 30
0.0
 10
471.8044565953696
 20
-190.375769937189
 30
0.0
 10
467.7978354910501
 20
-189.8548930363131
 30
0.0
 10
467.7978354910501
 20
-189.8548930363131
 30
0.0
 10
467.7978354910501
 20
-189.8548930363131
 30
0.0
 10
470.3735298442025
 20
-190.7993099322939
 30
0.0
 10
472.0963363074316
 20
-189.3340598038558
 30
0.0
 10
473.8077453133192
 20
-187.8744865698773
 30
0.0
 10
481.7064452591312
 20
-186.0429020751208
 30
0.0
 10
481.7064452591312
 20
-186.0429020751208
 30
0.0
 10
481.7064452591312
 20
-186.0429020751208
 30
0.0
 10
481.5919903331433
 20
-186.6725133391083
 30
0.0
 10
484.4538438354757
 20
-187.8744865698773
 30
0.0
 10
487.3099767749318
 20
-189.0707392377681
 30
0.0
 10
487.7220756442766
 20
-189.7060710646347
 30
0.0
 10
490.4637099893262
 20
-187.8744865698773
 30
0.0
 10
493.2111085656707
 20
-186.0429020751208
 30
0.0
 10
495.6207755900887
 20
-184.4746381464502
 30
0.0
 10
498.6543769840355
 20
-183.163886884151
 30
0.0
 10
501.6764935838055
 20
-181.8531792902704
 30
0.0
 10
509.8613526787958
 20
-179.0828984624113
 30
0.0
 10
511.8646850651658
 20
-178.8253421276222
 30
0.0
 10
513.8736943459935
 20
-178.5677421244127
 30
0.0
 10
515.1443579997267
 20
-174.3780193395642
 30
0.0
 10
518.1721951623749
 20
-173.59386554102
 30
0.0
 10
521.2057528878995
 20
-172.809711742475
 30
0.0
 10
520.6276703582389
 20
-171.8652948464942
 30
0.0
 10
520.6276703582389
 20
-171.8652948464942
 30
0.0
 10
520.6276703582389
 20
-171.8652948464942
 30
0.0
 10
522.3447999270065
 20
-171.2414041453858
 30
0.0
 10
522.3447999270065
 20
-173.33630920623
 30
0.0
 10
522.3447999270065
 20
-175.4311705986547
 30
0.0
 10
523.209041605849
 20
-178.8253421276222
 30
0.0
 10
523.7757266781755
 20
-176.999478195743
 30
0.0
 10
524.3480886449561
 20
-175.1678937009874
 30
0.0
 10
525.2066534293408
 20
-174.2291973678839
 30
0.0
 10
525.7847359590032
 20
-172.6608897707956
 30
0.0
 10
526.3513773629074
 20
-171.0868616108291
 30
0.0
 10
526.6375801805079
 20
-167.4236926213143
 30
0.0
 10
526.6375801805079
 20
-167.4236926213143
 30
0.0
 10
526.6375801805079
 20
-167.4236926213143
 30
0.0
 10
533.79793449922
 20
-163.3484247624538
 30
0.0
 10
534.8224392755001
 20
-163.8750222262088
 30
0.0
 10
535.8469877201987
 20
-164.3958554586652
 30
0.0
 10
536.2533660266672
 20
-161.928939137043
 30
0.0
 10
535.4005654735829
 20
-158.3745045106398
 30
0.0
 10
535.4005654735829
 20
-158.3745045106398
 30
0.0
 10
534.2500773087177
 20
-152.9942496207768
 30
0.0
 10
534.2500773087177
 20
-152.9942496207768
 30
0.0
 10
534.2500773087177
 20
-152.9942496207768
 30
0.0
 10
439.351004690905
 20
-182.6373330888146
 30
0.0
 10
435.6363506354828
 20
-193.5180620258279
 30
0.0
 10
431.9044912230074
 20
-204.393114068379
 30
0.0
 10
431.0516470015027
 20
-202.3039732388334
 30
0.0
 10
432.1906503721912
 20
-207.6899923599931
 30
0.0
 10
433.3411385370546
 20
-213.070247249856
 30
0.0
 10
435.4417204923575
 20
-218.5936472169396
 30
0.0
 10
435.4417204923575
 20
-218.5936472169396
 30
0.0
  0
SPLINE
  5
7D
330
41
100
AcDbEntity
  8
Layer 1
 62
   156
420
  1785491
370
    18
100
AcDbSpline
210
0.0
220
0.0
230
1.0
 70
     8
 71
     3
 72
    23
 73
    19
 74
     0
 42
0.0000000001
 43
0.0000000001
 12
1.0
 22
0.0
 32
0.0
 13
1.0
 23
0.0
 33
0.0
 40
0.0
 40
0.0
 40
0.0
 40
0.0
 40
1.0
 40
1.0
 40
1.0
 40
2.0
 40
2.0
 40
2.0
 40
3.0
 40
3.0
 40
3.0
 40
4.0
 40
4.0
 40
4.0
 40
5.0
 40
5.0
 40
5.0
 40
6.0
 40
6.0
 40
6.0
 40
6.0
 10
528.2459317177472
 20
-137.1052333862617
 30
0.0
 10
528.2459317177472
 20
-137.1052333862617
 30
0.0
 10
439.3567689222036
 20
-183.0150649124735
 30
0.0
 10
435.9167892217865
 20
-187.8744865698773
 30
0.0
 10
432.4768531897935
 20
-192.7339518957015
 30
0.0
 10
429.9012025050579
 20
-190.3814905000681
 30
0.0
 10
427.7318864583758
 20
-202.5672501365016
 30
0.0
 10
426.0033594322704
 20
-212.2689317626764
 30
0.0
 10
428.7564349030745
 20
-210.151188118738
 30
0.0
 10
432.768776570274
 20
-219.8757519964274
 30
0.0
 10
436.7753540061731
 20
-229.6003158741159
 30
0.0
 10
437.5136996332694
 20
-232.3591555762177
 30
0.0
 10
440.0951145493
 20
-237.3330758280317
 30
0.0
 10
442.6707652340319
 20
-242.3069524114253
 30
0.0
 10
445.9332764799565
 20
-250.1999317943573
 30
0.0
 10
447.8221102719181
 20
-252.8099495247807
 30
0.0
 10
449.7109440638797
 20
-255.4314083809613
 30
0.0
 10
453.8949462858491
 20
-261.7103156637768
 30
0.0
 10
453.8949462858491
 20
-261.7103156637768
 30
0.0
  0
SPLINE
  5
7E
330
41
100
AcDbEntity
  8
Layer 1
 62
   156
420
  1785491
370
    18
100
AcDbSpline
210
0.0
220
0.0
230
1.0
 70
     8
 71
     3
 72
    41
 73
    37
 74
     0
 42
0.0000000001
 43
0.0000000001
 12
1.0
 22
0.0
 32
0.0
 13
1.0
 23
0.0
 33
0.0
 40
0.0
 40
0.0
 40
0.0
 40
0.0
 40
1.0
 40
1.0
 40
1.0
 40
2.0
 40
2.0
 40
2.0
 40
3.0
 40
3.0
 40
3.0
 40
4.0
 40
4.0
 40
4.0
 40
5.0
 40
5.0
 40
5.0
 40
6.0
 40
6.0
 40
6.0
 40
7.0
 40
7.0
 40
7.0
 40
8.0
 40
8.0
 40
8.0
 40
9.0
 40
9.0
 40
9.0
 40
10.0
 40
10.0
 40
10.0
 40
11.0
 40
11.0
 40
11.0
 40
12.0
 40
12.0
 40
12.0
 40
12.0
 10
513.3700228021735
 20
-118.5547143554168
 30
0.0
 10
513.3700228021735
 20
-118.5547143554168
 30
0.0
 10
427.9665605416521
 20
-178.9741640993007
 30
0.0
 10
423.7253090224767
 20
-195.3496465205844
 30
0.0
 10
420.1193893301679
 20
-209.2582562886628
 30
0.0
 10
420.28537299048
 20
-204.6564346344676
 30
0.0
 10
424.5838738068596
 20
-217.2542931402468
 30
0.0
 10
428.876654060361
 20
-229.8579158773236
 30
0.0
 10
438.0746204742936
 20
-256.370104714063
 30
0.0
 10
443.678151990096
 20
-270.3817282823748
 30
0.0
 10
449.2873604003562
 20
-284.4048366448606
 30
0.0
 10
448.3944722387023
 20
-282.2011972209084
 30
0.0
 10
454.862289101764
 20
-302.1196731428372
 30
0.0
 10
461.330062296407
 20
-322.0439132960646
 30
0.0
 10
461.9081448260677
 20
-325.5983479224669
 30
0.0
 10
463.3333510143566
 20
-336.9999537603571
 30
0.0
 10
464.7699983284019
 20
-348.4016032666641
 30
0.0
 10
465.5083876239187
 20
-364.405074427169
 30
0.0
 10
465.7945467731006
 20
-371.0960805793311
 30
0.0
 10
466.0807495907029
 20
-377.7928072943723
 30
0.0
 10
465.9147659303871
 20
-399.6974320798254
 30
0.0
 10
465.0504805831242
 20
-406.6517369638641
 30
0.0
 10
464.1919157987413
 20
-413.6060418479046
 30
0.0
 10
462.4747862299737
 20
-443.5181446106981
 30
0.0
 10
461.6162651140094
 20
-455.4349067865842
 30
0.0
 10
460.7577003296228
 20
-467.3573895253521
 30
0.0
 10
456.2932158529293
 20
-514.9957917460852
 30
0.0
 10
455.4403716314246
 20
-532.8251268384702
 30
0.0
 10
454.5703657212835
 20
-550.6545055992701
 30
0.0
 10
450.6839637742505
 20
-582.1348941249435
 30
0.0
 10
447.5416280171939
 20
-614.6627133468301
 30
0.0
 10
444.3821742399232
 20
-647.1848120058366
 30
0.0
 10
441.2398384828666
 20
-702.2468454429527
 30
0.0
 10
440.661755953206
 20
-708.1594620278702
 30
0.0
 10
440.0951145493
 20
-714.0605938186072
 30
0.0
 10
438.9675523043697
 20
-734.2481108695029
 30
0.0
 10
438.9675523043697
 20
-734.2481108695029
 30
0.0
  0
SPLINE
  5
7F
330
41
100
AcDbEntity
  8
Layer 1
 62
   156
420
  1785491
370
    18
100
AcDbSpline
210
0.0
220
0.0
230
1.0
 70
     8
 71
     3
 72
    38
 73
    34
 74
     0
 42
0.0000000001
 43
0.0000000001
 12
1.0
 22
0.0
 32
0.0
 13
1.0
 23
0.0
 33
0.0
 40
0.0
 40
0.0
 40
0.0
 40
0.0
 40
1.0
 40
1.0
 40
1.0
 40
2.0
 40
2.0
 40
2.0
 40
3.0
 40
3.0
 40
3.0
 40
4.0
 40
4.0
 40
4.0
 40
5.0
 40
5.0
 40
5.0
 40
6.0
 40
6.0
 40
6.0
 40
7.0
 40
7.0
 40
7.0
 40
8.0
 40
8.0
 40
8.0
 40
9.0
 40
9.0
 40
9.0
 40
10.0
 40
10.0
 40
10.0
 40
11.0
 40
11.0
 40
11.0
 40
11.0
 10
482.5707306063941
 20
-104.2053592351785
 30
0.0
 10
482.5707306063941
 20
-104.2053592351785
 30
0.0
 10
417.2575358278336
 20
-183.9480406826951
 30
0.0
 10
415.8208448453661
 20
-192.4706313296147
 30
0.0
 10
414.3899180942008
 20
-200.998986207831
 30
0.0
 10
413.8175561274165
 20
-215.9493061092444
 30
0.0
 10
416.3989710434489
 20
-224.7351736538321
 30
0.0
 10
418.9746217281809
 20
-233.5210848668376
 30
0.0
 10
422.4145577601757
 20
-244.9226907047268
 30
0.0
 10
426.581441961931
 20
-268.1437654811489
 30
0.0
 10
430.765444183904
 20
-291.3533991318136
 30
0.0
 10
431.6182884054087
 20
-306.7215384654528
 30
0.0
 10
432.768776570274
 20
-317.8598674056739
 30
0.0
 10
433.913500503837
 20
-328.9982400143144
 30
0.0
 10
434.7720652882235
 20
-359.0190553060092
 30
0.0
 10
434.7720652882235
 20
-363.6152000657457
 30
0.0
 10
434.7720652882235
 20
-368.2227859512404
 30
0.0
 10
433.913500503837
 20
-421.6020568652784
 30
0.0
 10
433.913500503837
 20
-421.6020568652784
 30
0.0
 10
433.913500503837
 20
-421.6020568652784
 30
0.0
 10
432.768776570274
 20
-460.4087833699778
 30
0.0
 10
432.768776570274
 20
-465.0049281297179
 30
0.0
 10
432.768776570274
 20
-469.6067934523326
 30
0.0
 10
431.9044912230074
 20
-508.6710762918228
 30
0.0
 10
431.9044912230074
 20
-508.6710762918228
 30
0.0
 10
431.9044912230074
 20
-508.6710762918228
 30
0.0
 10
430.8799427783124
 20
-538.2111459596272
 30
0.0
 10
430.3075808115282
 20
-558.3929424476446
 30
0.0
 10
429.7352188447458
 20
-578.5804594985402
 30
0.0
 10
429.1685337724211
 20
-620.3005682399016
 30
0.0
 10
428.5904512427605
 20
-631.9711715383364
 30
0.0
 10
428.0238098388545
 20
-643.6360979423098
 30
0.0
 10
425.5626140801105
 20
-732.1818522914709
 30
0.0
 10
425.8488168977128
 20
-735.0608674824398
 30
0.0
  0
SPLINE
  5
80
330
41
100
AcDbEntity
  8
Layer 1
 62
   156
420
  1785491
370
    18
100
AcDbSpline
210
0.0
220
0.0
230
1.0
 70
     8
 71
     3
 72
    38
 73
    34
 74
     0
 42
0.0000000001
 43
0.0000000001
 12
1.0
 22
0.0
 32
0.0
 13
1.0
 23
0.0
 33
0.0
 40
0.0
 40
0.0
 40
0.0
 40
0.0
 40
1.0
 40
1.0
 40
1.0
 40
2.0
 40
2.0
 40
2.0
 40
3.0
 40
3.0
 40
3.0
 40
4.0
 40
4.0
 40
4.0
 40
5.0
 40
5.0
 40
5.0
 40
6.0
 40
6.0
 40
6.0
 40
7.0
 40
7.0
 40
7.0
 40
8.0
 40
8.0
 40
8.0
 40
9.0
 40
9.0
 40
9.0
 40
10.0
 40
10.0
 40
10.0
 40
11.0
 40
11.0
 40
11.0
 40
11.0
 10
435.6363506354828
 20
-94.37773788883806
 30
0.0
 10
435.6363506354828
 20
-94.37773788883806
 30
0.0
 10
408.7864302468188
 20
-186.7183215105542
 30
0.0
 10
407.9278654624377
 20
-191.6864775310714
 30
0.0
 10
407.0635801151711
 20
-196.6603977828827
 30
0.0
 10
404.4936499933192
 20
-209.676119389308
 30
0.0
 10
405.3464942148239
 20
-221.5928815651951
 30
0.0
 10
406.2050153307882
 20
-233.5210848668376
 30
0.0
 10
409.0726330644193
 20
-262.9065683316676
 30
0.0
 10
409.0726330644193
 20
-262.9065683316676
 30
0.0
 10
409.0726330644193
 20
-262.9065683316676
 30
0.0
 10
408.5460356006661
 20
-261.8534170725761
 30
0.0
 10
410.2688857323119
 20
-279.9517932939252
 30
0.0
 10
411.9859716326609
 20
-298.0444052839757
 30
0.0
 10
412.9589913430336
 20
-316.0340034737965
 30
0.0
 10
413.5371175411165
 20
-327.4356529801025
 30
0.0
 10
414.109479507897
 20
-338.8315382551127
 30
0.0
 10
416.3989710434489
 20
-361.634793599309
 30
0.0
 10
416.3989710434489
 20
-372.1377907126644
 30
0.0
 10
416.3989710434489
 20
-382.6465083888988
 30
0.0
 10
416.1070476629684
 20
-431.8017113066071
 30
0.0
 10
416.1070476629684
 20
-434.5777126973444
 30
0.0
 10
416.1070476629684
 20
-437.3422511281151
 30
0.0
 10
416.685130192629
 20
-490.5784643017723
 30
0.0
 10
416.685130192629
 20
-496.4853166553912
 30
0.0
 10
416.685130192629
 20
-502.3921690090083
 30
0.0
 10
417.5436949770155
 20
-563.6244190342495
 30
0.0
 10
417.5436949770155
 20
-571.105299547833
 30
0.0
 10
417.5436949770155
 20
-578.5804594985402
 30
0.0
 10
417.824177231736
 20
-635.8919405310589
 30
0.0
 10
417.824177231736
 20
-635.8919405310589
 30
0.0
 10
417.824177231736
 20
-635.8919405310589
 30
0.0
 10
417.4406811767822
 20
-735.3299086114039
 30
0.0
 10
417.4406811767822
 20
-735.3299086114039
 30
0.0
  0
SPLINE
  5
81
330
41
100
AcDbEntity
  8
Layer 1
 62
   156
420
  1785491
370
    18
100
AcDbSpline
210
0.0
220
0.0
230
1.0
 70
     8
 71
     3
 72
    35
 73
    31
 74
     0
 42
0.0000000001
 43
0.0000000001
 12
1.0
 22
0.0
 32
0.0
 13
1.0
 23
0.0
 33
0.0
 40
0.0
 40
0.0
 40
0.0
 40
0.0
 40
1.0
 40
1.0
 40
1.0
 40
2.0
 40
2.0
 40
2.0
 40
3.0
 40
3.0
 40
3.0
 40
4.0
 40
4.0
 40
4.0
 40
5.0
 40
5.0
 40
5.0
 40
6.0
 40
6.0
 40
6.0
 40
7.0
 40
7.0
 40
7.0
 40
8.0
 40
8.0
 40
8.0
 40
9.0
 40
9.0
 40
9.0
 40
10.0
 40
10.0
 40
10.0
 40
10.0
 10
306.8472224675807
 20
-108.3951256884466
 30
0.0
 10
306.8472224675807
 20
-108.3951256884466
 30
0.0
 10
365.5724467284199
 20
-173.0672680772632
 30
0.0
 10
374.3297114586148
 20
-182.6430536516928
 30
0.0
 10
383.0812774601382
 20
-192.2073544319464
 30
0.0
 10
388.4100472840964
 20
-197.5990941159853
 30
0.0
 10
390.1271550186539
 20
-208.4741461585381
 30
0.0
 10
391.8442627532131
 20
-219.3491545326724
 30
0.0
 10
393.2694689415021
 20
-204.2901002681483
 30
0.0
 10
391.2719007864307
 20
-272.2133127771322
 30
0.0
 10
389.2628696713928
 20
-340.1365689545346
 30
0.0
 10
388.9766886880006
 20
-343.6909599125174
 30
0.0
 10
388.9766886880006
 20
-343.6909599125174
 30
0.0
 10
388.9766886880006
 20
-343.6909599125174
 30
0.0
 10
389.8352534723836
 20
-376.8541546296883
 30
0.0
 10
389.8352534723836
 20
-388.1412618731702
 30
0.0
 10
389.8352534723836
 20
-399.4341551821572
 30
0.0
 10
392.1304437366034
 20
-428.2930848516498
 30
0.0
 10
392.1304437366034
 20
-445.6072854402464
 30
0.0
 10
392.1304437366034
 20
-462.9157873001677
 30
0.0
 10
394.5916394953492
 20
-504.3325315352922
 30
0.0
 10
395.7306647002442
 20
-522.8372860631116
 30
0.0
 10
396.8811310308993
 20
-541.347717485387
 30
0.0
 10
398.5982387654585
 20
-591.7049154680772
 30
0.0
 10
399.4510829869632
 20
-601.7958137120822
 30
0.0
 10
400.3153465000159
 20
-611.892432518971
 30
0.0
 10
399.4510829869632
 20
-657.7965434823036
 30
0.0
 10
400.8934508638886
 20
-674.5841684413517
 30
0.0
 10
402.3243776150539
 20
-691.3718370688184
 30
0.0
 10
402.6105585984442
 20
-735.0608674824398
 30
0.0
 10
402.6105585984442
 20
-735.0608674824398
 30
0.0
  0
SPLINE
  5
82
330
41
100
AcDbEntity
  8
Layer 1
 62
   156
420
  1785491
370
    18
100
AcDbSpline
210
0.0
220
0.0
230
1.0
 70
     8
 71
     3
 72
    47
 73
    43
 74
     0
 42
0.0000000001
 43
0.0000000001
 12
1.0
 22
0.0
 32
0.0
 13
1.0
 23
0.0
 33
0.0
 40
0.0
 40
0.0
 40
0.0
 40
0.0
 40
1.0
 40
1.0
 40
1.0
 40
2.0
 40
2.0
 40
2.0
 40
3.0
 40
3.0
 40
3.0
 40
4.0
 40
4.0
 40
4.0
 40
5.0
 40
5.0
 40
5.0
 40
6.0
 40
6.0
 40
6.0
 40
7.0
 40
7.0
 40
7.0
 40
8.0
 40
8.0
 40
8.0
 40
9.0
 40
9.0
 40
9.0
 40
10.0
 40
10.0
 40
10.0
 40
11.0
 40
11.0
 40
11.0
 40
12.0
 40
12.0
 40
12.0
 40
13.0
 40
13.0
 40
13.0
 40
14.0
 40
14.0
 40
14.0
 40
14.0
 10
269.5286501770397
 20
-129.2522979434789
 30
0.0
 10
269.5286501770397
 20
-129.2522979434789
 30
0.0
 10
350.6278473898856
 20
-180.3936060562919
 30
0.0
 10
359.1046516995648
 20
-186.5637789759967
 30
0.0
 10
367.5757572805778
 20
-192.7339518957015
 30
0.0
 10
377.0713676378728
 20
-199.6882349455318
 30
0.0
 10
378.7942177695186
 20
-201.5140988774101
 30
0.0
 10
380.5113255040742
 20
-203.3514039350466
 30
0.0
 10
384.231743790795
 20
-207.7987267231047
 30
0.0
 10
385.3764677243616
 20
-211.6107176842961
 30
0.0
 10
386.5212134921348
 20
-215.4284292083676
 30
0.0
 10
386.9733999700493
 20
-216.058040472356
 30
0.0
 10
387.2595809534432
 20
-219.8700314335492
 30
0.0
 10
387.5514824997099
 20
-223.6877429576198
 30
0.0
 10
387.0935972931293
 20
-234.7230580976084
 30
0.0
 10
385.3764677243616
 20
-245.3347895740744
 30
0.0
 10
383.6593599898024
 20
-255.9522852818372
 30
0.0
 10
383.3731790064121
 20
-265.52230662497
 30
0.0
 10
382.5146142220256
 20
-274.8290510704328
 30
0.0
 10
381.6560712718529
 20
-284.1357955158965
 30
0.0
 10
378.3420312916005
 20
-310.2301649204101
 30
0.0
 10
377.1915649609473
 20
-321.5173158323087
 30
0.0
 10
376.0525615902607
 20
-332.8101873070873
 30
0.0
 10
373.4711685084385
 20
-345.3680018727182
 30
0.0
 10
373.7573494918324
 20
-371.6226780430861
 30
0.0
 10
374.0435304752227
 20
-397.865847585068
 30
0.0
 10
374.6101937133371
 20
-417.0059339397512
 30
0.0
 10
375.760638209782
 20
-431.9562538411647
 30
0.0
 10
376.905383977557
 20
-446.9122943054572
 30
0.0
 10
379.6470401568149
 20
-487.1785722099266
 30
0.0
 10
379.6470401568149
 20
-487.1785722099266
 30
0.0
 10
379.6470401568149
 20
-487.1785722099266
 30
0.0
 10
383.6593599898024
 20
-544.5987876055551
 30
0.0
 10
385.0902867409677
 20
-556.675812878877
 30
0.0
 10
386.5212134921348
 20
-568.7471175893206
 30
0.0
 10
387.8376634831038
 20
-590.5487067403337
 30
0.0
 10
388.6905077046085
 20
-605.3502483384873
 30
0.0
 10
389.5547930518715
 20
-620.1460257053441
 30
0.0
 10
391.8385421903331
 20
-652.6738449272289
 30
0.0
 10
392.4166465542057
 20
-667.6298853915214
 30
0.0
 10
392.9832879581118
 20
-682.5859258558121
 30
0.0
 10
395.6390920257691
 20
-734.6945767845391
 30
0.0
 10
395.6390920257691
 20
-734.6945767845391
 30
0.0
  0
SPLINE
  5
83
330
41
100
AcDbEntity
  8
Layer 1
 62
   156
420
  1785491
370
    18
100
AcDbSpline
210
0.0
220
0.0
230
1.0
 70
     8
 71
     3
 72
    17
 73
    13
 74
     0
 42
0.0000000001
 43
0.0000000001
 12
1.0
 22
0.0
 32
0.0
 13
1.0
 23
0.0
 33
0.0
 40
0.0
 40
0.0
 40
0.0
 40
0.0
 40
1.0
 40
1.0
 40
1.0
 40
2.0
 40
2.0
 40
2.0
 40
3.0
 40
3.0
 40
3.0
 40
4.0
 40
4.0
 40
4.0
 40
4.0
 10
254.2978698551142
 20
-154.5625135494474
 30
0.0
 10
254.2978698551142
 20
-154.5625135494474
 30
0.0
 10
255.9863529410713
 20
-155.2951822820851
 30
0.0
 10
258.9569626407228
 20
-156.6001693130875
 30
0.0
 10
279.6767758840424
 20
-165.6379162980047
 30
0.0
 10
362.6991521003274
 20
-202.0006087325964
 30
0.0
 10
370.603594443226
 20
-207.1691154591172
 30
0.0
 10
379.6527607196913
 20
-213.0759678127351
 30
0.0
 10
380.2251445206839
 20
-211.2386627551004
 30
0.0
 10
381.6560712718529
 20
-214.6442754098243
 30
0.0
 10
384.9472071663768
 20
-218.0098004559804
 30
0.0
 10
384.7468782945816
 20
-227.0532680037759
 30
0.0
 10
384.7468782945816
 20
-227.0532680037759
 30
0.0
  0
SPLINE
  5
84
330
41
100
AcDbEntity
  8
Layer 1
 62
   156
420
  1785491
370
    18
100
AcDbSpline
210
0.0
220
0.0
230
1.0
 70
     8
 71
     3
 72
    17
 73
    13
 74
     0
 42
0.0000000001
 43
0.0000000001
 12
1.0
 22
0.0
 32
0.0
 13
1.0
 23
0.0
 33
0.0
 40
0.0
 40
0.0
 40
0.0
 40
0.0
 40
1.0
 40
1.0
 40
1.0
 40
2.0
 40
2.0
 40
2.0
 40
3.0
 40
3.0
 40
3.0
 40
4.0
 40
4.0
 40
4.0
 40
4.0
 10
256.0264187154289
 20
-169.5013923251045
 30
0.0
 10
256.0264187154289
 20
-169.5013923251045
 30
0.0
 10
286.3048340103333
 20
-179.5064384575144
 30
0.0
 10
297.5118533735131
 20
-183.4272074502369
 30
0.0
 10
308.730313862452
 20
-187.353653337419
 30
0.0
 10
373.5856452686385
 20
-211.2386627551004
 30
0.0
 10
377.7639487619399
 20
-214.3752779492779
 30
0.0
 10
381.9422522552431
 20
-217.517570037915
 30
0.0
 10
382.5146142220256
 20
-217.4145562376834
 30
0.0
 10
383.6593599898024
 20
-221.3295609991083
 30
0.0
 10
384.8041057575774
 20
-225.2617711175872
 30
0.0
 10
384.741135897495
 20
-227.1105173009801
 30
0.0
 10
384.741135897495
 20
-227.1105173009801
 30
0.0
  0
SPLINE
  5
85
330
41
100
AcDbEntity
  8
Layer 1
 62
   156
420
  1785491
370
    18
100
AcDbSpline
210
0.0
220
0.0
230
1.0
 70
     8
 71
     3
 72
    41
 73
    37
 74
     0
 42
0.0000000001
 43
0.0000000001
 12
1.0
 22
0.0
 32
0.0
 13
1.0
 23
0.0
 33
0.0
 40
0.0
 40
0.0
 40
0.0
 40
0.0
 40
1.0
 40
1.0
 40
1.0
 40
2.0
 40
2.0
 40
2.0
 40
3.0
 40
3.0
 40
3.0
 40
4.0
 40
4.0
 40
4.0
 40
5.0
 40
5.0
 40
5.0
 40
6.0
 40
6.0
 40
6.0
 40
7.0
 40
7.0
 40
7.0
 40
8.0
 40
8.0
 40
8.0
 40
9.0
 40
9.0
 40
9.0
 40
10.0
 40
10.0
 40
10.0
 40
11.0
 40
11.0
 40
11.0
 40
12.0
 40
12.0
 40
12.0
 40
12.0
 10
369.006684031745
 20
-573.6122598096044
 30
0.0
 10
369.006684031745
 20
-573.6122598096044
 30
0.0
 10
361.1136828146045
 20
-500.669362545781
 30
0.0
 10
360.2493974673416
 20
-490.5784643017723
 30
0.0
 10
359.3908545171671
 20
-480.4818454948854
 30
0.0
 10
354.5199698997967
 20
-438.1264049266592
 30
0.0
 10
353.9476079330125
 20
-423.6969400919152
 30
0.0
 10
353.3809446948981
 20
-409.2674752571675
 30
0.0
 10
351.6581163974588
 20
-371.8802343778752
 30
0.0
 10
354.2280683535246
 20
-354.8292888527394
 30
0.0
 10
356.8151819982249
 20
-337.7841075589013
 30
0.0
 10
363.3974319530662
 20
-310.9055843558435
 30
0.0
 10
367.2952750258573
 20
-297.5178514886402
 30
0.0
 10
371.1759564100103
 20
-284.1415160787765
 30
0.0
 10
377.9299324222557
 20
-266.8273373243901
 30
0.0
 10
380.2308650835621
 20
-255.9580058447164
 30
0.0
 10
382.5088936591455
 20
-245.0715126764071
 30
0.0
 10
385.3764677243616
 20
-232.6281530367651
 30
0.0
 10
385.0902867409677
 20
-229.3370389764477
 30
0.0
 10
384.8098263204556
 20
-226.0459249161322
 30
0.0
 10
385.0902867409677
 20
-227.8717888480114
 30
0.0
 10
382.8008170396261
 20
-224.7294530909539
 30
0.0
 10
380.5113255040742
 20
-221.5986021280742
 30
0.0
 10
380.0591608603681
 20
-220.1333083312156
 30
0.0
 10
375.474457226388
 20
-218.5650007341274
 30
0.0
 10
370.8897754266163
 20
-216.9967368054577
 30
0.0
 10
358.8127501532945
 20
-213.1847458442644
 30
0.0
 10
350.6335679527638
 20
-211.0898407834202
 30
0.0
 10
342.4429446264712
 20
-208.9949793909946
 30
0.0
 10
324.5334779853692
 20
-203.3514039350466
 30
0.0
 10
316.9152166258646
 20
-200.7356656417451
 30
0.0
 10
309.3026976634446
 20
-198.1199273484426
 30
0.0
 10
301.1177949000339
 20
-196.3971208852163
 30
0.0
 10
294.6499998711797
 20
-194.3022158243721
 30
0.0
 10
288.1879254052046
 20
-192.2130749948265
 30
0.0
 10
278.2859149072347
 20
-188.8074623400998
 30
0.0
 10
278.2859149072347
 20
-188.8074623400998
 30
0.0
  0
SPLINE
  5
86
330
41
100
AcDbEntity
  8
Layer 1
 62
   156
420
  1785491
370
    18
100
AcDbSpline
210
0.0
220
0.0
230
1.0
 70
     8
 71
     3
 72
     8
 73
     4
 74
     0
 42
0.0000000001
 43
0.0000000001
 12
1.0
 22
0.0
 32
0.0
 13
1.0
 23
0.0
 33
0.0
 40
0.0
 40
0.0
 40
0.0
 40
0.0
 40
1.0
 40
1.0
 40
1.0
 40
1.0
 10
373.4711685084385
 20
-621.6112758337822
 30
0.0
 10
372.8930641445677
 20
-608.4925404271253
 30
0.0
 10
369.6820816329691
 20
-575.8731485307653
 30
0.0
 10
368.9379936087862
 20
-573.2631308003402
 30
0.0
  0
SPLINE
  5
87
330
41
100
AcDbEntity
  8
Layer 1
 62
   156
420
  1785491
370
    18
100
AcDbSpline
210
0.0
220
0.0
230
1.0
 70
     8
 71
     3
 72
    41
 73
    37
 74
     0
 42
0.0000000001
 43
0.0000000001
 12
1.0
 22
0.0
 32
0.0
 13
1.0
 23
0.0
 33
0.0
 40
0.0
 40
0.0
 40
0.0
 40
0.0
 40
1.0
 40
1.0
 40
1.0
 40
2.0
 40
2.0
 40
2.0
 40
3.0
 40
3.0
 40
3.0
 40
4.0
 40
4.0
 40
4.0
 40
5.0
 40
5.0
 40
5.0
 40
6.0
 40
6.0
 40
6.0
 40
7.0
 40
7.0
 40
7.0
 40
8.0
 40
8.0
 40
8.0
 40
9.0
 40
9.0
 40
9.0
 40
10.0
 40
10.0
 40
10.0
 40
11.0
 40
11.0
 40
11.0
 40
12.0
 40
12.0
 40
12.0
 40
12.0
 10
367.3754284087845
 20
-92.31719987368433
 30
0.0
 10
367.3754284087845
 20
-92.31719987368433
 30
0.0
 10
386.1148351856664
 20
-159.9485326706072
 30
0.0
 10
388.9766886880006
 20
-168.7344438836144
 30
0.0
 10
391.8442627532131
 20
-177.5203114282012
 30
0.0
 10
392.2506410596816
 20
-178.9798846621798
 30
0.0
 10
394.4199352721553
 20
-190.1239341652781
 30
0.0
 10
396.5949500475072
 20
-201.256542542621
 30
0.0
 10
398.3120577820664
 20
-211.8739945819652
 30
0.0
 10
398.3120577820664
 20
-217.7808906040018
 30
0.0
 10
398.3120577820664
 20
-223.6934635204989
 30
0.0
 10
398.8844197488488
 20
-239.279115248778
 30
0.0
 10
398.8844197488488
 20
-251.0928636244316
 30
0.0
 10
398.8844197488488
 20
-262.9065683316676
 30
0.0
 10
400.3153465000159
 20
-300.5514092141666
 30
0.0
 10
400.595806920528
 20
-311.9530150520568
 30
0.0
 10
400.8934508638886
 20
-323.360385121242
 30
0.0
 10
401.7462732511813
 20
-330.0513912734041
 30
0.0
 10
401.7462732511813
 20
-339.3581357188677
 30
0.0
 10
401.7462732511813
 20
-348.6648801643323
 30
0.0
 10
402.3186570521757
 20
-359.2823322036757
 30
0.0
 10
403.1772000023502
 20
-370.5752473468729
 30
0.0
 10
404.0357647867349
 20
-381.8623982587724
 30
0.0
 10
405.6326751982142
 20
-410.984582991724
 30
0.0
 10
406.2050153307882
 20
-421.3445005304893
 30
0.0
 10
406.777420965991
 20
-431.6986756721653
 30
0.0
 10
405.9188561816081
 20
-432.070730601361
 30
0.0
 10
406.777420965991
 20
-450.5754632949684
 30
0.0
 10
407.641706313254
 20
-469.0801959885794
 30
0.0
 10
407.641706313254
 20
-487.0240296753709
 30
0.0
 10
408.4945068663401
 20
-514.3146517477726
 30
0.0
 10
409.358792213603
 20
-541.6110380514765
 30
0.0
 10
411.699812483479
 20
-662.6617293710042
 30
0.0
 10
411.4136096658785
 20
-673.5310171822603
 30
0.0
 10
411.127406848278
 20
-684.4175103505695
 30
0.0
 10
411.9344865667535
 20
-735.1868072026045
 30
0.0
 10
411.9344865667535
 20
-735.1868072026045
 30
0.0
  0
SPLINE
  5
88
330
41
100
AcDbEntity
  8
Layer 1
 62
   156
420
  1785491
370
    18
100
AcDbSpline
210
0.0
220
0.0
230
1.0
 70
     8
 71
     3
 72
    17
 73
    13
 74
     0
 42
0.0000000001
 43
0.0000000001
 12
1.0
 22
0.0
 32
0.0
 13
1.0
 23
0.0
 33
0.0
 40
0.0
 40
0.0
 40
0.0
 40
0.0
 40
1.0
 40
1.0
 40
1.0
 40
2.0
 40
2.0
 40
2.0
 40
3.0
 40
3.0
 40
3.0
 40
4.0
 40
4.0
 40
4.0
 40
4.0
 10
162.0208347000307
 20
-592.419822071317
 30
0.0
 10
162.0208347000307
 20
-592.419822071317
 30
0.0
 10
161.0993218897738
 20
-589.7525768779014
 30
0.0
 10
160.8989930179778
 20
-588.9340887849794
 30
0.0
 10
160.6929326661993
 20
-588.1156006920592
 30
0.0
 10
160.3151680912297
 20
-588.0125759747225
 30
0.0
 10
160.1835296423933
 20
-587.3944058364941
 30
0.0
 10
160.040428233594
 20
-586.7762466153672
 30
0.0
 10
159.3936552809728
 20
-585.8890790165915
 30
0.0
 10
159.1189154233371
 20
-585.5113144416191
 30
0.0
 10
158.8441755657041
 20
-585.1392704295267
 30
0.0
 10
158.2946958504344
 20
-584.6928263486989
 30
0.0
 10
158.1630574016017
 20
-584.5955221942422
 30
0.0
  0
SPLINE
  5
89
330
41
100
AcDbEntity
  8
Layer 1
 62
   156
420
  1785491
370
    18
100
AcDbSpline
210
0.0
220
0.0
230
1.0
 70
     8
 71
     3
 72
    11
 73
     7
 74
     0
 42
0.0000000001
 43
0.0000000001
 12
1.0
 22
0.0
 32
0.0
 13
1.0
 23
0.0
 33
0.0
 40
0.0
 40
0.0
 40
0.0
 40
0.0
 40
1.0
 40
1.0
 40
1.0
 40
2.0
 40
2.0
 40
2.0
 40
2.0
 10
155.009291435892
 20
-603.6726277717371
 30
0.0
 10
155.009291435892
 20
-603.6726277717371
 30
0.0
 10
155.5931163626401
 20
-604.0046060094701
 30
0.0
 10
155.907911077531
 20
-603.6726277717371
 30
0.0
 10
156.211275583767
 20
-603.3292084082459
 30
0.0
 10
156.1769303722849
 20
-603.2605289023904
 30
0.0
 10
156.239889315264
 20
-603.1231589735726
 30
0.0
  0
SPLINE
  5
8A
330
41
100
AcDbEntity
  8
Layer 1
 62
   156
420
  1785491
370
    18
100
AcDbSpline
210
0.0
220
0.0
230
1.0
 70
     8
 71
     3
 72
    29
 73
    25
 74
     0
 42
0.0000000001
 43
0.0000000001
 12
1.0
 22
0.0
 32
0.0
 13
1.0
 23
0.0
 33
0.0
 40
0.0
 40
0.0
 40
0.0
 40
0.0
 40
1.0
 40
1.0
 40
1.0
 40
2.0
 40
2.0
 40
2.0
 40
3.0
 40
3.0
 40
3.0
 40
4.0
 40
4.0
 40
4.0
 40
5.0
 40
5.0
 40
5.0
 40
6.0
 40
6.0
 40
6.0
 40
7.0
 40
7.0
 40
7.0
 40
8.0
 40
8.0
 40
8.0
 40
8.0
 10
139.8987084370428
 20
-608.7667344295223
 30
0.0
 10
140.2020620261728
 20
-608.7953481610184
 30
0.0
 10
140.9232459646364
 20
-608.6579782322042
 30
0.0
 10
141.8104244805172
 20
-608.5263397833678
 30
0.0
 10
142.7033235592771
 20
-608.3889698545499
 30
0.0
 10
143.7221405239907
 20
-608.2172547142527
 30
0.0
 10
144.2773408021394
 20
-607.9425148566206
 30
0.0
 10
144.8268205174081
 20
-607.6735064789682
 30
0.0
 10
145.5766291044738
 20
-607.192706269554
 30
0.0
 10
145.5766291044738
 20
-607.192706269554
 30
0.0
 10
145.5766291044738
 20
-607.192706269554
 30
0.0
 10
147.7974192999573
 20
-607.3587008469749
 30
0.0
 10
148.4499237325626
 20
-606.8836321175459
 30
0.0
 10
149.102428165168
 20
-606.4028428252368
 30
0.0
 10
149.4744721772613
 20
-605.996453601665
 30
0.0
 10
149.4744721772613
 20
-605.996453601665
 30
0.0
 10
149.4744721772613
 20
-605.996453601665
 30
0.0
 10
150.8767742798263
 20
-605.7904041669881
 30
0.0
 10
151.2545388547987
 20
-605.6530342381739
 30
0.0
 10
151.6265828668893
 20
-605.515664309356
 30
0.0
 10
151.9700022303814
 20
-605.515664309356
 30
0.0
 10
152.2790872994974
 20
-605.1378997343836
 30
0.0
 10
152.5824408886283
 20
-604.765855722293
 30
0.0
 10
152.8571807462613
 20
-604.4510500902998
 30
0.0
 10
153.1662548982731
 20
-604.2163869241267
 30
0.0
  0
SPLINE
  5
8B
330
41
100
AcDbEntity
  8
Layer 1
 62
   156
420
  1785491
370
    18
100
AcDbSpline
210
0.0
220
0.0
230
1.0
 70
     8
 71
     3
 72
    56
 73
    52
 74
     0
 42
0.0000000001
 43
0.0000000001
 12
1.0
 22
0.0
 32
0.0
 13
1.0
 23
0.0
 33
0.0
 40
0.0
 40
0.0
 40
0.0
 40
0.0
 40
1.0
 40
1.0
 40
1.0
 40
2.0
 40
2.0
 40
2.0
 40
3.0
 40
3.0
 40
3.0
 40
4.0
 40
4.0
 40
4.0
 40
5.0
 40
5.0
 40
5.0
 40
6.0
 40
6.0
 40
6.0
 40
7.0
 40
7.0
 40
7.0
 40
8.0
 40
8.0
 40
8.0
 40
9.0
 40
9.0
 40
9.0
 40
10.0
 40
10.0
 40
10.0
 40
11.0
 40
11.0
 40
11.0
 40
12.0
 40
12.0
 40
12.0
 40
13.0
 40
13.0
 40
13.0
 40
14.0
 40
14.0
 40
14.0
 40
15.0
 40
15.0
 40
15.0
 40
16.0
 40
16.0
 40
16.0
 40
17.0
 40
17.0
 40
17.0
 40
17.0
 10
131.1414327897419
 20
-589.655272723443
 30
0.0
 10
131.1414327897419
 20
-589.655272723443
 30
0.0
 10
130.6663695188663
 20
-590.1646866643514
 30
0.0
 10
130.2886049438939
 20
-590.6111307451793
 30
0.0
 10
129.9108403689224
 20
-591.0518651802322
 30
0.0
 10
129.7105114971282
 20
-590.9144952514143
 30
0.0
 10
129.0580070645228
 20
-591.8760738360324
 30
0.0
 10
128.4055080904691
 20
-592.8319318577705
 30
0.0
 10
128.2337929501718
 20
-593.7534446680274
 30
0.0
 10
127.9933983040173
 20
-594.4059491006319
 30
0.0
 10
127.7530036578637
 20
-595.05273297036
 30
0.0
 10
127.518335033139
 20
-595.3217413480106
 30
0.0
 10
127.3122801399149
 20
-595.7739169088218
 30
0.0
 10
127.1062252466882
 20
-596.2146404267696
 30
0.0
 10
126.8028716575554
 20
-596.729774930558
 30
0.0
 10
126.7341866931474
 20
-597.2735231658444
 30
0.0
 10
126.6597757073068
 20
-597.823002881114
 30
0.0
 10
126.5968167643314
 20
-598.5098525252015
 30
0.0
 10
126.5968167643314
 20
-598.7445156913709
 30
0.0
 10
126.5968167643314
 20
-598.9849103375254
 30
0.0
 10
126.5281317999215
 20
-600.6562426519504
 30
0.0
 10
126.5567509899702
 20
-600.7936016636631
 30
0.0
 10
126.5968167643314
 20
-600.9367030724625
 30
0.0
 10
126.837211410485
 20
-601.2801224359537
 30
0.0
 10
127.0032005293506
 20
-601.9555200371797
 30
0.0
 10
127.1806362325278
 20
-602.642358764162
 30
0.0
 10
128.1364942542659
 20
-604.6227652305952
 30
0.0
 10
128.3368231260602
 20
-604.8975050882309
 30
0.0
 10
128.5428780192869
 20
-605.1722449458648
 30
0.0
 10
128.5428780192869
 20
-605.2065792402409
 30
0.0
 10
128.9149165728259
 20
-605.6530342381739
 30
0.0
 10
129.2984071692281
 20
-606.0937577561217
 30
0.0
 10
130.0825555092224
 20
-606.7119169772486
 30
0.0
 10
130.5633448015278
 20
-607.0839609893392
 30
0.0
 10
131.0384135309569
 20
-607.4674461271898
 30
0.0
 10
133.9460479119762
 20
-608.864038583979
 30
0.0
 10
133.9460479119762
 20
-608.864038583979
 30
0.0
 10
133.9460479119762
 20
-608.864038583979
 30
0.0
 10
135.4857308604651
 20
-609.4478525936247
 30
0.0
 10
136.1038900815893
 20
-609.5852225224426
 30
0.0
 10
136.710608176958
 20
-609.7168609712753
 30
0.0
 10
136.8594192315304
 20
-609.9286418859338
 30
0.0
 10
137.3688331724425
 20
-609.7168609712753
 30
0.0
 10
137.8782361962476
 20
-609.5108115366038
 30
0.0
 10
138.1529760538824
 20
-609.4478525936247
 30
0.0
 10
138.6681105576681
 20
-609.2761374533275
 30
0.0
 10
138.6681105576681
 20
-609.2761374533275
 30
0.0
 10
139.2118587929563
 20
-608.7953481610184
 30
0.0
 10
139.6926590023677
 20
-608.7266686551648
 30
0.0
 10
140.1677168146916
 20
-608.6579782322042
 30
0.0
 10
99.61526338538351
 20
-693.9297583754687
 30
0.0
 10
99.61526338538351
 20
-693.9297583754687
 30
0.0
  0
SPLINE
  5
8C
330
41
100
AcDbEntity
  8
Layer 1
 62
   156
420
  1785491
370
    18
100
AcDbSpline
210
0.0
220
0.0
230
1.0
 70
     8
 71
     3
 72
    17
 73
    13
 74
     0
 42
0.0000000001
 43
0.0000000001
 12
1.0
 22
0.0
 32
0.0
 13
1.0
 23
0.0
 33
0.0
 40
0.0
 40
0.0
 40
0.0
 40
0.0
 40
1.0
 40
1.0
 40
1.0
 40
2.0
 40
2.0
 40
2.0
 40
3.0
 40
3.0
 40
3.0
 40
4.0
 40
4.0
 40
4.0
 40
4.0
 10
135.4857308604651
 20
-584.7615058545562
 30
0.0
 10
135.4857308604651
 20
-584.7615058545562
 30
0.0
 10
134.9019168508203
 20
-584.727160643075
 30
0.0
 10
134.2894781925716
 20
-585.207949935384
 30
0.0
 10
133.6713189714483
 20
-585.6830186648131
 30
0.0
 10
133.3679544652096
 20
-586.2668435915621
 30
0.0
 10
132.8184856670468
 20
-586.8850028126872
 30
0.0
 10
132.2747265146563
 20
-587.4974414709322
 30
0.0
 10
132.1316360229594
 20
-587.8065156229459
 30
0.0
 10
131.8568961653264
 20
-588.3502747753355
 30
0.0
 10
131.5878877876748
 20
-588.8997435734982
 30
0.0
 10
131.4161726473794
 20
-589.5465274432281
 30
0.0
 10
131.4161726473794
 20
-589.5465274432281
 30
0.0
  0
SPLINE
  5
8D
330
41
100
AcDbEntity
  8
Layer 1
 62
   156
420
  1785491
370
    18
100
AcDbSpline
210
0.0
220
0.0
230
1.0
 70
     8
 71
     3
 72
    23
 73
    19
 74
     0
 42
0.0000000001
 43
0.0000000001
 12
1.0
 22
0.0
 32
0.0
 13
1.0
 23
0.0
 33
0.0
 40
0.0
 40
0.0
 40
0.0
 40
0.0
 40
1.0
 40
1.0
 40
1.0
 40
2.0
 40
2.0
 40
2.0
 40
3.0
 40
3.0
 40
3.0
 40
4.0
 40
4.0
 40
4.0
 40
5.0
 40
5.0
 40
5.0
 40
6.0
 40
6.0
 40
6.0
 40
6.0
 10
146.498141914728
 20
-580.5545777126517
 30
0.0
 10
146.498141914728
 20
-580.5545777126517
 30
0.0
 10
146.669857055027
 20
-580.4858982067944
 30
0.0
 10
146.8072269838449
 20
-580.4172077838339
 30
0.0
 10
146.9445859955576
 20
-580.3485282779784
 30
0.0
 10
147.5226903594266
 20
-580.4858982067944
 30
0.0
 10
148.0034796517357
 20
-580.4172077838339
 30
0.0
 10
148.4785483811647
 20
-580.3485282779784
 30
0.0
 10
149.3313816855671
 20
-580.6289886984905
 30
0.0
 10
150.1555903413637
 20
-580.6289886984905
 30
0.0
 10
150.979798997163
 20
-580.6289886984905
 30
0.0
 10
151.3232292777593
 20
-580.9666874991035
 30
0.0
 10
151.3232292777593
 20
-580.9666874991035
 30
0.0
 10
151.3232292777593
 20
-580.9666874991035
 30
0.0
 10
153.103295955294
 20
-583.5652531866635
 30
0.0
 10
156.7893690305327
 20
-579.1866099044619
 30
0.0
 10
160.486883231526
 20
-574.8136981022417
 30
0.0
 10
207.404112430906
 20
-514.3656346268617
 30
0.0
 10
207.404112430906
 20
-514.3656346268617
 30
0.0
  0
SPLINE
  5
8E
330
41
100
AcDbEntity
  8
Layer 1
 62
   156
420
  1785491
370
    18
100
AcDbSpline
210
0.0
220
0.0
230
1.0
 70
     8
 71
     3
 72
    23
 73
    19
 74
     0
 42
0.0000000001
 43
0.0000000001
 12
1.0
 22
0.0
 32
0.0
 13
1.0
 23
0.0
 33
0.0
 40
0.0
 40
0.0
 40
0.0
 40
0.0
 40
1.0
 40
1.0
 40
1.0
 40
2.0
 40
2.0
 40
2.0
 40
3.0
 40
3.0
 40
3.0
 40
4.0
 40
4.0
 40
4.0
 40
5.0
 40
5.0
 40
5.0
 40
6.0
 40
6.0
 40
6.0
 40
6.0
 10
153.4409947559061
 20
-581.6821508746871
 30
0.0
 10
153.4409947559061
 20
-581.6821508746871
 30
0.0
 10
154.1278443999927
 20
-581.8195208035049
 30
0.0
 10
154.362518483269
 20
-581.8882003093604
 30
0.0
 10
154.6029131294226
 20
-581.9511701694446
 30
0.0
 10
155.1523819275862
 20
-582.3003100958103
 30
0.0
 10
155.3527107993832
 20
-582.5063704475924
 30
0.0
 10
155.5587711511616
 20
-582.7066993193857
 30
0.0
 10
155.7705411487132
 20
-583.1187981887306
 30
0.0
 10
155.907911077531
 20
-583.3591928348851
 30
0.0
 10
156.0395604434671
 20
-583.5995983981447
 30
0.0
 10
156.5203497357761
 20
-583.9773629731171
 30
0.0
 10
156.5203497357761
 20
-583.9773629731171
 30
0.0
 10
156.5203497357761
 20
-583.9773629731171
 30
0.0
 10
157.3331172658172
 20
-585.7574296506536
 30
0.0
 10
161.717481110898
 20
-583.4278832578457
 30
0.0
 10
166.0903929131182
 20
-581.0983368650413
 30
0.0
 10
229.9784033376
 20
-527.633192005198
 30
0.0
 10
229.9784033376
 20
-527.633192005198
 30
0.0
  0
POLYLINE
  5
8F
330
41
100
AcDbEntity
  8
Layer 1
 62
   156
420
  1785491
370
    18
100
AcDb2dPolyline
 66
     1
 10
0.0
 20
0.0
 30
0.0
  0
VERTEX
  5
90
330
8F
100
AcDbEntity
  8
Layer 1
 62
   156
420
  1785491
370
    18
100
AcDbVertex
100
AcDb2dVertex
 10
160.486883231526
 20
-587.9438855517637
 30
0.0
  0
VERTEX
  5
91
330
8F
100
AcDbEntity
  8
Layer 1
 62
   156
420
  1785491
370
    18
100
AcDbVertex
100
AcDb2dVertex
 10
248.7120895516055
 20
-549.646572987971
 30
0.0
  0
SEQEND
  5
92
330
8F
100
AcDbEntity
  8
Layer 1
 62
   156
420
  1785491
370
    18
  0
SPLINE
  5
93
330
41
100
AcDbEntity
  8
Layer 1
 62
   156
420
  1785491
370
    18
100
AcDbSpline
210
0.0
220
0.0
230
1.0
 70
     8
 71
     3
 72
    14
 73
    10
 74
     0
 42
0.0000000001
 43
0.0000000001
 12
1.0
 22
0.0
 32
0.0
 13
1.0
 23
0.0
 33
0.0
 40
0.0
 40
0.0
 40
0.0
 40
0.0
 40
1.0
 40
1.0
 40
1.0
 40
2.0
 40
2.0
 40
2.0
 40
3.0
 40
3.0
 40
3.0
 40
3.0
 10
161.7861606167553
 20
-594.3315490318964
 30
0.0
 10
161.7861606167553
 20
-594.3315490318964
 30
0.0
 10
161.8491195597317
 20
-593.6847651621702
 30
0.0
 10
161.8491195597317
 20
-593.6847651621702
 30
0.0
 10
161.8491195597317
 20
-593.6847651621702
 30
0.0
 10
161.3053713244472
 20
-591.2235694034262
 30
0.0
 10
165.1402554542583
 20
-591.2235694034262
 30
0.0
 10
168.9636875412098
 20
-591.2235694034262
 30
0.0
 10
257.7441159736436
 20
-576.7254250628212
 30
0.0
 10
257.7441159736436
 20
-576.7254250628212
 30
0.0
  0
SPLINE
  5
94
330
41
100
AcDbEntity
  8
Layer 1
 62
   156
420
  1785491
370
    18
100
AcDbSpline
210
0.0
220
0.0
230
1.0
 70
     8
 71
     3
 72
    14
 73
    10
 74
     0
 42
0.0000000001
 43
0.0000000001
 12
1.0
 22
0.0
 32
0.0
 13
1.0
 23
0.0
 33
0.0
 40
0.0
 40
0.0
 40
0.0
 40
0.0
 40
1.0
 40
1.0
 40
1.0
 40
2.0
 40
2.0
 40
2.0
 40
3.0
 40
3.0
 40
3.0
 40
3.0
 10
160.6929326661993
 20
-597.376547883181
 30
0.0
 10
160.8589272436202
 20
-597.1361532370265
 30
0.0
 10
160.7558916091784
 20
-596.5580707073659
 30
0.0
 10
160.7558916091784
 20
-596.5580707073659
 30
0.0
 10
160.7558916091784
 20
-596.5580707073659
 30
0.0
 10
161.3053713244472
 20
-592.5972577744942
 30
0.0
 10
164.4534058101717
 20
-593.9595050198059
 30
0.0
 10
167.5957197330199
 20
-595.3274728279921
 30
0.0
 10
259.655832017118
 20
-606.6775717657674
 30
0.0
 10
259.655832017118
 20
-606.6775717657674
 30
0.0
  0
SPLINE
  5
95
330
41
100
AcDbEntity
  8
Layer 1
 62
   156
420
  1785491
370
    18
100
AcDbSpline
210
0.0
220
0.0
230
1.0
 70
     8
 71
     3
 72
    14
 73
    10
 74
     0
 42
0.0000000001
 43
0.0000000001
 12
1.0
 22
0.0
 32
0.0
 13
1.0
 23
0.0
 33
0.0
 40
0.0
 40
0.0
 40
0.0
 40
0.0
 40
1.0
 40
1.0
 40
1.0
 40
2.0
 40
2.0
 40
2.0
 40
3.0
 40
3.0
 40
3.0
 40
3.0
 10
159.4566142239491
 20
-600.0781382880796
 30
0.0
 10
159.7656992930661
 20
-599.9064340648856
 30
0.0
 10
160.0804940079543
 20
-599.4313653354548
 30
0.0
 10
160.0804940079543
 20
-599.4313653354548
 30
0.0
 10
160.0804940079543
 20
-599.4313653354548
 30
0.0
 10
159.2562853521549
 20
-596.2890514126102
 30
0.0
 10
163.3601778596176
 20
-597.376547883181
 30
0.0
 10
167.4640812841862
 20
-598.4755073137203
 30
0.0
 10
249.5305885616299
 20
-643.6012068755954
 30
0.0
 10
249.5305885616299
 20
-643.6012068755954
 30
0.0
  0
SPLINE
  5
96
330
41
100
AcDbEntity
  8
Layer 1
 62
   156
420
  1785491
370
    18
100
AcDbSpline
210
0.0
220
0.0
230
1.0
 70
     8
 71
     3
 72
    14
 73
    10
 74
     0
 42
0.0000000001
 43
0.0000000001
 12
1.0
 22
0.0
 32
0.0
 13
1.0
 23
0.0
 33
0.0
 40
0.0
 40
0.0
 40
0.0
 40
0.0
 40
1.0
 40
1.0
 40
1.0
 40
2.0
 40
2.0
 40
2.0
 40
3.0
 40
3.0
 40
3.0
 40
3.0
 10
157.4418734631381
 20
-602.0642653173927
 30
0.0
 10
157.6193091663135
 20
-602.0241995430351
 30
0.0
 10
157.8883175439651
 20
-601.4804513077506
 30
0.0
 10
157.8883175439651
 20
-601.4804513077506
 30
0.0
 10
157.8883175439651
 20
-601.4804513077506
 30
0.0
 10
158.0142354299214
 20
-598.4182689336194
 30
0.0
 10
163.0797174391046
 20
-601.3430813789328
 30
0.0
 10
166.6398617112818
 20
-603.392167351225
 30
0.0
 10
226.8303688518727
 20
-672.0480376757405
 30
0.0
 10
226.8303688518727
 20
-672.0480376757405
 30
0.0
  0
SPLINE
  5
97
330
41
100
AcDbEntity
  8
Layer 1
 62
   156
420
  1785491
370
    18
100
AcDbSpline
210
0.0
220
0.0
230
1.0
 70
     8
 71
     3
 72
    11
 73
     7
 74
     0
 42
0.0000000001
 43
0.0000000001
 12
1.0
 22
0.0
 32
0.0
 13
1.0
 23
0.0
 33
0.0
 40
0.0
 40
0.0
 40
0.0
 40
0.0
 40
1.0
 40
1.0
 40
1.0
 40
2.0
 40
2.0
 40
2.0
 40
2.0
 10
156.239889315264
 20
-603.2605289023904
 30
0.0
 10
156.239889315264
 20
-603.2605289023904
 30
0.0
 10
156.9267389593479
 20
-600.5188727231325
 30
0.0
 10
159.3936552809728
 20
-603.2605289023904
 30
0.0
 10
161.8548510397159
 20
-605.990733038785
 30
0.0
 10
203.849688721607
 20
-689.007388692191
 30
0.0
 10
203.849688721607
 20
-689.007388692191
 30
0.0
  0
SPLINE
  5
98
330
41
100
AcDbEntity
  8
Layer 1
 62
   156
420
  1785491
370
    18
100
AcDbSpline
210
0.0
220
0.0
230
1.0
 70
     8
 71
     3
 72
    11
 73
     7
 74
     0
 42
0.0000000001
 43
0.0000000001
 12
1.0
 22
0.0
 32
0.0
 13
1.0
 23
0.0
 33
0.0
 40
0.0
 40
0.0
 40
0.0
 40
0.0
 40
1.0
 40
1.0
 40
1.0
 40
2.0
 40
2.0
 40
2.0
 40
2.0
 10
152.4107257483311
 20
-605.0348750170469
 30
0.0
 10
152.4107257483311
 20
-605.0348750170469
 30
0.0
 10
154.6086336923017
 20
-601.3373608160528
 30
0.0
 10
156.514629172897
 20
-605.5843438152133
 30
0.0
 10
158.4320657792496
 20
-609.8256171685971
 30
0.0
 10
186.7472472134596
 20
-693.1055606367754
 30
0.0
 10
186.7472472134596
 20
-693.1055606367754
 30
0.0
  0
SPLINE
  5
99
330
41
100
AcDbEntity
  8
Layer 1
 62
   156
420
  1785491
370
    18
100
AcDbSpline
210
0.0
220
0.0
230
1.0
 70
     8
 71
     3
 72
    11
 73
     7
 74
     0
 42
0.0000000001
 43
0.0000000001
 12
1.0
 22
0.0
 32
0.0
 13
1.0
 23
0.0
 33
0.0
 40
0.0
 40
0.0
 40
0.0
 40
0.0
 40
1.0
 40
1.0
 40
1.0
 40
2.0
 40
2.0
 40
2.0
 40
2.0
 10
149.131041896665
 20
-606.1281029676029
 30
0.0
 10
149.131041896665
 20
-606.1281029676029
 30
0.0
 10
150.3616397760388
 20
-605.4469848034987
 30
0.0
 10
150.9053989284293
 20
-606.8149416945853
 30
0.0
 10
151.454867726593
 20
-608.1771889398951
 30
0.0
 10
162.94807899027
 20
-702.9560424004212
 30
0.0
 10
162.94807899027
 20
-702.9560424004212
 30
0.0
  0
POLYLINE
  5
9A
330
41
100
AcDbEntity
  8
Layer 1
 62
   156
420
  1785491
370
    18
100
AcDb2dPolyline
 66
     1
 10
0.0
 20
0.0
 30
0.0
  0
VERTEX
  5
9B
330
9A
100
AcDbEntity
  8
Layer 1
 62
   156
420
  1785491
370
    18
100
AcDbVertex
100
AcDb2dVertex
 10
145.4392591756559
 20
-607.2270514810352
 30
0.0
  0
VERTEX
  5
9C
330
9A
100
AcDbEntity
  8
Layer 1
 62
   156
420
  1785491
370
    18
100
AcDbVertex
100
AcDb2dVertex
 10
131.7595920108688
 20
-705.4172381591652
 30
0.0
  0
SEQEND
  5
9D
330
9A
100
AcDbEntity
  8
Layer 1
 62
   156
420
  1785491
370
    18
  0
SPLINE
  5
9E
330
41
100
AcDbEntity
  8
Layer 1
 62
   156
420
  1785491
370
    18
100
AcDbSpline
210
0.0
220
0.0
230
1.0
 70
     8
 71
     3
 72
    11
 73
     7
 74
     0
 42
0.0000000001
 43
0.0000000001
 12
1.0
 22
0.0
 32
0.0
 13
1.0
 23
0.0
 33
0.0
 40
0.0
 40
0.0
 40
0.0
 40
0.0
 40
1.0
 40
1.0
 40
1.0
 40
2.0
 40
2.0
 40
2.0
 40
2.0
 10
134.2207877696119
 20
-609.0013975956954
 30
0.0
 10
134.2207877696119
 20
-609.0013975956954
 30
0.0
 10
136.8193534571728
 20
-609.0013975956954
 30
0.0
 10
135.0450073425154
 20
-611.3252234256197
 30
0.0
 10
133.2592091849947
 20
-613.6490492555458
 30
0.0
 10
71.56909578738032
 20
-682.7170293665149
 30
0.0
 10
71.56909578738032
 20
-682.7170293665149
 30
0.0
  0
SPLINE
  5
9F
330
41
100
AcDbEntity
  8
Layer 1
 62
   156
420
  1785491
370
    18
100
AcDbSpline
210
0.0
220
0.0
230
1.0
 70
     8
 71
     3
 72
    11
 73
     7
 74
     0
 42
0.0000000001
 43
0.0000000001
 12
1.0
 22
0.0
 32
0.0
 13
1.0
 23
0.0
 33
0.0
 40
0.0
 40
0.0
 40
0.0
 40
0.0
 40
1.0
 40
1.0
 40
1.0
 40
2.0
 40
2.0
 40
2.0
 40
2.0
 10
128.6115575251424
 20
-605.1722449458648
 30
0.0
 10
128.6115575251424
 20
-605.1722449458648
 30
0.0
 10
128.1994531972423
 20
-608.0455395739555
 30
0.0
 10
122.864957351856
 20
-610.5067353326995
 30
0.0
 10
117.5361875278986
 20
-612.9679310914435
 30
0.0
 10
60.21326536962442
 20
-647.5677403713453
 30
0.0
 10
49.41262431291034
 20
-652.2211125940776
 30
0.0
  0
SPLINE
  5
A0
330
41
100
AcDbEntity
  8
Layer 1
 62
   156
420
  1785491
370
    18
100
AcDbSpline
210
0.0
220
0.0
230
1.0
 70
     8
 71
     3
 72
    11
 73
     7
 74
     0
 42
0.0000000001
 43
0.0000000001
 12
1.0
 22
0.0
 32
0.0
 13
1.0
 23
0.0
 33
0.0
 40
0.0
 40
0.0
 40
0.0
 40
0.0
 40
1.0
 40
1.0
 40
1.0
 40
2.0
 40
2.0
 40
2.0
 40
2.0
 10
126.6998414816671
 20
-600.930971592481
 30
0.0
 10
126.6998414816671
 20
-600.930971592481
 30
0.0
 10
125.7382628970499
 20
-604.0790169953107
 30
0.0
 10
112.1959711196323
 20
-605.3096148746827
 30
0.0
 10
98.65367934221467
 20
-606.5344812740695
 30
0.0
 10
42.57279618906978
 20
-613.5116793267298
 30
0.0
 10
42.57279618906978
 20
-613.5116793267298
 30
0.0
  0
SPLINE
  5
A1
330
41
100
AcDbEntity
  8
Layer 1
 62
   156
420
  1785491
370
    18
100
AcDbSpline
210
0.0
220
0.0
230
1.0
 70
     8
 71
     3
 72
    11
 73
     7
 74
     0
 42
0.0000000001
 43
0.0000000001
 12
1.0
 22
0.0
 32
0.0
 13
1.0
 23
0.0
 33
0.0
 40
0.0
 40
0.0
 40
0.0
 40
0.0
 40
1.0
 40
1.0
 40
1.0
 40
2.0
 40
2.0
 40
2.0
 40
2.0
 10
127.243595175506
 20
-596.1459609209123
 30
0.0
 10
127.243595175506
 20
-596.1459609209123
 30
0.0
 10
125.8756273673171
 20
-596.9644490138326
 30
0.0
 10
123.9639113238427
 20
-596.5580707073659
 30
0.0
 10
122.0464692589358
 20
-596.1459609209123
 30
0.0
 10
50.50585226346539
 20
-576.5937756968851
 30
0.0
 10
50.50585226346539
 20
-576.5937756968851
 30
0.0
  0
SPLINE
  5
A2
330
41
100
AcDbEntity
  8
Layer 1
 62
   156
420
  1785491
370
    18
100
AcDbSpline
210
0.0
220
0.0
230
1.0
 70
     8
 71
     3
 72
    20
 73
    16
 74
     0
 42
0.0000000001
 43
0.0000000001
 12
1.0
 22
0.0
 32
0.0
 13
1.0
 23
0.0
 33
0.0
 40
0.0
 40
0.0
 40
0.0
 40
0.0
 40
1.0
 40
1.0
 40
1.0
 40
2.0
 40
2.0
 40
2.0
 40
3.0
 40
3.0
 40
3.0
 40
4.0
 40
4.0
 40
4.0
 40
5.0
 40
5.0
 40
5.0
 40
5.0
 10
131.0784793053181
 20
-589.4435027258896
 30
0.0
 10
131.0784793053181
 20
-589.4435027258896
 30
0.0
 10
132.0286113056227
 20
-590.5367306764456
 30
0.0
 10
131.2101232127025
 20
-588.8997435734982
 30
0.0
 10
130.3916351197822
 20
-587.2570468247814
 30
0.0
 10
130.9411093764993
 20
-587.5317757653083
 30
0.0
 10
128.8862973827772
 20
-585.8890790165915
 30
0.0
 10
126.837211410485
 20
-584.2463713507659
 30
0.0
 10
124.6450349464967
 20
-582.8784035425797
 30
0.0
 10
122.733313444468
 20
-581.3787972855534
 30
0.0
 10
120.8158713795638
 20
-579.8734595485494
 30
0.0
 10
91.407467453354
 20
-559.9034548922918
 30
0.0
 10
91.407467453354
 20
-559.9034548922918
 30
0.0
 10
91.407467453354
 20
-559.9034548922918
 30
0.0
 10
71.16271748091185
 20
-546.3668782192017
 30
0.0
 10
71.16271748091185
 20
-546.3668782192017
 30
0.0
  0
SPLINE
  5
A3
330
41
100
AcDbEntity
  8
Layer 1
 62
   156
420
  1785491
370
    18
100
AcDbSpline
210
0.0
220
0.0
230
1.0
 70
     8
 71
     3
 72
    38
 73
    34
 74
     0
 42
0.0000000001
 43
0.0000000001
 12
1.0
 22
0.0
 32
0.0
 13
1.0
 23
0.0
 33
0.0
 40
0.0
 40
0.0
 40
0.0
 40
0.0
 40
1.0
 40
1.0
 40
1.0
 40
2.0
 40
2.0
 40
2.0
 40
3.0
 40
3.0
 40
3.0
 40
4.0
 40
4.0
 40
4.0
 40
5.0
 40
5.0
 40
5.0
 40
6.0
 40
6.0
 40
6.0
 40
7.0
 40
7.0
 40
7.0
 40
8.0
 40
8.0
 40
8.0
 40
9.0
 40
9.0
 40
9.0
 40
10.0
 40
10.0
 40
10.0
 40
11.0
 40
11.0
 40
11.0
 40
11.0
 10
100.9832257350208
 20
-519.9748648713303
 30
0.0
 10
100.9832257350208
 20
-519.9748648713303
 30
0.0
 10
132.3090717261348
 20
-576.5937756968851
 30
0.0
 10
134.7645469220024
 20
-580.0108294773654
 30
0.0
 10
137.2314632436246
 20
-583.4278832578457
 30
0.0
 10
135.4513856489839
 20
-584.7958510660355
 30
0.0
 10
135.4513856489839
 20
-584.7958510660355
 30
0.0
 10
135.4513856489839
 20
-584.7958510660355
 30
0.0
 10
136.2698737419041
 20
-584.3150617737301
 30
0.0
 10
136.2698737419041
 20
-584.3150617737301
 30
0.0
 10
136.5789588110183
 20
-584.0116972674914
 30
0.0
 10
136.8193534571728
 20
-583.7770231842151
 30
0.0
 10
137.1971180321434
 20
-583.496562763703
 30
0.0
 10
137.5691620442358
 20
-583.2218338231742
 30
0.0
 10
138.0156061250627
 20
-583.1187981887306
 30
0.0
 10
138.4219953486381
 20
-582.8497898110836
 30
0.0
 10
138.8340942179839
 20
-582.5750499534461
 30
0.0
 10
139.4236397076129
 20
-582.4376800246282
 30
0.0
 10
139.8300180140795
 20
-582.294589532934
 30
0.0
 10
140.2364072376549
 20
-582.1686716469776
 30
0.0
 10
140.6828513184819
 20
-582.0656360125377
 30
0.0
 10
140.9518706132358
 20
-581.8538660149843
 30
0.0
 10
141.2323310337506
 20
-581.6478056632059
 30
0.0
 10
141.6100956087203
 20
-581.5104357343898
 30
0.0
 10
141.6100956087203
 20
-581.5104357343898
 30
0.0
 10
141.6100956087203
 20
-581.5104357343898
 30
0.0
 10
144.8897794603863
 20
-582.3346553072915
 30
0.0
 10
144.3402997451176
 20
-577.0001540033518
 30
0.0
 10
143.7965515098304
 20
-571.6656636165171
 30
0.0
 10
142.8349729252159
 20
-565.787424994398
 30
0.0
 10
142.8349729252159
 20
-565.787424994398
 30
0.0
 10
142.8349729252159
 20
-565.787424994398
 30
0.0
 10
130.6663695188663
 20
-512.7229378781431
 30
0.0
 10
130.6663695188663
 20
-512.7229378781431
 30
0.0
  0
SPLINE
  5
A4
330
41
100
AcDbEntity
  8
Layer 1
 62
   156
420
  1785491
370
    18
100
AcDbSpline
210
0.0
220
0.0
230
1.0
 70
     8
 71
     3
 72
    32
 73
    28
 74
     0
 42
0.0000000001
 43
0.0000000001
 12
1.0
 22
0.0
 32
0.0
 13
1.0
 23
0.0
 33
0.0
 40
0.0
 40
0.0
 40
0.0
 40
0.0
 40
1.0
 40
1.0
 40
1.0
 40
2.0
 40
2.0
 40
2.0
 40
3.0
 40
3.0
 40
3.0
 40
4.0
 40
4.0
 40
4.0
 40
5.0
 40
5.0
 40
5.0
 40
6.0
 40
6.0
 40
6.0
 40
7.0
 40
7.0
 40
7.0
 40
8.0
 40
8.0
 40
8.0
 40
9.0
 40
9.0
 40
9.0
 40
9.0
 10
174.3039094080259
 20
-505.3393506019111
 30
0.0
 10
174.3039094080259
 20
-505.3393506019111
 30
0.0
 10
166.2334834048124
 20
-528.7264308728572
 30
0.0
 10
166.2334834048124
 20
-528.7264308728572
 30
0.0
 10
166.2334834048124
 20
-528.7264308728572
 30
0.0
 10
157.0641088881657
 20
-559.5027971487052
 30
0.0
 10
157.0641088881657
 20
-559.5027971487052
 30
0.0
 10
157.0641088881657
 20
-559.5027971487052
 30
0.0
 10
151.7238870213496
 20
-574.9510680310595
 30
0.0
 10
151.3232292777593
 20
-576.0442959816173
 30
0.0
 10
150.9053989284293
 20
-577.1375239321696
 30
0.0
 10
150.3616397760388
 20
-578.9176015268113
 30
0.0
 10
149.131041896665
 20
-579.5987196909136
 30
0.0
 10
147.900454934399
 20
-580.2798378550178
 30
0.0
 10
146.9445859955576
 20
-580.4172077838339
 30
0.0
 10
146.9445859955576
 20
-580.4172077838339
 30
0.0
 10
146.9445859955576
 20
-580.4172077838339
 30
0.0
 10
147.4196547249876
 20
-580.4172077838339
 30
0.0
 10
146.7385365608834
 20
-580.4916187696726
 30
0.0
 10
146.051697833901
 20
-580.5603091926369
 30
0.0
 10
145.8513580450017
 20
-580.5202434182756
 30
0.0
 10
145.3362344583193
 20
-580.5202434182756
 30
0.0
 10
144.8268205174081
 20
-580.5202434182756
 30
0.0
 10
144.6150396027506
 20
-580.4172077838339
 30
0.0
 10
144.3803655194752
 20
-580.4515529953151
 30
0.0
 10
144.1399708733206
 20
-580.4916187696726
 30
0.0
 10
143.8652419327909
 20
-580.6576024299884
 30
0.0
 10
143.8652419327909
 20
-580.6576024299884
 30
0.0
  0
SPLINE
  5
A5
330
41
100
AcDbEntity
  8
Layer 1
 62
   156
420
  1785491
370
    18
100
AcDbSpline
210
0.0
220
0.0
230
1.0
 70
    11
 71
     3
 72
   644
 73
   640
 74
     0
 42
0.0000000001
 43
0.0000000001
 12
1.0
 22
0.0
 32
0.0
 13
1.0
 23
0.0
 33
0.0
 40
0.0
 40
0.0
 40
0.0
 40
0.0
 40
1.0
 40
1.0
 40
1.0
 40
2.0
 40
2.0
 40
2.0
 40
3.0
 40
3.0
 40
3.0
 40
4.0
 40
4.0
 40
4.0
 40
5.0
 40
5.0
 40
5.0
 40
6.0
 40
6.0
 40
6.0
 40
7.0
 40
7.0
 40
7.0
 40
8.0
 40
8.0
 40
8.0
 40
9.0
 40
9.0
 40
9.0
 40
10.0
 40
10.0
 40
10.0
 40
11.0
 40
11.0
 40
11.0
 40
12.0
 40
12.0
 40
12.0
 40
13.0
 40
13.0
 40
13.0
 40
14.0
 40
14.0
 40
14.0
 40
15.0
 40
15.0
 40
15.0
 40
16.0
 40
16.0
 40
16.0
 40
17.0
 40
17.0
 40
17.0
 40
18.0
 40
18.0
 40
18.0
 40
19.0
 40
19.0
 40
19.0
 40
20.0
 40
20.0
 40
20.0
 40
21.0
 40
21.0
 40
21.0
 40
22.0
 40
22.0
 40
22.0
 40
23.0
 40
23.0
 40
23.0
 40
24.0
 40
24.0
 40
24.0
 40
25.0
 40
25.0
 40
25.0
 40
26.0
 40
26.0
 40
26.0
 40
27.0
 40
27.0
 40
27.0
 40
28.0
 40
28.0
 40
28.0
 40
29.0
 40
29.0
 40
29.0
 40
30.0
 40
30.0
 40
30.0
 40
31.0
 40
31.0
 40
31.0
 40
32.0
 40
32.0
 40
32.0
 40
33.0
 40
33.0
 40
33.0
 40
34.0
 40
34.0
 40
34.0
 40
35.0
 40
35.0
 40
35.0
 40
36.0
 40
36.0
 40
36.0
 40
37.0
 40
37.0
 40
37.0
 40
38.0
 40
38.0
 40
38.0
 40
39.0
 40
39.0
 40
39.0
 40
40.0
 40
40.0
 40
40.0
 40
41.0
 40
41.0
 40
41.0
 40
42.0
 40
42.0
 40
42.0
 40
43.0
 40
43.0
 40
43.0
 40
44.0
 40
44.0
 40
44.0
 40
45.0
 40
45.0
 40
45.0
 40
46.0
 40
46.0
 40
46.0
 40
47.0
 40
47.0
 40
47.0
 40
48.0
 40
48.0
 40
48.0
 40
49.0
 40
49.0
 40
49.0
 40
50.0
 40
50.0
 40
50.0
 40
51.0
 40
51.0
 40
51.0
 40
52.0
 40
52.0
 40
52.0
 40
53.0
 40
53.0
 40
53.0
 40
54.0
 40
54.0
 40
54.0
 40
55.0
 40
55.0
 40
55.0
 40
56.0
 40
56.0
 40
56.0
 40
57.0
 40
57.0
 40
57.0
 40
58.0
 40
58.0
 40
58.0
 40
59.0
 40
59.0
 40
59.0
 40
60.0
 40
60.0
 40
60.0
 40
61.0
 40
61.0
 40
61.0
 40
62.0
 40
62.0
 40
62.0
 40
63.0
 40
63.0
 40
63.0
 40
64.0
 40
64.0
 40
64.0
 40
65.0
 40
65.0
 40
65.0
 40
66.0
 40
66.0
 40
66.0
 40
67.0
 40
67.0
 40
67.0
 40
68.0
 40
68.0
 40
68.0
 40
69.0
 40
69.0
 40
69.0
 40
70.0
 40
70.0
 40
70.0
 40
71.0
 40
71.0
 40
71.0
 40
72.0
 40
72.0
 40
72.0
 40
73.0
 40
73.0
 40
73.0
 40
74.0
 40
74.0
 40
74.0
 40
75.0
 40
75.0
 40
75.0
 40
76.0
 40
76.0
 40
76.0
 40
77.0
 40
77.0
 40
77.0
 40
78.0
 40
78.0
 40
78.0
 40
79.0
 40
79.0
 40
79.0
 40
80.0
 40
80.0
 40
80.0
 40
81.0
 40
81.0
 40
81.0
 40
82.0
 40
82.0
 40
82.0
 40
83.0
 40
83.0
 40
83.0
 40
84.0
 40
84.0
 40
84.0
 40
85.0
 40
85.0
 40
85.0
 40
86.0
 40
86.0
 40
86.0
 40
87.0
 40
87.0
 40
87.0
 40
88.0
 40
88.0
 40
88.0
 40
89.0
 40
89.0
 40
89.0
 40
90.0
 40
90.0
 40
90.0
 40
91.0
 40
91.0
 40
91.0
 40
92.0
 40
92.0
 40
92.0
 40
93.0
 40
93.0
 40
93.0
 40
94.0
 40
94.0
 40
94.0
 40
95.0
 40
95.0
 40
95.0
 40
96.0
 40
96.0
 40
96.0
 40
97.0
 40
97.0
 40
97.0
 40
98.0
 40
98.0
 40
98.0
 40
99.0
 40
99.0
 40
99.0
 40
100.0
 40
100.0
 40
100.0
 40
101.0
 40
101.0
 40
101.0
 40
102.0
 40
102.0
 40
102.0
 40
103.0
 40
103.0
 40
103.0
 40
104.0
 40
104.0
 40
104.0
 40
105.0
 40
105.0
 40
105.0
 40
106.0
 40
106.0
 40
106.0
 40
107.0
 40
107.0
 40
107.0
 40
108.0
 40
108.0
 40
108.0
 40
109.0
 40
109.0
 40
109.0
 40
110.0
 40
110.0
 40
110.0
 40
111.0
 40
111.0
 40
111.0
 40
112.0
 40
112.0
 40
112.0
 40
113.0
 40
113.0
 40
113.0
 40
114.0
 40
114.0
 40
114.0
 40
115.0
 40
115.0
 40
115.0
 40
116.0
 40
116.0
 40
116.0
 40
117.0
 40
117.0
 40
117.0
 40
118.0
 40
118.0
 40
118.0
 40
119.0
 40
119.0
 40
119.0
 40
120.0
 40
120.0
 40
120.0
 40
121.0
 40
121.0
 40
121.0
 40
122.0
 40
122.0
 40
122.0
 40
123.0
 40
123.0
 40
123.0
 40
124.0
 40
124.0
 40
124.0
 40
125.0
 40
125.0
 40
125.0
 40
126.0
 40
126.0
 40
126.0
 40
127.0
 40
127.0
 40
127.0
 40
128.0
 40
128.0
 40
128.0
 40
129.0
 40
129.0
 40
129.0
 40
130.0
 40
130.0
 40
130.0
 40
131.0
 40
131.0
 40
131.0
 40
132.0
 40
132.0
 40
132.0
 40
133.0
 40
133.0
 40
133.0
 40
134.0
 40
134.0
 40
134.0
 40
135.0
 40
135.0
 40
135.0
 40
136.0
 40
136.0
 40
136.0
 40
137.0
 40
137.0
 40
137.0
 40
138.0
 40
138.0
 40
138.0
 40
139.0
 40
139.0
 40
139.0
 40
140.0
 40
140.0
 40
140.0
 40
141.0
 40
141.0
 40
141.0
 40
142.0
 40
142.0
 40
142.0
 40
143.0
 40
143.0
 40
143.0
 40
144.0
 40
144.0
 40
144.0
 40
145.0
 40
145.0
 40
145.0
 40
146.0
 40
146.0
 40
146.0
 40
147.0
 40
147.0
 40
147.0
 40
148.0
 40
148.0
 40
148.0
 40
149.0
 40
149.0
 40
149.0
 40
150.0
 40
150.0
 40
150.0
 40
151.0
 40
151.0
 40
151.0
 40
152.0
 40
152.0
 40
152.0
 40
153.0
 40
153.0
 40
153.0
 40
154.0
 40
154.0
 40
154.0
 40
155.0
 40
155.0
 40
155.0
 40
156.0
 40
156.0
 40
156.0
 40
157.0
 40
157.0
 40
157.0
 40
158.0
 40
158.0
 40
158.0
 40
159.0
 40
159.0
 40
159.0
 40
160.0
 40
160.0
 40
160.0
 40
161.0
 40
161.0
 40
161.0
 40
162.0
 40
162.0
 40
162.0
 40
163.0
 40
163.0
 40
163.0
 40
164.0
 40
164.0
 40
164.0
 40
165.0
 40
165.0
 40
165.0
 40
166.0
 40
166.0
 40
166.0
 40
167.0
 40
167.0
 40
167.0
 40
168.0
 40
168.0
 40
168.0
 40
169.0
 40
169.0
 40
169.0
 40
170.0
 40
170.0
 40
170.0
 40
171.0
 40
171.0
 40
171.0
 40
172.0
 40
172.0
 40
172.0
 40
173.0
 40
173.0
 40
173.0
 40
174.0
 40
174.0
 40
174.0
 40
175.0
 40
175.0
 40
175.0
 40
176.0
 40
176.0
 40
176.0
 40
177.0
 40
177.0
 40
177.0
 40
178.0
 40
178.0
 40
178.0
 40
179.0
 40
179.0
 40
179.0
 40
180.0
 40
180.0
 40
180.0
 40
181.0
 40
181.0
 40
181.0
 40
182.0
 40
182.0
 40
182.0
 40
183.0
 40
183.0
 40
183.0
 40
184.0
 40
184.0
 40
184.0
 40
185.0
 40
185.0
 40
185.0
 40
186.0
 40
186.0
 40
186.0
 40
187.0
 40
187.0
 40
187.0
 40
188.0
 40
188.0
 40
188.0
 40
189.0
 40
189.0
 40
189.0
 40
190.0
 40
190.0
 40
190.0
 40
191.0
 40
191.0
 40
191.0
 40
192.0
 40
192.0
 40
192.0
 40
193.0
 40
193.0
 40
193.0
 40
194.0
 40
194.0
 40
194.0
 40
195.0
 40
195.0
 40
195.0
 40
196.0
 40
196.0
 40
196.0
 40
197.0
 40
197.0
 40
197.0
 40
198.0
 40
198.0
 40
198.0
 40
199.0
 40
199.0
 40
199.0
 40
200.0
 40
200.0
 40
200.0
 40
201.0
 40
201.0
 40
201.0
 40
202.0
 40
202.0
 40
202.0
 40
203.0
 40
203.0
 40
203.0
 40
204.0
 40
204.0
 40
204.0
 40
205.0
 40
205.0
 40
205.0
 40
206.0
 40
206.0
 40
206.0
 40
207.0
 40
207.0
 40
207.0
 40
208.0
 40
208.0
 40
208.0
 40
209.0
 40
209.0
 40
209.0
 40
210.0
 40
210.0
 40
210.0
 40
211.0
 40
211.0
 40
211.0
 40
212.0
 40
212.0
 40
212.0
 40
213.0
 40
213.0
 40
213.0
 40
213.0
 10
174.7102877144953
 20
-504.3777720172966
 30
0.0
 10
174.7102877144953
 20
-504.3777720172966
 30
0.0
 10
174.0291695503929
 20
-503.8340128649033
 30
0.0
 10
174.0291695503929
 20
-503.8340128649033
 30
0.0
 10
174.0291695503929
 20
-503.8340128649033
 30
0.0
 10
173.3423308234114
 20
-502.8781548431671
 30
0.0
 10
172.9989005428151
 20
-503.6966538531942
 30
0.0
 10
172.661201742203
 20
-504.5208734260959
 30
0.0
 10
173.6170597639411
 20
-504.9272517325644
 30
0.0
 10
172.0373219582007
 20
-504.7956132837317
 30
0.0
 10
170.4690252782138
 20
-504.6525118749287
 30
0.0
 10
170.331655349396
 20
-504.0400841337869
 30
0.0
 10
169.2384273988428
 20
-504.6525118749287
 30
0.0
 10
168.1394788854104
 20
-505.2706601789505
 30
0.0
 10
169.3071178218033
 20
-505.9518001772631
 30
0.0
 10
166.6398617112818
 20
-505.6827808825074
 30
0.0
 10
163.9726165178627
 20
-505.4080410248716
 30
0.0
 10
162.94807899027
 20
-506.2322605977752
 30
0.0
 10
161.9235305455732
 20
-504.5208734260959
 30
0.0
 10
160.8989930179778
 20
-502.8094862544149
 30
0.0
 10
161.2366918185926
 20
-502.5347463967828
 30
0.0
 10
160.6872121033202
 20
-502.5347463967828
 30
0.0
 10
160.1434638680357
 20
-502.5347463967828
 30
0.0
 10
159.3192442951331
 20
-502.603414985535
 30
0.0
 10
158.0886464157593
 20
-502.6721054084919
 30
0.0
 10
156.8580485363873
 20
-502.7407958314543
 30
0.0
 10
154.808962564096
 20
-502.4660559738186
 30
0.0
 10
154.3968527776442
 20
-502.4660559738186
 30
0.0
 10
153.9904744711748
 20
-502.4660559738186
 30
0.0
 10
147.4253862049691
 20
-502.7407958314543
 30
0.0
 10
146.669857055027
 20
-503.4906044185173
 30
0.0
 10
145.9200484679641
 20
-504.2404130055802
 30
0.0
 10
145.7769579762671
 20
-503.9084238507457
 30
0.0
 10
144.6837300257112
 20
-505.6827808825074
 30
0.0
 10
143.5905020751579
 20
-507.4628584771472
 30
0.0
 10
143.9339214386482
 20
-509.3745745206252
 30
0.0
 10
141.26667624523
 20
-509.2429142375804
 30
0.0
 10
138.5994310518145
 20
-509.0998346629876
 30
0.0
 10
136.4759340936835
 20
-508.075286218289
 30
0.0
 10
135.3197472001502
 20
-507.937927206578
 30
0.0
 10
134.1521082637546
 20
-507.8005463606569
 30
0.0
 10
134.0147383349395
 20
-508.0065957953302
 30
0.0
 10
132.5838115837714
 20
-507.3941680541866
 30
0.0
 10
131.1414327897419
 20
-506.7702773530782
 30
0.0
 10
130.1168952621492
 20
-505.4080410248716
 30
0.0
 10
129.4987360410223
 20
-506.5012580583225
 30
0.0
 10
128.8862973827772
 20
-507.5944969259817
 30
0.0
 10
128.9549823471834
 20
-509.0311442400252
 30
0.0
 10
127.5870199975479
 20
-510.6738409887457
 30
0.0
 10
126.219052189359
 20
-512.3165595716728
 30
0.0
 10
124.6450349464967
 20
-512.9289873128164
 30
0.0
 10
123.620486501798
 20
-514.1595851921902
 30
0.0
 10
122.5959435156528
 20
-515.3901830715622
 30
0.0
 10
121.8404143657081
 20
-516.0083532097906
 30
0.0
 10
121.6343649310356
 20
-516.3460410932967
 30
0.0
 10
121.4340306006879
 20
-516.689471373893
 30
0.0
 10
120.3408026501338
 20
-515.93966278683
 30
0.0
 10
119.2418541367006
 20
-516.4147315162609
 30
0.0
 10
118.1486261861464
 20
-516.8955208085663
 30
0.0
 10
116.8493433423646
 20
-516.689471373893
 30
0.0
 10
116.2311841212404
 20
-517.170260666202
 30
0.0
 10
115.6187454629926
 20
-517.645329395631
 30
0.0
 10
115.1379561706854
 20
-517.7826884073438
 30
0.0
 10
115.1379561706854
 20
-517.7826884073438
 30
0.0
 10
115.1379561706854
 20
-517.7826884073438
 30
0.0
 10
114.7945313486434
 20
-518.1948091109007
 30
0.0
 10
113.5696594907013
 20
-516.4834219392214
 30
0.0
 10
112.3333410484502
 20
-514.7720347675404
 30
0.0
 10
110.4903045108313
 20
-513.8161549115939
 30
0.0
 10
110.078200182933
 20
-513.953535757515
 30
0.0
 10
109.6660903964803
 20
-514.0966371663162
 30
0.0
 10
109.2539860685811
 20
-514.8464239191708
 30
0.0
 10
107.479634495372
 20
-515.5962325062337
 30
0.0
 10
105.6995623592829
 20
-516.3460410932967
 30
0.0
 10
105.9056172525079
 20
-515.6649229291943
 30
0.0
 10
104.6692933517061
 20
-516.6265015138124
 30
0.0
 10
103.4444214937648
 20
-517.5766389726705
 30
0.0
 10
102.0020481582878
 20
-518.5324969944068
 30
0.0
 10
100.9145407706128
 20
-519.0132862867158
 30
0.0
 10
99.81559225717865
 20
-519.4940755790249
 30
0.0
 10
98.79104927103344
 20
-519.0819767096764
 30
0.0
 10
97.90387075515173
 20
-520.381265012009
 30
0.0
 10
97.01669769782256
 20
-521.6805314801313
 30
0.0
 10
96.26116854788052
 20
-524.6282370940626
 30
0.0
 10
95.23662556173349
 20
-525.3036346952886
 30
0.0
 10
94.21208257558919
 20
-525.9904952564793
 30
0.0
 10
92.36332547509028
 20
-525.7157553988454
 30
0.0
 10
91.75088681684429
 20
-525.3723251182491
 30
0.0
 10
91.13272759571919
 20
-525.0346372347394
 30
0.0
 10
89.49002538844798
 20
-524.073058650125
 30
0.0
 10
89.49002538844798
 20
-524.073058650125
 30
0.0
 10
89.49002538844798
 20
-524.073058650125
 30
0.0
 10
87.64126828794997
 20
-524.8972563888201
 30
0.0
 10
86.8227747364781
 20
-525.584116950009
 30
0.0
 10
86.00428664355695
 20
-526.259514551235
 30
0.0
 10
84.4989543651036
 20
-526.0591638452315
 30
0.0
 10
83.26263046430086
 20
-527.633192005198
 30
0.0
 10
82.03203258492795
 20
-529.2072201651663
 30
0.0
 10
80.12031108290103
 20
-531.800054372743
 30
0.0
 10
79.70821221355436
 20
-533.8548718250186
 30
0.0
 10
79.3018229899817
 20
-535.9039468802057
 30
0.0
 10
79.3018229899817
 20
-537.5409230660462
 30
0.0
 10
77.85945511305727
 20
-539.1893622118532
 30
0.0
 10
76.42852836189013
 20
-540.8320589605719
 30
0.0
 10
76.42852836189013
 20
-541.8508868423942
 30
0.0
 10
73.62391323965494
 20
-543.630964437034
 30
0.0
 10
70.81928720031556
 20
-545.4110201974636
 30
0.0
 10
70.40718833096889
 20
-545.4739900575478
 30
0.0
 10
68.83316017100151
 20
-546.9163579344713
 30
0.0
 10
67.26487440812161
 20
-548.3530052485148
 30
0.0
 10
65.89690659993357
 20
-549.1028138355814
 30
0.0
 10
65.00400752117366
 20
-549.8526224226443
 30
0.0
 10
64.11682900529195
 20
-550.6081515725855
 30
0.0
 10
63.36702041822718
 20
-551.1519107249787
 30
0.0
 10
63.36702041822718
 20
-551.1519107249787
 30
0.0
 10
63.36702041822718
 20
-551.1519107249787
 30
0.0
 10
63.70471921884109
 20
-552.5885580390241
 30
0.0
 10
62.74886119710391
 20
-554.9867839376857
 30
0.0
 10
61.7930031753649
 20
-557.3735687105891
 30
0.0
 10
60.28194487547989
 20
-559.5600246116992
 30
0.0
 10
59.32608685374362
 20
-560.590293619276
 30
0.0
 10
58.37022883200461
 20
-561.6148420639747
 30
0.0
 10
57.40865024739014
 20
-562.4390616368783
 30
0.0
 10
57.40865024739014
 20
-563.8699883880454
 30
0.0
 10
57.40865024739014
 20
-565.3066357020907
 30
0.0
 10
56.72752116618176
 20
-569.4105282095534
 30
0.0
 10
56.38410180269148
 20
-570.0229559506952
 30
0.0
 10
56.04640300207939
 20
-570.6411151718185
 30
0.0
 10
55.3652848379752
 20
-571.5282936876993
 30
0.0
 10
55.3652848379752
 20
-571.5282936876993
 30
0.0
 10
55.3652848379752
 20
-571.5282936876993
 30
0.0
 10
53.8542265380911
 20
-572.1464529088262
 30
0.0
 10
53.03573844516995
 20
-573.033631424707
 30
0.0
 10
52.21723943514553
 20
-573.9208099405878
 30
0.0
 10
51.46171028520257
 20
-574.9453474681814
 30
0.0
 10
50.30552339167025
 20
-575.97561647576
 30
0.0
 10
49.13788445527734
 20
-577.0058854833369
 30
0.0
 10
49.20657487823792
 20
-578.2307518827238
 30
0.0
 10
48.25071685650073
 20
-580.6919476414696
 30
0.0
 10
47.29485883476173
 20
-583.1531434002136
 30
0.0
 10
46.67669961363663
 20
-584.2463713507659
 30
0.0
 10
46.4706392618582
 20
-585.7574296506536
 30
0.0
 10
46.26458982718577
 20
-587.2570468247814
 30
0.0
 10
46.4706392618582
 20
-590.8114596169762
 30
0.0
 10
46.94570799128815
 20
-591.6299586269997
 30
0.0
 10
47.4264972835972
 20
-592.4541672827982
 30
0.0
 10
49.54427367884909
 20
-593.822135090988
 30
0.0
 10
50.23111240583057
 20
-594.0968749486201
 30
0.0
 10
50.91796204991806
 20
-594.3716148062558
 30
0.0
 10
52.82967809339152
 20
-594.3716148062558
 30
0.0
 10
52.35460936396248
 20
-595.3961523338494
 30
0.0
 10
51.87382007165434
 20
-596.420700778548
 30
0.0
 10
50.70618113526052
 20
-597.9947180214112
 30
0.0
 10
50.5001317005881
 20
-598.8818856201888
 30
0.0
 10
50.30552339167025
 20
-599.7690641360696
 30
0.0
 10
50.16243289997419
 20
-599.4313653354548
 30
0.0
 10
48.86315551474672
 20
-601.82387067124
 30
0.0
 10
47.56386721241324
 20
-604.2163869241267
 30
0.0
 10
45.85248004073492
 20
-606.746262188728
 30
0.0
 10
44.75925209017805
 20
-608.3832383745685
 30
0.0
 10
43.66602413962482
 20
-610.0259460403904
 30
0.0
 10
43.66602413962482
 20
-611.668653706216
 30
0.0
 10
42.5041166832134
 20
-612.2810814473578
 30
0.0
 10
41.33647774681958
 20
-612.899251585588
 30
0.0
 10
40.11160043032487
 20
-612.6245117279523
 30
0.0
 10
40.24897035914273
 20
-613.4429998208725
 30
0.0
 10
40.3806197250824
 20
-614.2672084766709
 30
0.0
 10
40.51798965389844
 20
-614.0611590419994
 30
0.0
 10
42.09200689676254
 20
-615.2230664984108
 30
0.0
 10
43.66602413962482
 20
-616.3907054348037
 30
0.0
 10
43.93504343438053
 20
-616.2533355059859
 30
0.0
 10
44.82794251314044
 20
-617.6155827512994
 30
0.0
 10
45.71511011191706
 20
-618.9835505594856
 30
0.0
 10
49.26953382121519
 20
-621.1070475176166
 30
0.0
 10
49.13788445527734
 20
-625.2738989680583
 30
0.0
 10
49.00052544356458
 20
-629.4464818984816
 30
0.0
 10
50.02506297115815
 20
-628.7653637343792
 30
0.0
 10
48.45104572829587
 20
-631.4326089277984
 30
0.0
 10
46.87702848543177
 20
-634.0941335583339
 30
0.0
 10
46.94570799128815
 20
-636.3550004452845
 30
0.0
 10
46.05854039251153
 20
-637.3795379728799
 30
0.0
 10
45.17136187663073
 20
-638.4040864175768
 30
0.0
 10
44.55320265550563
 20
-638.8161962040303
 30
0.0
 10
44.82794251314044
 20
-639.3599444393149
 30
0.0
 10
45.10267145366925
 20
-639.9094241545827
 30
0.0
 10
44.14109286905477
 20
-641.9585101268749
 30
0.0
 10
45.03399194781377
 20
-643.9389056762066
 30
0.0
 10
45.91543898371219
 20
-645.9307641855048
 30
0.0
 10
47.4264972835972
 20
-648.3862284642637
 30
0.0
 10
47.7012371412311
 20
-649.9602457071287
 30
0.0
 10
47.97597699886592
 20
-651.534273867097
 30
0.0
 10
47.83288650716895
 20
-652.8335512523226
 30
0.0
 10
49.34394480705578
 20
-654.9513167304722
 30
0.0
 10
50.84355106407838
 20
-657.0748136886032
 30
0.0
 10
50.7805921211002
 20
-657.8246222756661
 30
0.0
 10
52.01119000047129
 20
-660.1484481055941
 30
0.0
 10
53.2417878798442
 20
-662.4779944983984
 30
0.0
 10
55.02186547448491
 20
-663.3651730142792
 30
0.0
 10
55.69726307571
 20
-664.3210310360191
 30
0.0
 10
56.38410180269148
 20
-665.2826096206354
 30
0.0
 10
58.64496868964034
 20
-666.0324182076984
 30
0.0
 10
59.12003741906938
 20
-666.6448568659453
 30
0.0
 10
59.60082671137752
 20
-667.2572955241903
 30
0.0
 10
59.26312791076452
 20
-666.9882762294365
 30
0.0
 10
60.15030642664715
 20
-668.6309838952602
 30
0.0
 10
61.03747402542376
 20
-670.2679600811007
 30
0.0
 10
60.01293649782838
 20
-670.6800698675506
 30
0.0
 10
61.518263317731
 20
-671.9793472527799
 30
0.0
 10
63.0236010547369
 20
-673.2786355551125
 30
0.0
 10
62.54281176242966
 20
-673.1469861891728
 30
0.0
 10
64.72926766353794
 20
-673.7594248474215
 30
0.0
 10
66.92144412752714
 20
-674.3718635056684
 30
0.0
 10
68.15204200689823
 20
-674.303173082706
 30
0.0
 10
69.1765904515978
 20
-675.2590311044441
 30
0.0
 10
70.20112797919046
 20
-676.2206206061637
 30
0.0
 10
70.61323776564313
 20
-677.1077882049394
 30
0.0
 10
70.67619670862041
 20
-678.4070765072738
 30
0.0
 10
70.75060769445918
 20
-679.7063538925013
 30
0.0
 10
70.54455825978675
 20
-681.074321700693
 30
0.0
 10
70.67619670862041
 20
-682.6483389435562
 30
0.0
 10
70.81928720031556
 20
-684.2166356235393
 30
0.0
 10
69.7890291098438
 20
-685.040855196441
 30
0.0
 10
71.43172585856246
 20
-684.2166356235393
 30
0.0
 10
73.07443352438622
 20
-683.3981475306191
 30
0.0
 10
74.91747006200512
 20
-683.1291282358616
 30
0.0
 10
76.29115843307227
 20
-683.6041969652906
 30
0.0
 10
77.65912624126213
 20
-684.0849862575997
 30
0.0
 10
78.20859503942665
 20
-684.3540055523572
 30
0.0
 10
78.81531313479445
 20
-685.040855196441
 30
0.0
 10
79.43919291879865
 20
-685.7276939234216
 30
0.0
 10
81.21353903345607
 20
-684.4913754811714
 30
0.0
 10
80.12031108290103
 20
-686.134083146997
 30
0.0
 10
79.02136256946869
 20
-687.7710593328375
 30
0.0
 10
78.3459649682436
 20
-687.2959906034084
 30
0.0
 10
78.6836637688557
 20
-688.6639584115983
 30
0.0
 10
79.02136256946869
 20
-690.026194739803
 30
0.0
 10
79.36478193295898
 20
-690.5127045949885
 30
0.0
 10
80.73274974114702
 20
-691.3312036050138
 30
0.0
 10
82.10644357076853
 20
-692.1497026150391
 30
0.0
 10
82.37545740697169
 20
-692.9052317649821
 30
0.0
 10
83.81210472101702
 20
-692.4988316243034
 30
0.0
 10
85.25448351504565
 20
-692.0810121920767
 30
0.0
 10
84.43026940069467
 20
-692.8365413420215
 30
0.0
 10
86.00428664355695
 20
-691.4685626167266
 30
0.0
 10
87.57830388641923
 20
-690.1006057256418
 30
0.0
 10
87.36652843031698
 20
-689.6198164333346
 30
0.0
 10
88.80318120291395
 20
-689.4824355874134
 30
0.0
 10
90.24555453839002
 20
-689.3450765757007
 30
0.0
 10
89.28397049522118
 20
-687.845470318678
 30
0.0
 10
90.7950287951071
 20
-688.3892185539626
 30
0.0
 10
92.29464051068135
 20
-688.9386982692304
 30
0.0
 10
93.46227944707607
 20
-689.2821067156165
 30
0.0
 10
94.34945250440524
 20
-690.718775863872
 30
0.0
 10
95.23662556173349
 20
-692.1497026150391
 30
0.0
 10
95.16794059732638
 20
-693.6550185178367
 30
0.0
 10
95.58005038377723
 20
-694.2674680931868
 30
0.0
 10
95.99215471167645
 20
-694.8856163972087
 30
0.0
 10
96.66755231290153
 20
-695.5724769584012
 30
0.0
 10
96.66755231290153
 20
-696.5912830060097
 30
0.0
 10
96.66755231290153
 20
-697.6272725764666
 30
0.0
 10
96.05511365465372
 20
-698.9895307388815
 30
0.0
 10
96.74196329874121
 20
-699.4016296082282
 30
0.0
 10
97.42308146284358
 20
-699.8080079146966
 30
0.0
 10
96.8793277690047
 20
-699.5390104541475
 30
0.0
 10
97.90387075515173
 20
-699.6763694658639
 30
0.0
 10
98.92841919984949
 20
-699.8080079146966
 30
0.0
 10
99.40920849215854
 20
-700.2887972070021
 30
0.0
 10
100.4337514783047
 20
-700.6951973476807
 30
0.0
 10
101.4582944644508
 20
-701.1072962170292
 30
0.0
 10
101.4582944644508
 20
-701.2503976258286
 30
0.0
 10
102.8949472370477
 20
-701.3820360746613
 30
0.0
 10
104.3315945510931
 20
-701.5193950863777
 30
0.0
 10
104.1255451164207
 20
-700.8325563593953
 30
0.0
 10
106.0429871813258
 20
-700.5635370646378
 30
0.0
 10
107.9547032248001
 20
-700.2887972070021
 30
0.0
 10
107.6170044241881
 20
-699.2585281994288
 30
0.0
 10
108.778917339152
 20
-700.7695864993111
 30
0.0
 10
109.9465508169942
 20
-702.2692036734406
 30
0.0
 10
110.009515218524
 20
-702.3378940964012
 30
0.0
 10
112.7454453763503
 20
-703.1621136693047
 30
0.0
 10
115.4813755341765
 20
-703.9805908451199
 30
0.0
 10
115.2753260995023
 20
-704.936448866858
 30
0.0
 10
117.3988175990826
 20
-704.3927115486767
 30
0.0
 10
119.5165885357828
 20
-703.8432318334071
 30
0.0
 10
118.9613937161866
 20
-703.2994726810175
 30
0.0
 10
121.0219262727878
 20
-703.8432318334071
 30
0.0
 10
123.0710122450801
 20
-704.3927115486767
 30
0.0
 10
122.315483095138
 20
-704.3927115486767
 30
0.0
 10
124.3702950888637
 20
-704.7303994321828
 30
0.0
 10
126.4193810611523
 20
-705.0795502756591
 30
0.0
 10
126.9745813393001
 20
-704.5930404204701
 30
0.0
 10
127.8617543966302
 20
-704.5243499975113
 30
0.0
 10
128.7489274539594
 20
-704.4556595745507
 30
0.0
 10
128.6859685109812
 20
-705.1424983015313
 30
0.0
 10
130.3172241339435
 20
-705.6919780168009
 30
0.0
 10
131.9656523626454
 20
-706.2357371691905
 30
0.0
 10
132.0972908114809
 20
-707.2602856138892
 30
0.0
 10
132.9215103843826
 20
-706.2987070292729
 30
0.0
 10
133.7457190401819
 20
-705.3485695704148
 30
0.0
 10
133.1962502420183
 20
-705.1424983015313
 30
0.0
 10
134.7015770619209
 20
-704.3240211257162
 30
0.0
 10
136.206914798925
 20
-703.4998015528108
 30
0.0
 10
137.0940933148058
 20
-703.2307822580551
 30
0.0
 10
139.0058093582829
 20
-703.2994726810175
 30
0.0
 10
140.9232459646364
 20
-703.3624425410999
 30
0.0
 10
140.8545664587782
 20
-704.4556595745507
 30
0.0
 10
142.6346440534189
 20
-704.4556595745507
 30
0.0
 10
144.4147107309573
 20
-704.4556595745507
 30
0.0
 10
144.0712913674661
 20
-705.0795502756591
 30
0.0
 10
145.5022181186314
 20
-703.7802619733266
 30
0.0
 10
146.9445859955576
 20
-702.4752531081122
 30
0.0
 10
146.3321582544158
 20
-701.5880855093383
 30
0.0
 10
147.5570246538027
 20
-701.7254663552576
 30
0.0
 10
148.7876225331738
 20
-701.8571048040922
 30
0.0
 10
149.0623623908104
 20
-701.2503976258286
 30
0.0
 10
149.0623623908104
 20
-702.6813243769975
 30
0.0
 10
149.0623623908104
 20
-704.117971691041
 30
0.0
 10
147.9691344402536
 20
-704.936448866858
 30
0.0
 10
149.131041896665
 20
-705.966717874433
 30
0.0
 10
150.2929602701824
 20
-706.9912663191317
 30
0.0
 10
151.0484894201236
 20
-707.6723844832359
 30
0.0
 10
151.7238870213496
 20
-706.5104770268244
 30
0.0
 10
152.4107257483311
 20
-705.3485695704148
 30
0.0
 10
151.6666486412496
 20
-705.8293588627221
 30
0.0
 10
152.6225066629886
 20
-704.5243499975113
 30
0.0
 10
153.578364684724
 20
-703.2307822580551
 30
0.0
 10
152.828556097661
 20
-702.8129628258303
 30
0.0
 10
154.3968527776442
 20
-702.887373811669
 30
0.0
 10
155.9708809376134
 20
-702.9560424004212
 30
0.0
 10
155.2897518564041
 20
-702.9560424004212
 30
0.0
 10
157.8196380381114
 20
-703.0247328233818
 30
0.0
 10
160.3495133027081
 20
-703.0934232463442
 30
0.0
 10
159.8000335874394
 20
-702.5439435310727
 30
0.0
 10
161.8548510397159
 20
-703.2307822580551
 30
0.0
 10
163.9096575748872
 20
-703.9119222563677
 30
0.0
 10
164.2473563754984
 20
-704.3240211257162
 30
0.0
 10
164.6594661619501
 20
-703.4998015528108
 30
0.0
 10
165.0715650312977
 20
-702.6813243769975
 30
0.0
 10
163.7665670831902
 20
-701.9257952270546
 30
0.0
 10
165.8213736183607
 20
-702.4065845193618
 30
0.0
 10
167.8704595906529
 20
-702.887373811669
 30
0.0
 10
166.8459220630602
 20
-704.6674514063106
 30
0.0
 10
169.0323779641694
 20
-702.887373811669
 30
0.0
 10
171.2188338652804
 20
-701.1072962170292
 30
0.0
 10
171.0185049934826
 20
-701.7254663552576
 30
0.0
 10
171.6309327346253
 20
-700.1457176324147
 30
0.0
 10
172.2491028728546
 20
-698.583130598201
 30
0.0
 10
172.3864618845701
 20
-697.5528834248344
 30
0.0
 10
173.0733115286539
 20
-697.4784724389956
 30
0.0
 10
173.7544296927572
 20
-697.415502578915
 30
0.0
 10
176.0095760168269
 20
-696.8717434265218
 30
0.0
 10
177.1028039673838
 20
-696.1849046995394
 30
0.0
 10
178.2017524808161
 20
-695.503786535437
 30
0.0
 10
176.9024750955869
 20
-695.8472168160333
 30
0.0
 10
178.9515610678791
 20
-695.0229972431316
 30
0.0
 10
181.000647040174
 20
-694.2044982331063
 30
0.0
 10
182.6490752688751
 20
-692.9681797908543
 30
0.0
 10
183.6678922335905
 20
-693.3116100714506
 30
0.0
 10
184.6981612411673
 20
-693.6550185178367
 30
0.0
 10
184.7725722270061
 20
-694.1358296443541
 30
0.0
 10
185.9287591205384
 20
-694.5422079508226
 30
0.0
 10
187.0963980569313
 20
-694.9543068201674
 30
0.0
 10
187.2910063658492
 20
-695.9788552648679
 30
0.0
 10
188.0522560786703
 20
-694.8856163972087
 30
0.0
 10
188.8020646657333
 20
-693.7923993637578
 30
0.0
 10
188.0522560786703
 20
-693.5176595061239
 30
0.0
 10
189.0023935375293
 20
-693.1742292255276
 30
0.0
 10
189.9582515592683
 20
-692.8365413420215
 30
0.0
 10
188.5273248081003
 20
-691.8119928973229
 30
0.0
 10
190.9198301438828
 20
-692.6304919073482
 30
0.0
 10
193.3123354796653
 20
-693.4489690831633
 30
0.0
 10
193.0433271020138
 20
-694.6166189366613
 30
0.0
 10
194.8863636396336
 20
-693.7237089407972
 30
0.0
 10
196.7351207401289
 20
-692.8365413420215
 30
0.0
 10
198.0343981253582
 20
-692.0123217691162
 30
0.0
 10
198.9902561470963
 20
-691.5315324768108
 30
0.0
 10
199.9461141688344
 20
-691.0564637473799
 30
0.0
 10
201.1767120482064
 20
-690.1006057256418
 30
0.0
 10
201.1767120482064
 20
-690.1006057256418
 30
0.0
 10
201.1767120482064
 20
-690.1006057256418
 30
0.0
 10
202.2069810557814
 20
-689.2077175639879
 30
0.0
 10
202.2069810557814
 20
-689.2077175639879
 30
0.0
 10
202.2069810557814
 20
-689.2077175639879
 30
0.0
 10
202.893830699868
 20
-688.5265775656753
 30
0.0
 10
202.9567896428471
 20
-689.9632467139309
 30
0.0
 10
203.0254691487016
 20
-691.3941734650962
 30
0.0
 10
203.4375789351534
 20
-692.3557520497125
 30
0.0
 10
204.1873875222182
 20
-690.7817238897442
 30
0.0
 10
204.9429166721602
 20
-689.2077175639879
 30
0.0
 10
202.9567896428471
 20
-689.6198164333346
 30
0.0
 10
205.0115961780184
 20
-688.801317423311
 30
0.0
 10
207.0664136302912
 20
-687.9771087675108
 30
0.0
 10
205.9674541997538
 20
-688.5265775656753
 30
0.0
 10
207.8849017232124
 20
-687.7081003898602
 30
0.0
 10
209.8023383295649
 20
-686.8838808169548
 30
0.0
 10
210.0026672013619
 20
-687.2273110975511
 30
0.0
 10
210.6895168454485
 20
-685.8593432893613
 30
0.0
 10
211.3706350095508
 20
-684.4913754811714
 30
0.0
 10
209.5905683320134
 20
-685.241184068238
 30
0.0
 10
211.4393254325114
 20
-684.010586188866
 30
0.0
 10
213.2823510530252
 20
-682.7857088723704
 30
0.0
 10
213.0133426753737
 20
-683.5297859794518
 30
0.0
 10
214.7934093529111
 20
-682.0988592282865
 30
0.0
 10
216.5677663846736
 20
-680.6622119142394
 30
0.0
 10
216.5677663846736
 20
-681.074321700693
 30
0.0
 10
217.4606654634326
 20
-679.7063538925013
 30
0.0
 10
218.3478330622083
 20
-678.3383860843132
 30
0.0
 10
216.4990759617103
 20
-678.269706578456
 30
0.0
 10
218.616852356965
 20
-677.7946378490269
 30
0.0
 10
220.7403493150969
 20
-677.3138485567215
 30
0.0
 10
221.0837686785871
 20
-678.0636462266775
 30
0.0
 10
222.2514076149828
 20
-676.8330592644124
 30
0.0
 10
223.4075945085151
 20
-675.6024613850404
 30
0.0
 10
222.9954738049582
 20
-675.6768614537741
 30
0.0
 10
224.100153798373
 20
-674.4405430115239
 30
0.0
 10
225.1876721031558
 20
-673.2099451321519
 30
0.0
 10
225.6684613954621
 20
-672.797835345702
 30
0.0
 10
225.6684613954621
 20
-672.797835345702
 30
0.0
 10
225.6684613954621
 20
-672.797835345702
 30
0.0
 10
226.2121987136434
 20
-673.072575203334
 30
0.0
 10
227.3798485671423
 20
-672.6604763339856
 30
0.0
 10
228.5417560235537
 20
-672.2540871104138
 30
0.0
 10
229.0855151759433
 20
-673.0038956974768
 30
0.0
 10
229.3602331993679
 20
-670.949078245203
 30
0.0
 10
229.6349730570037
 20
-668.9057237528923
 30
0.0
 10
228.0552461683683
 20
-668.5622934722996
 30
0.0
 10
229.2915646106194
 20
-667.3316955929276
 30
0.0
 10
230.5221624899896
 20
-666.1011086306589
 30
0.0
 10
230.4534720670299
 20
-665.8206372930417
 30
0.0
 10
232.0275002269946
 20
-665.0021492001215
 30
0.0
 10
233.6015065527536
 20
-664.1893816700795
 30
0.0
 10
233.8762464103875
 20
-665.0021492001215
 30
0.0
 10
235.5132225962288
 20
-663.6341813919316
 30
0.0
 10
237.1616617420359
 20
-662.2662245008469
 30
0.0
 10
237.0185603332366
 20
-662.9530632278293
 30
0.0
 10
237.6996784973389
 20
-660.6292373979031
 30
0.0
 10
238.3922596214079
 20
-658.299691005097
 30
0.0
 10
235.994011888537
 20
-658.7118007915469
 30
0.0
 10
238.5238980702406
 20
-656.9374437597853
 30
0.0
 10
241.0595048148261
 20
-655.1573770822506
 30
0.0
 10
242.559121988952
 20
-653.7951298369408
 30
0.0
 10
243.3146511388968
 20
-653.1025596299751
 30
0.0
 10
244.0701802888379
 20
-652.4214414658727
 30
0.0
 10
245.363726194083
 20
-650.916103728865
 30
0.0
 10
246.4626856246214
 20
-649.2047165571839
 30
0.0
 10
247.5559026580722
 20
-647.499060865488
 30
0.0
 10
248.2370208221746
 20
-645.2439145414173
 30
0.0
 10
249.1299308180396
 20
-644.6887142632695
 30
0.0
 10
250.0170984168153
 20
-644.150686590865
 30
0.0
 10
250.7669070038783
 20
-644.4197058856189
 30
0.0
 10
250.9100084126803
 20
-643.5325273697381
 30
0.0
 10
251.041646861514
 20
-642.6453488538573
 30
0.0
 10
249.8797394051035
 20
-642.5079789250394
 30
0.0
 10
250.1487586998592
 20
-641.6894908321192
 30
0.0
 10
250.4234767232847
 20
-640.8652821763226
 30
0.0
 10
249.6736899704301
 20
-640.1841530951133
 30
0.0
 10
250.7669070038783
 20
-638.6788262752125
 30
0.0
 10
251.8601458715402
 20
-637.1734885382048
 30
0.0
 10
252.8160038932756
 20
-631.9763571630829
 30
0.0
 10
253.022053327948
 20
-631.7016282225522
 30
0.0
 10
253.2338233255023
 20
-631.4326089277984
 30
0.0
 10
254.5331116278348
 20
-625.1422605192238
 30
0.0
 10
255.6950190842463
 20
-623.7056022880752
 30
0.0
 10
256.8569265406568
 20
-622.263234411148
 30
0.0
 10
258.4939027264982
 20
-621.0326365317778
 30
0.0
 10
259.1063523018483
 20
-619.4643398517946
 30
0.0
 10
259.7302430029567
 20
-617.8903226089315
 30
0.0
 10
260.0679308864628
 20
-617.1405140218685
 30
0.0
 10
260.4857721528988
 20
-615.1601075554318
 30
0.0
 10
260.8864298964891
 20
-613.1739805261186
 30
0.0
 10
260.1366213094261
 20
-612.0807525755627
 30
0.0
 10
260.1366213094261
 20
-610.0946255462477
 30
0.0
 10
260.1366213094261
 20
-608.114229996916
 30
0.0
 10
259.7302430029567
 20
-608.0455395739555
 30
0.0
 10
260.3426707440995
 20
-607.2900104240143
 30
0.0
 10
260.9608408823287
 20
-606.5344812740695
 30
0.0
 10
262.1170277758611
 20
-606.8149416945853
 30
0.0
 10
261.1611697541248
 20
-605.7904041669881
 30
0.0
 10
260.2053117323867
 20
-604.760135159413
 30
0.0
 10
259.5241717340732
 20
-604.6284857934752
 30
0.0
 10
259.3810921594813
 20
-604.3537568529446
 30
0.0
 10
259.2494318764402
 20
-604.0790169953107
 30
0.0
 10
258.2191847030736
 20
-604.760135159413
 30
0.0
 10
259.4555031453237
 20
-602.9857890447547
 30
0.0
 10
260.6861010246948
 20
-601.2057114501149
 30
0.0
 10
261.0981998940406
 20
-600.7936016636631
 30
0.0
 10
261.2355589057534
 20
-599.9064340648856
 30
0.0
 10
261.3672191887981
 20
-599.0135349861248
 30
0.0
 10
261.0981998940406
 20
-597.038859999675
 30
0.0
 10
260.9608408823287
 20
-596.420700778548
 30
0.0
 10
260.8177394735294
 20
-595.8082621203012
 30
0.0
 10
259.1063523018483
 20
-594.297203820417
 30
0.0
 10
257.7441159736436
 20
-593.341345798679
 30
0.0
 10
256.3761372483486
 20
-592.3854877769409
 30
0.0
 10
256.1700878136753
 20
-593.1410169268856
 30
0.0
 10
255.4889696495729
 20
-591.0175199687546
 30
0.0
 10
254.8021309225915
 20
-588.8940230106218
 30
0.0
 10
253.1594123396644
 20
-588.2873049152531
 30
0.0
 10
254.9394899343042
 20
-587.0509864730029
 30
0.0
 10
256.7138469660658
 20
-585.8203885936309
 30
0.0
 10
256.3074468253881
 20
-586.0951284512648
 30
0.0
 10
257.8127845623931
 20
-585.207949935384
 30
0.0
 10
259.3181222993999
 20
-584.3207823366083
 30
0.0
 10
259.8676020146704
 20
-585.064859443688
 30
0.0
 10
260.1366213094261
 20
-583.3591928348851
 30
0.0
 10
260.4113611670591
 20
-581.6535371431892
 30
0.0
 10
259.9305718747537
 20
-580.5545777126517
 30
0.0
 10
259.655832017118
 20
-580.1424788433033
 30
0.0
 10
259.3810921594813
 20
-579.7360896197315
 30
0.0
 10
259.1063523018483
 20
-578.099113433891
 30
0.0
 10
259.4555031453237
 20
-577.8186530133789
 30
0.0
 10
259.7989115917089
 20
-577.5496337186214
 30
0.0
 10
260.2739803211389
 20
-578.3681218115416
 30
0.0
 10
259.8676020146704
 20
-577.2062143551302
 30
0.0
 10
259.4555031453237
 20
-576.0500274615988
 30
0.0
 10
259.9992404635032
 20
-575.8382465469404
 30
0.0
 10
258.9117439929314
 20
-575.6321971122688
 30
0.0
 10
257.8127845623931
 20
-575.4261367604904
 30
0.0
 10
257.2003568212531
 20
-575.97561647576
 30
0.0
 10
257.0629759753301
 20
-574.8079775393671
 30
0.0
 10
256.9198964007383
 20
-573.6517906458321
 30
0.0
 10
256.3074468253881
 20
-572.6902120612158
 30
0.0
 10
256.6508771059844
 20
-571.4653347447238
 30
0.0
 10
256.9885868236988
 20
-570.2290163024736
 30
0.0
 10
256.7882579519046
 20
-569.0670979289571
 30
0.0
 10
256.4448276713092
 20
-568.111239907219
 30
0.0
 10
256.1013973907156
 20
-567.1553818854827
 30
0.0
 10
255.1455393689766
 20
-565.787424994398
 30
0.0
 10
254.7334404996282
 20
-565.650044148475
 30
0.0
 10
254.3213197960749
 20
-565.5184056996422
 30
0.0
 10
251.5854060139036
 20
-561.340102206339
 30
0.0
 10
250.9729564385534
 20
-559.7031260204985
 30
0.0
 10
250.3548081345334
 20
-558.0604074375697
 30
0.0
 10
247.4185436463595
 20
-555.662181538908
 30
0.0
 10
248.4430920910581
 20
-554.0252053530676
 30
0.0
 10
249.4676187015457
 20
-552.3825086043507
 30
0.0
 10
250.0170984168153
 20
-549.7152634109316
 30
0.0
 10
249.3302596898338
 20
-549.1028138355814
 30
0.0
 10
248.6491415257315
 20
-548.4846655315596
 30
0.0
 10
247.6932835039916
 20
-548.2843366597644
 30
0.0
 10
246.7374254822571
 20
-547.94090637917
 30
0.0
 10
245.7758250634324
 20
-547.5917555356955
 30
0.0
 10
243.0399112812611
 20
-546.6358975139592
 30
0.0
 10
243.0399112812611
 20
-546.6358975139592
 30
0.0
 10
243.0399112812611
 20
-546.6358975139592
 30
0.0
 10
240.1723372160477
 20
-546.0291903356938
 30
0.0
 10
238.8673283508369
 20
-545.1362803398315
 30
0.0
 10
237.5680400485053
 20
-544.2491127410522
 30
0.0
 10
234.8378249950056
 20
-543.3619451422783
 30
0.0
 10
234.420005562778
 20
-542.262985711739
 30
0.0
 10
234.0078848592211
 20
-541.1697686782882
 30
0.0
 10
232.0961688157477
 20
-540.4199600912252
 30
0.0
 10
233.0520268374858
 20
-539.7330995300326
 30
0.0
 10
234.0078848592211
 20
-539.0519813659303
 30
0.0
 10
235.1698141498437
 20
-539.1893622118532
 30
0.0
 10
235.7879624538646
 20
-538.5711920736248
 30
0.0
 10
236.4061325920939
 20
-537.958764332483
 30
0.0
 10
236.6808724497268
 20
-538.3021727788673
 30
0.0
 10
236.2687517461709
 20
-537.1345447595777
 30
0.0
 10
235.8566528768251
 20
-535.9726373031663
 30
0.0
 10
235.0381538667989
 20
-534.6790695637137
 30
0.0
 10
234.2826247168568
 20
-533.6430799932568
 30
0.0
 10
233.5328161297939
 20
-532.6242739456447
 30
0.0
 10
231.8901193810743
 20
-530.7755059280444
 30
0.0
 10
231.3406396658056
 20
-530.3004371986135
 30
0.0
 10
230.7911599505369
 20
-529.8196479063081
 30
0.0
 10
229.9726827747218
 20
-529.6135984716329
 30
0.0
 10
230.1100417864336
 20
-528.7264308728572
 30
0.0
 10
230.2531431952339
 20
-527.8335208769931
 30
0.0
 10
229.9097129146376
 20
-526.259514551235
 30
0.0
 10
229.9097129146376
 20
-526.259514551235
 30
0.0
 10
229.9097129146376
 20
-526.259514551235
 30
0.0
 10
229.0168247529828
 20
-526.9463532782174
 30
0.0
 10
227.9922763082841
 20
-527.2210931358495
 30
0.0
 10
226.9677278635854
 20
-527.4958329934852
 30
0.0
 10
224.8442418225604
 20
-527.015043701178
 30
0.0
 10
224.2317922472093
 20
-527.2210931358495
 30
0.0
 10
223.6136439431884
 20
-527.4271425705228
 30
0.0
 10
222.5891064155949
 20
-527.0837122899302
 30
0.0
 10
221.696207336835
 20
-526.8146929951727
 30
0.0
 10
220.8090288209542
 20
-526.5399749717471
 30
0.0
 10
219.4410610127652
 20
-526.0591638452315
 30
0.0
 10
218.8973127774771
 20
-525.7157553988454
 30
0.0
 10
218.3478330622083
 20
-525.3723251182491
 30
0.0
 10
217.4606654634326
 20
-525.2406866694164
 30
0.0
 10
218.7599428486592
 20
-524.416467096511
 30
0.0
 10
220.0534996710094
 20
-523.5922475236093
 30
0.0
 10
220.8090288209542
 20
-523.185869217139
 30
0.0
 10
220.4713300203393
 20
-522.70507992483
 30
0.0
 10
220.1279106568491
 20
-522.230011195401
 30
0.0
 10
219.7158008703982
 20
-521.617583454261
 30
0.0
 10
217.9357341928626
 20
-521.0681037389895
 30
0.0
 10
216.1556565982191
 20
-520.5186240237235
 30
0.0
 10
215.2684780823383
 20
-520.4499336007593
 30
0.0
 10
214.8620997758717
 20
-519.631456424946
 30
0.0
 10
214.4499899894208
 20
-518.8129574149189
 30
0.0
 10
213.5628114735373
 20
-518.1261186879383
 30
0.0
 10
212.5325533830655
 20
-516.8955208085663
 30
0.0
 10
211.5137255012451
 20
-515.6649229291943
 30
0.0
 10
208.6976692532526
 20
-512.9976777357788
 30
0.0
 10
208.2970115096632
 20
-512.9976777357788
 30
0.0
 10
207.8849017232124
 20
-512.9976777357788
 30
0.0
 10
207.1980520791249
 20
-512.9289873128164
 30
0.0
 10
206.2421940573904
 20
-513.3411080163714
 30
0.0
 10
205.2863360356514
 20
-513.7474863228417
 30
0.0
 10
204.324757451036
 20
-513.4040560422454
 30
0.0
 10
202.893830699868
 20
-512.3165595716728
 30
0.0
 10
201.4514519058393
 20
-511.217600141139
 30
0.0
 10
199.4023659335471
 20
-509.4375225464973
 30
0.0
 10
198.3091379829939
 20
-509.2429142375804
 30
0.0
 10
197.2101894695588
 20
-509.0311442400252
 30
0.0
 10
195.9795915901868
 20
-508.0065957953302
 30
0.0
 10
195.7105722954329
 20
-509.5119335323343
 30
0.0
 10
195.4358324377972
 20
-511.017271269342
 30
0.0
 10
195.7792627183926
 20
-512.5226090063497
 30
0.0
 10
194.8863636396336
 20
-513.3411080163714
 30
0.0
 10
194.004905686631
 20
-514.1595851921902
 30
0.0
 10
193.587075337301
 20
-514.4343250498223
 30
0.0
 10
191.6753592938248
 20
-514.5030154727829
 30
0.0
 10
189.7579226874714
 20
-514.571684061535
 30
0.0
 10
188.2525849504636
 20
-514.1595851921902
 30
0.0
 10
186.478238835808
 20
-514.1595851921902
 30
0.0
 10
184.6981612411673
 20
-514.1595851921902
 30
0.0
 10
182.5059847771781
 20
-514.7090649074562
 30
0.0
 10
182.7120342118506
 20
-512.9976777357788
 30
0.0
 10
182.9180836465266
 20
-511.2862905640977
 30
0.0
 10
181.6188062612973
 20
-511.8357702793674
 30
0.0
 10
182.7807246348139
 20
-509.7122624041313
 30
0.0
 10
183.9426320912253
 20
-507.5944969259817
 30
0.0
 10
184.4921118064922
 20
-506.5756690441613
 30
0.0
 10
182.7120342118506
 20
-505.7514713054679
 30
0.0
 10
180.937688097195
 20
-504.9272517325644
 30
0.0
 10
179.3636708543327
 20
-504.0400841337869
 30
0.0
 10
178.4707717755728
 20
-504.5208734260959
 30
0.0
 10
177.583593259692
 20
-504.995942155525
 30
0.0
 10
176.5590448149933
 20
-505.2706601789505
 30
0.0
 10
176.5590448149933
 20
-505.2706601789505
 30
0.0
 10
176.5590448149933
 20
-505.2706601789505
 30
0.0
 10
174.7102877144953
 20
-504.3777720172966
 30
0.0
 10
174.7102877144953
 20
-504.3777720172966
 30
0.0
  0
SPLINE
  5
A6
330
41
100
AcDbEntity
  8
Layer 1
 62
   156
420
  1785491
370
    18
100
AcDbSpline
210
0.0
220
0.0
230
1.0
 70
    11
 71
     3
 72
   428
 73
   424
 74
     0
 42
0.0000000001
 43
0.0000000001
 12
1.0
 22
0.0
 32
0.0
 13
1.0
 23
0.0
 33
0.0
 40
0.0
 40
0.0
 40
0.0
 40
0.0
 40
1.0
 40
1.0
 40
1.0
 40
2.0
 40
2.0
 40
2.0
 40
3.0
 40
3.0
 40
3.0
 40
4.0
 40
4.0
 40
4.0
 40
5.0
 40
5.0
 40
5.0
 40
6.0
 40
6.0
 40
6.0
 40
7.0
 40
7.0
 40
7.0
 40
8.0
 40
8.0
 40
8.0
 40
9.0
 40
9.0
 40
9.0
 40
10.0
 40
10.0
 40
10.0
 40
11.0
 40
11.0
 40
11.0
 40
12.0
 40
12.0
 40
12.0
 40
13.0
 40
13.0
 40
13.0
 40
14.0
 40
14.0
 40
14.0
 40
15.0
 40
15.0
 40
15.0
 40
16.0
 40
16.0
 40
16.0
 40
17.0
 40
17.0
 40
17.0
 40
18.0
 40
18.0
 40
18.0
 40
19.0
 40
19.0
 40
19.0
 40
20.0
 40
20.0
 40
20.0
 40
21.0
 40
21.0
 40
21.0
 40
22.0
 40
22.0
 40
22.0
 40
23.0
 40
23.0
 40
23.0
 40
24.0
 40
24.0
 40
24.0
 40
25.0
 40
25.0
 40
25.0
 40
26.0
 40
26.0
 40
26.0
 40
27.0
 40
27.0
 40
27.0
 40
28.0
 40
28.0
 40
28.0
 40
29.0
 40
29.0
 40
29.0
 40
30.0
 40
30.0
 40
30.0
 40
31.0
 40
31.0
 40
31.0
 40
32.0
 40
32.0
 40
32.0
 40
33.0
 40
33.0
 40
33.0
 40
34.0
 40
34.0
 40
34.0
 40
35.0
 40
35.0
 40
35.0
 40
36.0
 40
36.0
 40
36.0
 40
37.0
 40
37.0
 40
37.0
 40
38.0
 40
38.0
 40
38.0
 40
39.0
 40
39.0
 40
39.0
 40
40.0
 40
40.0
 40
40.0
 40
41.0
 40
41.0
 40
41.0
 40
42.0
 40
42.0
 40
42.0
 40
43.0
 40
43.0
 40
43.0
 40
44.0
 40
44.0
 40
44.0
 40
45.0
 40
45.0
 40
45.0
 40
46.0
 40
46.0
 40
46.0
 40
47.0
 40
47.0
 40
47.0
 40
48.0
 40
48.0
 40
48.0
 40
49.0
 40
49.0
 40
49.0
 40
50.0
 40
50.0
 40
50.0
 40
51.0
 40
51.0
 40
51.0
 40
52.0
 40
52.0
 40
52.0
 40
53.0
 40
53.0
 40
53.0
 40
54.0
 40
54.0
 40
54.0
 40
55.0
 40
55.0
 40
55.0
 40
56.0
 40
56.0
 40
56.0
 40
57.0
 40
57.0
 40
57.0
 40
58.0
 40
58.0
 40
58.0
 40
59.0
 40
59.0
 40
59.0
 40
60.0
 40
60.0
 40
60.0
 40
61.0
 40
61.0
 40
61.0
 40
62.0
 40
62.0
 40
62.0
 40
63.0
 40
63.0
 40
63.0
 40
64.0
 40
64.0
 40
64.0
 40
65.0
 40
65.0
 40
65.0
 40
66.0
 40
66.0
 40
66.0
 40
67.0
 40
67.0
 40
67.0
 40
68.0
 40
68.0
 40
68.0
 40
69.0
 40
69.0
 40
69.0
 40
70.0
 40
70.0
 40
70.0
 40
71.0
 40
71.0
 40
71.0
 40
72.0
 40
72.0
 40
72.0
 40
73.0
 40
73.0
 40
73.0
 40
74.0
 40
74.0
 40
74.0
 40
75.0
 40
75.0
 40
75.0
 40
76.0
 40
76.0
 40
76.0
 40
77.0
 40
77.0
 40
77.0
 40
78.0
 40
78.0
 40
78.0
 40
79.0
 40
79.0
 40
79.0
 40
80.0
 40
80.0
 40
80.0
 40
81.0
 40
81.0
 40
81.0
 40
82.0
 40
82.0
 40
82.0
 40
83.0
 40
83.0
 40
83.0
 40
84.0
 40
84.0
 40
84.0
 40
85.0
 40
85.0
 40
85.0
 40
86.0
 40
86.0
 40
86.0
 40
87.0
 40
87.0
 40
87.0
 40
88.0
 40
88.0
 40
88.0
 40
89.0
 40
89.0
 40
89.0
 40
90.0
 40
90.0
 40
90.0
 40
91.0
 40
91.0
 40
91.0
 40
92.0
 40
92.0
 40
92.0
 40
93.0
 40
93.0
 40
93.0
 40
94.0
 40
94.0
 40
94.0
 40
95.0
 40
95.0
 40
95.0
 40
96.0
 40
96.0
 40
96.0
 40
97.0
 40
97.0
 40
97.0
 40
98.0
 40
98.0
 40
98.0
 40
99.0
 40
99.0
 40
99.0
 40
100.0
 40
100.0
 40
100.0
 40
101.0
 40
101.0
 40
101.0
 40
102.0
 40
102.0
 40
102.0
 40
103.0
 40
103.0
 40
103.0
 40
104.0
 40
104.0
 40
104.0
 40
105.0
 40
105.0
 40
105.0
 40
106.0
 40
106.0
 40
106.0
 40
107.0
 40
107.0
 40
107.0
 40
108.0
 40
108.0
 40
108.0
 40
109.0
 40
109.0
 40
109.0
 40
110.0
 40
110.0
 40
110.0
 40
111.0
 40
111.0
 40
111.0
 40
112.0
 40
112.0
 40
112.0
 40
113.0
 40
113.0
 40
113.0
 40
114.0
 40
114.0
 40
114.0
 40
115.0
 40
115.0
 40
115.0
 40
116.0
 40
116.0
 40
116.0
 40
117.0
 40
117.0
 40
117.0
 40
118.0
 40
118.0
 40
118.0
 40
119.0
 40
119.0
 40
119.0
 40
120.0
 40
120.0
 40
120.0
 40
121.0
 40
121.0
 40
121.0
 40
122.0
 40
122.0
 40
122.0
 40
123.0
 40
123.0
 40
123.0
 40
124.0
 40
124.0
 40
124.0
 40
125.0
 40
125.0
 40
125.0
 40
126.0
 40
126.0
 40
126.0
 40
127.0
 40
127.0
 40
127.0
 40
128.0
 40
128.0
 40
128.0
 40
129.0
 40
129.0
 40
129.0
 40
130.0
 40
130.0
 40
130.0
 40
131.0
 40
131.0
 40
131.0
 40
132.0
 40
132.0
 40
132.0
 40
133.0
 40
133.0
 40
133.0
 40
134.0
 40
134.0
 40
134.0
 40
135.0
 40
135.0
 40
135.0
 40
136.0
 40
136.0
 40
136.0
 40
137.0
 40
137.0
 40
137.0
 40
138.0
 40
138.0
 40
138.0
 40
139.0
 40
139.0
 40
139.0
 40
140.0
 40
140.0
 40
140.0
 40
141.0
 40
141.0
 40
141.0
 40
141.0
 10
173.4797007522293
 20
-505.2706601789505
 30
0.0
 10
173.4797007522293
 20
-505.2706601789505
 30
0.0
 10
170.0626469717472
 20
-509.5749033924185
 30
0.0
 10
168.4886188117798
 20
-510.2617421193991
 30
0.0
 10
166.9146015689184
 20
-510.9485808463814
 30
0.0
 10
164.1786768696438
 20
-514.2282756151508
 30
0.0
 10
155.7705411487132
 20
-514.9838047650919
 30
0.0
 10
147.3509752191294
 20
-515.7336133521549
 30
0.0
 10
139.9673879428974
 20
-513.6787958998812
 30
0.0
 10
137.8496224647506
 20
-512.7973488639818
 30
0.0
 10
135.7261255066169
 20
-511.9044388681195
 30
0.0
 10
132.4407210920745
 20
-509.9183118388028
 30
0.0
 10
131.8912413768048
 20
-509.5119335323343
 30
0.0
 10
131.3532137043994
 20
-509.0998346629876
 30
0.0
 10
130.5289995900475
 20
-508.4816645247593
 30
0.0
 10
130.5289995900475
 20
-508.4816645247593
 30
0.0
 10
130.5289995900475
 20
-508.4816645247593
 30
0.0
 10
131.2788027185597
 20
-508.6190453706804
 30
0.0
 10
131.4161726473794
 20
-509.9183118388028
 30
0.0
 10
131.5478220133155
 20
-511.217600141139
 30
0.0
 10
131.9656523626454
 20
-511.767079856405
 30
0.0
 10
130.8724244120904
 20
-512.7973488639818
 30
0.0
 10
129.7734704401046
 20
-513.8161549115939
 30
0.0
 10
128.9549823471834
 20
-513.953535757515
 30
0.0
 10
127.649978940527
 20
-514.0966371663162
 30
0.0
 10
126.3564221181769
 20
-514.2282756151508
 30
0.0
 10
124.3702950888637
 20
-515.1898541997653
 30
0.0
 10
123.4831220315336
 20
-516.0770217985428
 30
0.0
 10
122.5902229527737
 20
-516.9642112315269
 30
0.0
 10
121.4340306006879
 20
-518.2577571367747
 30
0.0
 10
119.6539584645989
 20
-519.0819767096764
 30
0.0
 10
117.8738863285116
 20
-519.9061962825781
 30
0.0
 10
117.2557271073856
 20
-519.8375058596175
 30
0.0
 10
115.5500604985837
 20
-520.6560048696447
 30
0.0
 10
113.8386733269044
 20
-521.480202608338
 30
0.0
 10
113.1575551628011
 20
-522.2987016183633
 30
0.0
 10
110.3472140191361
 20
-522.230011195401
 30
0.0
 10
107.5483194597791
 20
-522.1613207724404
 30
0.0
 10
105.9056172525079
 20
-522.230011195401
 30
0.0
 10
104.6692933517061
 20
-521.6805314801313
 30
0.0
 10
103.4444214937648
 20
-521.1367941619519
 30
0.0
 10
102.4198785076187
 20
-520.3125745890484
 30
0.0
 10
101.7330343220847
 20
-520.0378347314145
 30
0.0
 10
101.0461901365506
 20
-519.768815436657
 30
0.0
 10
99.68394834979244
 20
-519.4254069902727
 30
0.0
 10
99.81559225717865
 20
-520.3869855748871
 30
0.0
 10
99.9529621859956
 20
-521.3428435966252
 30
0.0
 10
100.4337514783047
 20
-521.6805314801313
 30
0.0
 10
100.1590116206698
 20
-522.6363895018694
 30
0.0
 10
99.88427722158849
 20
-523.5922475236093
 30
0.0
 10
98.4476244489897
 20
-528.6577404498967
 30
0.0
 10
96.67327833433228
 20
-530.9128867739673
 30
0.0
 10
94.8932061982432
 20
-533.1680112638278
 30
0.0
 10
89.49002538844798
 20
-538.708572919546
 30
0.0
 10
85.59218231565774
 20
-540.8320589605719
 30
0.0
 10
81.69433924286841
 20
-542.9498244387214
 30
0.0
 10
77.31569596066674
 20
-544.4551621757273
 30
0.0
 10
75.67871977482628
 20
-544.861540482194
 30
0.0
 10
74.03029154612341
 20
-545.2736611857508
 30
0.0
 10
73.68687218263221
 20
-545.5426804805084
 30
0.0
 10
73.68687218263221
 20
-545.5426804805084
 30
0.0
 10
73.68687218263221
 20
-545.5426804805084
 30
0.0
 10
71.63778621034089
 20
-546.2295192074889
 30
0.0
 10
71.2943559297455
 20
-546.2295192074889
 30
0.0
 10
70.95093656625522
 20
-546.2295192074889
 30
0.0
 10
70.48158839970438
 20
-545.6800394922211
 30
0.0
 10
70.81928720031556
 20
-547.3971472267804
 30
0.0
 10
71.16271748091185
 20
-549.1028138355814
 30
0.0
 10
72.39331536028385
 20
-554.70632351717
 30
0.0
 10
70.33849790800832
 20
-558.6098871528393
 30
0.0
 10
68.2836913728379
 20
-562.5020096627504
 30
0.0
 10
66.30328490640204
 20
-565.650044148475
 30
0.0
 10
65.61644617942056
 20
-566.5372335814609
 30
0.0
 10
64.93531709821218
 20
-567.4244011802366
 30
0.0
 10
60.56240529599381
 20
-571.6656636165171
 30
0.0
 10
59.87556656901234
 20
-572.0777734029689
 30
0.0
 10
59.18871692492485
 20
-572.4898831894225
 30
0.0
 10
54.33501583039924
 20
-575.2887668316725
 30
0.0
 10
53.16737689400543
 20
-575.5635066893083
 30
0.0
 10
52.01119000047129
 20
-575.8382465469404
 30
0.0
 10
51.11829092171138
 20
-575.3574572546349
 30
0.0
 10
50.63750162940414
 20
-576.0500274615988
 30
0.0
 10
50.16243289997419
 20
-576.7254250628212
 30
0.0
 10
50.43717275760901
 20
-577.8243735762571
 30
0.0
 10
50.98092099289534
 20
-578.299442305688
 30
0.0
 10
51.53612127104316
 20
-578.7802315979934
 30
0.0
 10
52.01119000047129
 20
-579.6044511708969
 30
0.0
 10
52.07988042343277
 20
-579.8734595485494
 30
0.0
 10
52.14855992928915
 20
-580.1424788433033
 30
0.0
 10
53.2417878798442
 20
-588.1442144235571
 30
0.0
 10
52.89836851635391
 20
-590.4737608163614
 30
0.0
 10
52.55493823575762
 20
-592.7975866462893
 30
0.0
 10
52.76099858753605
 20
-593.6847651621702
 30
0.0
 10
53.03573844516995
 20
-593.9595050198059
 30
0.0
 10
53.31619886568387
 20
-594.234244877438
 30
0.0
 10
54.33501583039924
 20
-594.3716148062558
 30
0.0
 10
54.81580512270648
 20
-595.3274728279921
 30
0.0
 10
55.29087385213643
 20
-596.2890514126102
 30
0.0
 10
55.42824378095338
 20
-597.9260275984507
 30
0.0
 10
54.47238575921619
 20
-599.2253159007832
 30
0.0
 10
53.5108071745999
 20
-600.5245932860125
 30
0.0
 10
53.78553611513053
 20
-600.930971592481
 30
0.0
 10
51.87382007165434
 20
-601.8925610942006
 30
0.0
 10
49.96210402817906
 20
-602.8484191159368
 30
0.0
 10
49.34394480705578
 20
-603.3292084082459
 30
0.0
 10
49.34394480705578
 20
-603.3292084082459
 30
0.0
 10
49.34394480705578
 20
-603.3292084082459
 30
0.0
 10
48.52545671413463
 20
-604.765855722293
 30
0.0
 10
47.7012371412311
 20
-606.4028428252368
 30
0.0
 10
46.87702848543177
 20
-608.0455395739555
 30
0.0
 10
47.7012371412311
 20
-608.1829095027751
 30
0.0
 10
46.60228862779786
 20
-609.6195677339238
 30
0.0
 10
45.51478124012101
 20
-611.0504944850891
 30
0.0
 10
45.37169074842586
 20
-611.7373332120715
 30
0.0
 10
44.41583272668777
 20
-612.4928623620126
 30
0.0
 10
43.45997470495058
 20
-613.2426709490792
 30
0.0
 10
41.61693816733259
 20
-613.1739805261186
 30
0.0
 10
42.70444555500853
 20
-613.7234602413864
 30
0.0
 10
43.80339406844087
 20
-614.2672084766709
 30
0.0
 10
44.95958096197501
 20
-614.7480086860833
 30
0.0
 10
46.33326933304215
 20
-615.8355051566559
 30
0.0
 10
47.7012371412311
 20
-616.9344645871934
 30
0.0
 10
49.75032311352334
 20
-619.7333482294453
 30
0.0
 10
50.23111240583057
 20
-620.2198690017358
 30
0.0
 10
50.70618113526052
 20
-620.6949377311648
 30
0.0
 10
54.27205688742106
 20
-628.4906238767453
 30
0.0
 10
54.33501583039924
 20
-632.8692562418419
 30
0.0
 10
54.40369533625562
 20
-637.242168044062
 30
0.0
 10
53.31619886568387
 20
-643.4638369467775
 30
0.0
 10
52.48625872990124
 20
-644.9749061637667
 30
0.0
 10
51.667770636981
 20
-646.4687918579111
 30
0.0
 10
49.88769304234029
 20
-649.5538674006602
 30
0.0
 10
49.41262431291034
 20
-650.3036759877232
 30
0.0
 10
48.926114457724
 20
-651.0534736576828
 30
0.0
 10
47.35781777774082
 20
-650.5097254223983
 30
0.0
 10
48.65709516296829
 20
-651.6716328788098
 30
0.0
 10
49.96210402817906
 20
-652.8335512523226
 30
0.0
 10
49.26953382121519
 20
-653.3772994876108
 30
0.0
 10
50.98092099289534
 20
-652.9022307581799
 30
0.0
 10
52.69230816457548
 20
-652.4214414658727
 30
0.0
 10
54.54106526507167
 20
-652.9709211811405
 30
0.0
 10
56.25245243675272
 20
-653.4517104734496
 30
0.0
 10
57.95811904555376
 20
-653.9267792028786
 30
0.0
 10
61.37517282603494
 20
-655.1573770822506
 30
0.0
 10
63.15525042067566
 20
-657.4182439691995
 30
0.0
 10
64.93531709821218
 20
-659.6676588132868
 30
0.0
 10
70.54455825978675
 20
-666.1011086306589
 30
0.0
 10
71.36876691558518
 20
-670.8117192334903
 30
0.0
 10
72.18725500850542
 20
-675.533770962078
 30
0.0
 10
72.45627430326113
 20
-676.7014098984728
 30
0.0
 10
72.45627430326113
 20
-677.7202268631881
 30
0.0
 10
72.45627430326113
 20
-678.750495870765
 30
0.0
 10
72.8683840897138
 20
-679.0939152342562
 30
0.0
 10
72.2559454314669
 20
-680.2501021277876
 30
0.0
 10
71.63778621034089
 20
-681.4177410641842
 30
0.0
 10
70.88797762327795
 20
-682.3735990859204
 30
0.0
 10
71.36876691558518
 20
-682.6483389435562
 30
0.0
 10
71.84383564501422
 20
-682.9230788011882
 30
0.0
 10
71.56909578738032
 20
-683.5297859794518
 30
0.0
 10
73.01147458140895
 20
-682.6483389435562
 30
0.0
 10
74.44240133257608
 20
-681.7554398647953
 30
0.0
 10
75.67871977482628
 20
-681.211691629509
 30
0.0
 10
77.92813461891365
 20
-681.211691629509
 30
0.0
 10
80.1890015058625
 20
-681.211691629509
 30
0.0
 10
83.68046081363082
 20
-681.9672207794501
 30
0.0
 10
85.11138756479795
 20
-682.8543883782277
 30
0.0
 10
86.54804033739583
 20
-683.7415668941085
 30
0.0
 10
88.80318120291395
 20
-685.3098635740917
 30
0.0
 10
88.80318120291395
 20
-685.3098635740917
 30
0.0
 10
88.80318120291395
 20
-685.3098635740917
 30
0.0
 10
88.67153183697428
 20
-686.134083146997
 30
0.0
 10
90.30851348136821
 20
-685.1782142081538
 30
0.0
 10
91.95121568863942
 20
-684.2166356235393
 30
0.0
 10
91.47042639633128
 20
-683.7415668941085
 30
0.0
 10
93.31346293395018
 20
-683.9476163287818
 30
0.0
 10
95.16794059732638
 20
-684.147956117682
 30
0.0
 10
95.78609981845148
 20
-683.4668270364728
 30
0.0
 10
96.53590840551442
 20
-684.9092058305014
 30
0.0
 10
97.28571153402572
 20
-686.3401325816703
 30
0.0
 10
97.70354188335659
 20
-687.0899411687333
 30
0.0
 10
98.03552012108958
 20
-688.3892185539626
 30
0.0
 10
98.37893948458168
 20
-689.688506856297
 30
0.0
 10
98.72236430662451
 20
-691.8806833202834
 30
0.0
 10
99.13446863452373
 20
-692.9052317649821
 30
0.0
 10
99.54657842097458
 20
-693.9240378125942
 30
0.0
 10
99.54657842097458
 20
-696.1162142765788
 30
0.0
 10
99.20315359893266
 20
-696.8030748377714
 30
0.0
 10
98.85973423544237
 20
-697.4784724389956
 30
0.0
 10
98.4476244489897
 20
-698.1710317288562
 30
0.0
 10
98.4476244489897
 20
-698.1710317288562
 30
0.0
 10
98.4476244489897
 20
-698.1710317288562
 30
0.0
 10
98.37893948458168
 20
-698.4400510236101
 30
0.0
 10
100.0903321148126
 20
-697.1407627212775
 30
0.0
 10
101.8017192864936
 20
-695.8472168160333
 30
0.0
 10
100.6398063715296
 20
-695.6354249842734
 30
0.0
 10
103.8508052587858
 20
-694.8169478084565
 30
0.0
 10
107.0675301674719
 20
-693.998448798433
 30
0.0
 10
108.9849722323779
 20
-693.5863499290845
 30
0.0
 10
111.1027431690791
 20
-693.6550185178367
 30
0.0
 10
113.2262346686584
 20
-693.7237089407972
 30
0.0
 10
117.9425712929196
 20
-693.998448798433
 30
0.0
 10
120.3408026501338
 20
-694.8169478084565
 30
0.0
 10
122.733313444468
 20
-695.6354249842734
 30
0.0
 10
125.6752984955201
 20
-697.6272725764666
 30
0.0
 10
125.6752984955201
 20
-697.6272725764666
 30
0.0
 10
125.6752984955201
 20
-697.6272725764666
 30
0.0
 10
129.9108403689224
 20
-700.4261780529268
 30
0.0
 10
130.2542651909671
 20
-702.0001843786831
 30
0.0
 10
130.5976845544574
 20
-703.5684919757714
 30
0.0
 10
130.4603200841912
 20
-704.3240211257162
 30
0.0
 10
131.2101232127025
 20
-704.7990898551434
 30
0.0
 10
131.9656523626454
 20
-705.2798791474524
 30
0.0
 10
132.7841404555647
 20
-706.5791674497868
 30
0.0
 10
132.9844693273617
 20
-705.0795502756591
 30
0.0
 10
133.1962502420183
 20
-703.5684919757714
 30
0.0
 10
132.4407210920745
 20
-703.5684919757714
 30
0.0
 10
133.6713189714483
 20
-702.1375652246061
 30
0.0
 10
134.9076374136966
 20
-700.6951973476807
 30
0.0
 10
136.4759340936835
 20
-699.1955801735548
 30
0.0
 10
139.0058093582829
 20
-698.1023413058956
 30
0.0
 10
141.5356846228806
 20
-697.0091242724448
 30
0.0
 10
144.4147107309573
 20
-695.704115407234
 30
0.0
 10
147.9691344402536
 20
-696.3909541342146
 30
0.0
 10
151.5292787124317
 20
-697.0720722983187
 30
0.0
 10
155.2210723505505
 20
-697.4784724389956
 30
0.0
 10
156.9267389593479
 20
-698.1710317288562
 30
0.0
 10
158.638126131028
 20
-698.8521498929586
 30
0.0
 10
160.6242531603448
 20
-699.9453887606178
 30
0.0
 10
161.1680013956293
 20
-700.5635370646378
 30
0.0
 10
161.717481110898
 20
-701.1759866399898
 30
0.0
 10
161.9235305455732
 20
-702.0631542387673
 30
0.0
 10
162.6790596955152
 20
-702.6813243769975
 30
0.0
 10
163.423147719699
 20
-703.2994726810175
 30
0.0
 10
163.6349177172506
 20
-703.9805908451199
 30
0.0
 10
163.6978766602297
 20
-702.4065845193618
 30
0.0
 10
163.7665670831902
 20
-700.8325563593953
 30
0.0
 10
163.9096575748872
 20
-699.4703200311887
 30
0.0
 10
165.1345348913801
 20
-698.2397221518167
 30
0.0
 10
166.3708533336303
 20
-697.0091242724448
 30
0.0
 10
170.3087621807781
 20
-693.1971333112524
 30
0.0
 10
174.5729287027834
 20
-692.5618014843858
 30
0.0
 10
178.6768212102461
 20
-691.949373743244
 30
0.0
 10
181.6874966842579
 20
-692.2183712037913
 30
0.0
 10
182.6490752688751
 20
-692.424442472673
 30
0.0
 10
183.6049332906114
 20
-692.6304919073482
 30
0.0
 10
184.0113115970798
 20
-692.4988316243034
 30
0.0
 10
184.9729010988003
 20
-693.3860210572911
 30
0.0
 10
185.9287591205384
 20
-694.273188656065
 30
0.0
 10
186.335137427006
 20
-695.1546356919644
 30
0.0
 10
186.6785677076014
 20
-694.5422079508226
 30
0.0
 10
187.0219870710935
 20
-693.9240378125942
 30
0.0
 10
186.7529677763378
 20
-693.8610897867202
 30
0.0
 10
186.8846171422774
 20
-693.1742292255276
 30
0.0
 10
187.0219870710935
 20
-692.4988316243034
 30
0.0
 10
187.3654064345828
 20
-689.4194875615394
 30
0.0
 10
190.7824602150649
 20
-688.5265775656753
 30
0.0
 10
194.2052345584252
 20
-687.6394099668996
 30
0.0
 10
194.2739249813858
 20
-687.1586206745906
 30
0.0
 10
195.7105722954329
 20
-687.2273110975511
 30
0.0
 10
197.1472305265816
 20
-687.2959906034084
 30
0.0
 10
199.6084153682204
 20
-686.8152013110994
 30
0.0
 10
200.6329638129191
 20
-687.2959906034084
 30
0.0
 10
201.6575013405127
 20
-687.7710593328375
 30
0.0
 10
202.619090842235
 20
-688.801317423311
 30
0.0
 10
203.3059295692165
 20
-689.2077175639879
 30
0.0
 10
203.9813271704397
 20
-689.6198164333346
 30
0.0
 10
204.324757451036
 20
-688.8700078462716
 30
0.0
 10
204.1873875222182
 20
-687.9084292616535
 30
0.0
 10
204.0557381562794
 20
-686.9582918027972
 30
0.0
 10
203.0941595716622
 20
-684.6344659728693
 30
0.0
 10
205.2863360356514
 20
-682.0988592282865
 30
0.0
 10
207.4727919367606
 20
-679.5747045265653
 30
0.0
 10
212.9446522524131
 20
-674.3718635056684
 30
0.0
 10
217.9357341928626
 20
-673.3473150609698
 30
0.0
 10
222.9325257790852
 20
-672.3227775333744
 30
0.0
 10
222.8638353561228
 20
-672.116717181596
 30
0.0
 10
224.5008115419632
 20
-672.116717181596
 30
0.0
 10
226.1492506877703
 20
-672.116717181596
 30
0.0
 10
226.4812180084009
 20
-672.8035668256834
 30
0.0
 10
227.1051087095093
 20
-672.1911281674347
 30
0.0
 10
227.7232570135302
 20
-671.5729689463114
 30
0.0
 10
227.9235858853244
 20
-671.1551385969815
 30
0.0
 10
227.8549172965722
 20
-670.2679600811007
 30
0.0
 10
227.7862268736117
 20
-669.3750610023417
 30
0.0
 10
226.8303688518727
 20
-662.8843837219738
 30
0.0
 10
228.8164958811894
 20
-659.2612695897133
 30
0.0
 10
230.7969023476226
 20
-655.6381663745597
 30
0.0
 10
232.6399279681373
 20
-652.8335512523226
 30
0.0
 10
233.8075559874278
 20
-651.2595340094613
 30
0.0
 10
234.9694852780467
 20
-649.6912373294781
 30
0.0
 10
236.4690806179669
 20
-648.3862284642637
 30
0.0
 10
238.3178486355682
 20
-646.606161786729
 30
0.0
 10
240.1723372160477
 20
-644.8318047549674
 30
0.0
 10
242.1470012853979
 20
-644.282335956801
 30
0.0
 10
244.5452490182679
 20
-644.0877276478859
 30
0.0
 10
246.9377543540504
 20
-643.8759467332293
 30
0.0
 10
247.6932835039916
 20
-643.9389056762066
 30
0.0
 10
248.5117606798076
 20
-644.0133166620471
 30
0.0
 10
249.3302596898338
 20
-644.0877276478859
 30
0.0
 10
250.291838274451
 20
-644.0133166620471
 30
0.0
 10
249.2615692668733
 20
-642.5079789250394
 30
0.0
 10
248.2370208221746
 20
-641.0026521051368
 30
0.0
 10
245.6384660517188
 20
-636.761378751753
 30
0.0
 10
245.8445154863921
 20
-634.5749228506429
 30
0.0
 10
246.0448443581854
 20
-632.3884669495328
 30
0.0
 10
246.4626856246214
 20
-628.4906238767453
 30
0.0
 10
246.4626856246214
 20
-628.0098345844381
 30
0.0
 10
246.4626856246214
 20
-627.5347658550072
 30
0.0
 10
248.8494703975248
 20
-613.380040877897
 30
0.0
 10
253.7775824778928
 20
-610.6441052615173
 30
0.0
 10
258.699973995379
 20
-607.9081696451376
 30
0.0
 10
259.049103004646
 20
-608.5892987263469
 30
0.0
 10
259.4555031453237
 20
-607.3587008469749
 30
0.0
 10
259.8676020146704
 20
-606.1281029676029
 30
0.0
 10
260.6861010246948
 20
-606.6718512028874
 30
0.0
 10
259.5871415941574
 20
-605.7904041669881
 30
0.0
 10
258.4939027264982
 20
-604.8975050882309
 30
0.0
 10
257.7441159736436
 20
-604.765855722293
 30
0.0
 10
256.8512059777786
 20
-603.191838479428
 30
0.0
 10
255.9640383790002
 20
-601.6178212365649
 30
0.0
 10
251.8601458715402
 20
-594.297203820417
 30
0.0
 10
253.3712041714234
 20
-588.6936941388267
 30
0.0
 10
254.8707995113409
 20
-583.0901844572345
 30
0.0
 10
256.1700878136753
 20
-580.3542488408548
 30
0.0
 10
256.3761372483486
 20
-579.8047800426921
 30
0.0
 10
256.5764661201447
 20
-579.2553003274224
 30
0.0
 10
257.5380447047592
 20
-578.7802315979934
 30
0.0
 10
257.8814749853555
 20
-578.2307518827238
 30
0.0
 10
258.224905265949
 20
-577.6812830845611
 30
0.0
 10
258.5683137123369
 20
-577.6125926616005
 30
0.0
 10
257.675425550683
 20
-576.6567346398624
 30
0.0
 10
256.7882579519046
 20
-575.7008766181261
 30
0.0
 10
255.8953479560396
 20
-575.6321971122688
 30
0.0
 10
254.5960596537079
 20
-575.0884379598774
 30
0.0
 10
253.2967931855837
 20
-574.5389691617147
 30
0.0
 10
247.4814916722335
 20
-570.715526157659
 30
0.0
 10
246.2508937928615
 20
-566.3311841467894
 30
0.0
 10
245.0202959134895
 20
-561.9582723445692
 30
0.0
 10
243.0399112812611
 20
-560.3842441846009
 30
0.0
 10
244.5452490182679
 20
-556.417710688851
 30
0.0
 10
246.0448443581854
 20
-552.4569195901895
 30
0.0
 10
245.4324166170436
 20
-552.8632978966561
 30
0.0
 10
246.594324073455
 20
-551.7013904402447
 30
0.0
 10
247.7562315298655
 20
-550.5394611496249
 30
0.0
 10
248.9238813833636
 20
-549.7209839738098
 30
0.0
 10
248.6491415257315
 20
-549.5836031278905
 30
0.0
 10
248.3744016680948
 20
-549.4462441161741
 30
0.0
 10
248.6491415257315
 20
-549.8526224226443
 30
0.0
 10
245.4324166170436
 20
-549.3718331303353
 30
0.0
 10
242.2214122712376
 20
-548.8967644009081
 30
0.0
 10
240.0235152443693
 20
-549.1028138355814
 30
0.0
 10
238.3178486355682
 20
-548.2156462368039
 30
0.0
 10
236.6121820267672
 20
-547.3227362409416
 30
0.0
 10
235.0381538667989
 20
-548.0095968021305
 30
0.0
 10
233.7331668357974
 20
-546.0291903356938
 30
0.0
 10
232.439599096344
 20
-544.0430633063806
 30
0.0
 10
231.7527603693616
 20
-542.6064159923353
 30
0.0
 10
231.8214289581138
 20
-541.8566074052706
 30
0.0
 10
231.8901193810743
 20
-541.1010782553276
 30
0.0
 10
232.0961688157477
 20
-540.0765298106289
 30
0.0
 10
232.0961688157477
 20
-540.0765298106289
 30
0.0
 10
232.0961688157477
 20
-540.0765298106289
 30
0.0
 10
227.1051087095093
 20
-533.5801319673828
 30
0.0
 10
229.3602331993679
 20
-529.6135984716329
 30
0.0
 10
231.6153795234413
 20
-525.647064975883
 30
0.0
 10
228.0552461683683
 20
-528.5890500269343
 30
0.0
 10
228.0552461683683
 20
-528.5890500269343
 30
0.0
 10
228.0552461683683
 20
-528.5890500269343
 30
0.0
 10
225.9432012530979
 20
-528.6577404498967
 30
0.0
 10
225.0560118201111
 20
-529.2072201651663
 30
0.0
 10
224.1631236584572
 20
-529.7509574833457
 30
0.0
 10
223.0641642279188
 20
-530.9128867739673
 30
0.0
 10
221.4271880420783
 20
-530.7755059280444
 30
0.0
 10
219.7844912933579
 20
-530.6381469163316
 30
0.0
 10
219.372381506907
 20
-531.6684159239085
 30
0.0
 10
218.3478330622083
 20
-529.6135984716329
 30
0.0
 10
217.3232955346148
 20
-527.5645015822374
 30
0.0
 10
216.9111857481639
 20
-526.4712845487866
 30
0.0
 10
216.9111857481639
 20
-526.4712845487866
 30
0.0
 10
216.9111857481639
 20
-526.4712845487866
 30
0.0
 10
211.5137255012451
 20
-523.3919186518124
 30
0.0
 10
210.6895168454485
 20
-521.8866027490149
 30
0.0
 10
209.865297272544
 20
-520.3869855748871
 30
0.0
 10
209.3902394602192
 20
-519.7001250136964
 30
0.0
 10
209.0410886167447
 20
-518.0574282649777
 30
0.0
 10
208.6976692532526
 20
-516.4147315162609
 30
0.0
 10
208.2970115096632
 20
-514.571684061535
 30
0.0
 10
207.8791811603332
 20
-514.3656346268617
 30
0.0
 10
207.4727919367606
 20
-514.1595851921902
 30
0.0
 10
207.0664136302912
 20
-514.3026866009895
 30
0.0
 10
205.5610758932871
 20
-515.2585446227276
 30
0.0
 10
204.0557381562794
 20
-516.2086820815857
 30
0.0
 10
202.9567896428471
 20
-517.032879820279
 30
0.0
 10
200.4955938841013
 20
-517.1015702432414
 30
0.0
 10
198.0343981253582
 20
-517.170260666202
 30
0.0
 10
196.8038002459862
 20
-516.689471373893
 30
0.0
 10
196.8038002459862
 20
-516.689471373893
 30
0.0
 10
196.8038002459862
 20
-516.689471373893
 30
0.0
 10
198.3778174888485
 20
-517.2389510891626
 30
0.0
 10
196.1169615190047
 20
-518.1261186879383
 30
0.0
 10
193.861815194934
 20
-519.0132862867158
 30
0.0
 10
191.2632495073731
 20
-518.8129574149189
 30
0.0
 10
189.7636432503496
 20
-518.3321681226134
 30
0.0
 10
188.2525849504636
 20
-517.8570993931826
 30
0.0
 10
188.8707441715906
 20
-516.2086820815857
 30
0.0
 10
185.8658001775602
 20
-517.032879820279
 30
0.0
 10
182.8494041406693
 20
-517.8570993931826
 30
0.0
 10
181.0750580260101
 20
-518.4695489685346
 30
0.0
 10
180.8632771113553
 20
-517.3705895379953
 30
0.0
 10
180.6629482395592
 20
-516.2830930674245
 30
0.0
 10
179.426629797309
 20
-515.3901830715622
 30
0.0
 10
179.9074190896172
 20
-514.2282756151508
 30
0.0
 10
180.3824878190471
 20
-513.0663681587394
 30
0.0
 10
178.2017524808161
 20
-511.1489097181748
 30
0.0
 10
177.3088534020562
 20
-509.9183118388028
 30
0.0
 10
176.4216858032814
 20
-508.6934563565192
 30
0.0
 10
175.9408855938664
 20
-508.4187164988853
 30
0.0
 10
175.5974662303761
 20
-507.3197570683478
 30
0.0
 10
175.259767429764
 20
-506.2322605977752
 30
0.0
 10
174.7102877144953
 20
-505.2706601789505
 30
0.0
 10
174.4355587739647
 20
-505.0646107442772
 30
0.0
 10
174.1665394792108
 20
-504.8585613096038
 30
0.0
 10
173.4797007522293
 20
-505.2706601789505
 30
0.0
 10
173.4797007522293
 20
-505.2706601789505
 30
0.0
  0
ENDBLK
  5
44
330
41
100
AcDbEntity
  8
0
100
AcDbBlockEnd
  0
ENDSEC
  0
SECTION
  2
ENTITIES
  0
INSERT
  5
42
330
1F
100
AcDbEntity
  8
Layer 1
100
AcDbBlockReference
  2
block 2
 10
0.0
 20
0.0
 30
0.0
  0
ENDSEC
  0
SECTION
  2
OBJECTS
  0
DICTIONARY
  5
C
330
0
100
AcDbDictionary
281
     1
  3
ACAD_GROUP
350
D
  3
ACAD_LAYOUT
350
1A
  3
ACAD_MATERIAL
350
3B
  3
ACAD_MLEADERSTYLE
350
A8
  3
ACAD_MLINESTYLE
350
17
  3
ACAD_PLOTSETTINGS
350
19
  3
ACAD_PLOTSTYLENAME
350
E
  3
ACAD_TABLESTYLE
350
A7
  3
ACAD_VISUALSTYLE
350
2A
  0
SUN
  5
3F
330
29
100
AcDbSun
 90
        1
290
     0
 63
     7
421
 16777215
 40
1.0
291
     1
 91
  2455826
 92
 54000000
292
     0
 70
     2
 71
   256
280
     1
  0
DICTIONARY
  5
D
102
{ACAD_REACTORS
330
C
102
}
330
C
100
AcDbDictionary
281
     1
  0
DICTIONARY
  5
1A
102
{ACAD_REACTORS
330
C
102
}
330
C
100
AcDbDictionary
281
     1
  3
Layout1
350
1E
  3
Layout2
350
26
  3
Model
350
22
  0
DICTIONARY
  5
3B
102
{ACAD_REACTORS
330
C
102
}
330
C
100
AcDbDictionary
281
     1
  3
ByBlock
350
3D
  3
ByLayer
350
3C
  3
Global
350
3E
  0
DICTIONARY
  5
A8
102
{ACAD_REACTORS
330
C
102
}
330
C
100
AcDbDictionary
281
     1
  0
DICTIONARY
  5
17
102
{ACAD_REACTORS
330
C
102
}
330
C
100
AcDbDictionary
281
     1
  3
Standard
350
18
  0
DICTIONARY
  5
19
102
{ACAD_REACTORS
330
C
102
}
330
C
100
AcDbDictionary
281
     1
  0
ACDBDICTIONARYWDFLT
  5
E
102
{ACAD_REACTORS
330
C
102
}
330
C
100
AcDbDictionary
281
     1
  3
Normal
350
F
100
AcDbDictionaryWithDefault
340
F
  0
DICTIONARY
  5
A7
102
{ACAD_REACTORS
330
C
102
}
330
C
100
AcDbDictionary
281
     1
  0
DICTIONARY
  5
2A
102
{ACAD_REACTORS
330
C
102
}
330
C
100
AcDbDictionary
281
     1
  3
2dWireframe
350
2F
  3
3D Hidden
350
31
  3
3dWireframe
350
30
  3
Basic
350
32
  3
Brighten
350
36
  3
ColorChange
350
3A
  3
Conceptual
350
34
  3
Dim
350
35
  3
Facepattern
350
39
  3
Flat
350
2B
  3
FlatWithEdges
350
2C
  3
Gouraud
350
2D
  3
GouraudWithEdges
350
2E
  3
Linepattern
350
38
  3
Realistic
350
33
  3
Thicken
350
37
  0
LAYOUT
  5
1E
102
{ACAD_REACTORS
330
1A
102
}
330
1A
100
AcDbPlotSettings
  1

  2
none_device
  4

  6

 40
0.0
 41
0.0
 42
0.0
 43
0.0
 44
0.0
 45
0.0
 46
0.0
 47
0.0
 48
0.0
 49
0.0
140
0.0
141
0.0
142
1.0
143
1.0
 70
   688
 72
     0
 73
     0
 74
     5
  7

 75
    16
 76
     0
 77
     2
 78
   300
147
1.0
148
0.0
149
0.0
100
AcDbLayout
  1
Layout1
 70
     1
 71
     1
 10
0.0
 20
0.0
 11
12.0
 21
9.0
 12
0.0
 22
0.0
 32
0.0
 14
1.000000000000000E+20
 24
1.000000000000000E+20
 34
1.000000000000000E+20
 15
-1.000000000000000E+20
 25
-1.000000000000000E+20
 35
-1.000000000000000E+20
146
0.0
 13
0.0
 23
0.0
 33
0.0
 16
1.0
 26
0.0
 36
0.0
 17
0.0
 27
1.0
 37
0.0
 76
     0
330
1B
  0
LAYOUT
  5
26
102
{ACAD_REACTORS
330
1A
102
}
330
1A
100
AcDbPlotSettings
  1

  2
none_device
  4

  6

 40
0.0
 41
0.0
 42
0.0
 43
0.0
 44
0.0
 45
0.0
 46
0.0
 47
0.0
 48
0.0
 49
0.0
140
0.0
141
0.0
142
1.0
143
1.0
 70
   688
 72
     0
 73
     0
 74
     5
  7

 75
    16
 76
     0
 77
     2
 78
   300
147
1.0
148
0.0
149
0.0
100
AcDbLayout
  1
Layout2
 70
     1
 71
     2
 10
0.0
 20
0.0
 11
0.0
 21
0.0
 12
0.0
 22
0.0
 32
0.0
 14
0.0
 24
0.0
 34
0.0
 15
0.0
 25
0.0
 35
0.0
146
0.0
 13
0.0
 23
0.0
 33
0.0
 16
1.0
 26
0.0
 36
0.0
 17
0.0
 27
1.0
 37
0.0
 76
     0
330
23
  0
LAYOUT
  5
22
102
{ACAD_REACTORS
330
1A
102
}
330
1A
100
AcDbPlotSettings
  1

  2
none_device
  4

  6

 40
0.0
 41
0.0
 42
0.0
 43
0.0
 44
0.0
 45
0.0
 46
0.0
 47
0.0
 48
0.0
 49
0.0
140
0.0
141
0.0
142
1.0
143
1.0
 70
  1712
 72
     0
 73
     0
 74
     0
  7

 75
     0
 76
     0
 77
     2
 78
   300
147
1.0
148
0.0
149
0.0
100
AcDbLayout
  1
Model
 70
     1
 71
     0
 10
0.0
 20
0.0
 11
12.0
 21
9.0
 12
0.0
 22
0.0
 32
0.0
 14
1.000000000000000E+20
 24
1.000000000000000E+20
 34
1.000000000000000E+20
 15
-1.000000000000000E+20
 25
-1.000000000000000E+20
 35
-1.000000000000000E+20
146
0.0
 13
0.0
 23
0.0
 33
0.0
 16
1.0
 26
0.0
 36
0.0
 17
0.0
 27
1.0
 37
0.0
 76
     0
330
1F
331
29
  0
MATERIAL
  5
3D
102
{ACAD_REACTORS
330
3B
102
}
330
3B
100
AcDbMaterial
  1
ByBlock
 72
     1
 94
      127
  0
MATERIAL
  5
3C
102
{ACAD_REACTORS
330
3B
102
}
330
3B
100
AcDbMaterial
  1
ByLayer
 72
     1
 94
      127
  0
MATERIAL
  5
3E
102
{ACAD_REACTORS
330
3B
102
}
330
3B
100
AcDbMaterial
  1
Global
 72
     1
 94
      127
  0
MLINESTYLE
  5
18
102
{ACAD_REACTORS
330
17
102
}
330
17
100
AcDbMlineStyle
  2
Standard
 70
     0
  3

 62
   256
 51
90.0
 52
90.0
 71
     2
 49
0.5
 62
   256
  6
BYLAYER
 49
-0.5
 62
   256
  6
BYLAYER
  0
ACDBPLACEHOLDER
  5
F
102
{ACAD_REACTORS
330
E
102
}
330
E
  0
VISUALSTYLE
  5
2F
102
{ACAD_REACTORS
330
2A
102
}
330
2A
100
AcDbVisualStyle
  2
2dWireframe
 70
     4
177
     2
291
     0
 71
     0
176
     1
 72
     2
176
     1
 73
     0
176
     1
 90
        0
176
     1
 40
-0.6
176
     1
 41
-30.0
176
     1
 62
     5
 63
     7
421
 16777215
176
     1
 74
     1
176
     1
 91
        4
176
     1
 64
     7
176
     1
 65
   257
176
     1
 75
     1
176
     1
175
     1
176
     1
 42
1.0
176
     1
 92
        0
176
     1
 66
   257
176
     1
 43
1.0
176
     1
 76
     1
176
     1
 77
     6
176
     1
 78
     2
176
     1
 67
     7
176
     1
 79
     5
176
     1
170
     0
176
     1
171
     0
176
     1
290
     0
176
     1
 93
        1
176
     1
 44
0.0
176
     1
173
     0
176
     1
  0
VISUALSTYLE
  5
31
102
{ACAD_REACTORS
330
2A
102
}
330
2A
100
AcDbVisualStyle
  2
3D Hidden
 70
     6
177
     2
291
     0
 71
     1
176
     1
 72
     2
176
     1
 73
     2
176
     1
 90
        0
176
     1
 40
-0.6
176
     1
 41
-30.0
176
     1
 62
     5
 63
     7
421
 16777215
176
     1
 74
     2
176
     1
 91
        2
176
     1
 64
     7
176
     1
 65
   257
176
     1
 75
     2
176
     1
175
     1
176
     1
 42
40.0
176
     1
 92
        0
176
     1
 66
   257
176
     1
 43
1.0
176
     1
 76
     1
176
     1
 77
     6
176
     1
 78
     2
176
     1
 67
     7
176
     1
 79
     3
176
     1
170
     0
176
     1
171
     0
176
     1
290
     0
176
     1
 93
        1
176
     1
 44
0.0
176
     1
173
     0
176
     1
  0
VISUALSTYLE
  5
30
102
{ACAD_REACTORS
330
2A
102
}
330
2A
100
AcDbVisualStyle
  2
3dWireframe
 70
     5
177
     2
291
     0
 71
     0
176
     1
 72
     2
176
     1
 73
     0
176
     1
 90
        0
176
     1
 40
-0.6
176
     1
 41
-30.0
176
     1
 62
     5
 63
     7
421
 16777215
176
     1
 74
     1
176
     1
 91
        4
176
     1
 64
     7
176
     1
 65
   257
176
     1
 75
     1
176
     1
175
     1
176
     1
 42
1.0
176
     1
 92
        0
176
     1
 66
   257
176
     1
 43
1.0
176
     1
 76
     1
176
     1
 77
     6
176
     1
 78
     2
176
     1
 67
     7
176
     1
 79
     5
176
     1
170
     0
176
     1
171
     0
176
     1
290
     0
176
     1
 93
        1
176
     1
 44
0.0
176
     1
173
     0
176
     1
  0
VISUALSTYLE
  5
32
102
{ACAD_REACTORS
330
2A
102
}
330
2A
100
AcDbVisualStyle
  2
Basic
 70
     7
177
     2
291
     1
 71
     1
176
     1
 72
     0
176
     1
 73
     1
176
     1
 90
        0
176
     1
 40
-0.6
176
     1
 41
-30.0
176
     1
 62
     5
 63
     7
421
 16777215
176
     1
 74
     0
176
     1
 91
        4
176
     1
 64
     7
176
     1
 65
   257
176
     1
 75
     1
176
     1
175
     1
176
     1
 42
1.0
176
     1
 92
        8
176
     1
 66
     7
176
     1
 43
1.0
176
     1
 76
     1
176
     1
 77
     6
176
     1
 78
     2
176
     1
 67
     7
176
     1
 79
     5
176
     1
170
     0
176
     1
171
     0
176
     1
290
     0
176
     1
 93
        1
176
     1
 44
0.0
176
     1
173
     0
176
     1
  0
VISUALSTYLE
  5
36
102
{ACAD_REACTORS
330
2A
102
}
330
2A
100
AcDbVisualStyle
  2
Brighten
 70
    12
177
     2
291
     1
 71
     2
176
     1
 72
     2
176
     1
 73
     0
176
     1
 90
        0
176
     1
 40
-0.6
176
     1
 41
-30.0
176
     1
 62
     5
 63
     7
421
 16777215
176
     1
 74
     1
176
     1
 91
        4
176
     1
 64
     7
176
     1
 65
   257
176
     1
 75
     1
176
     1
175
     1
176
     1
 42
1.0
176
     1
 92
        8
176
     1
 66
     7
176
     1
 43
1.0
176
     1
 76
     1
176
     1
 77
     6
176
     1
 78
     2
176
     1
 67
     7
176
     1
 79
     5
176
     1
170
     0
176
     1
171
     0
176
     1
290
     0
176
     1
 93
        1
176
     1
 44
50.0
176
     1
173
     0
176
     1
  0
VISUALSTYLE
  5
3A
102
{ACAD_REACTORS
330
2A
102
}
330
2A
100
AcDbVisualStyle
  2
ColorChange
 70
    16
177
     2
291
     1
 71
     2
176
     1
 72
     2
176
     1
 73
     3
176
     1
 90
        0
176
     1
 40
-0.6
176
     1
 41
-30.0
176
     1
 62
     5
 63
     8
421
  8421504
176
     1
 74
     1
176
     1
 91
        4
176
     1
 64
     7
176
     1
 65
   257
176
     1
 75
     1
176
     1
175
     1
176
     1
 42
1.0
176
     1
 92
        8
176
     1
 66
     8
424
  8421504
176
     1
 43
1.0
176
     1
 76
     1
176
     1
 77
     6
176
     1
 78
     2
176
     1
 67
     7
176
     1
 79
     5
176
     1
170
     0
176
     1
171
     0
176
     1
290
     0
176
     1
 93
        1
176
     1
 44
0.0
176
     1
173
     0
176
     1
  0
VISUALSTYLE
  5
34
102
{ACAD_REACTORS
330
2A
102
}
330
2A
100
AcDbVisualStyle
  2
Conceptual
 70
     9
177
     2
291
     0
 71
     3
176
     1
 72
     2
176
     1
 73
     0
176
     1
 90
        0
176
     1
 40
-0.6
176
     1
 41
-30.0
176
     1
 62
     5
 63
     7
421
 16777215
176
     1
 74
     2
176
     1
 91
        2
176
     1
 64
     7
176
     1
 65
   257
176
     1
 75
     1
176
     1
175
     1
176
     1
 42
40.0
176
     1
 92
        8
176
     1
 66
     7
176
     1
 43
1.0
176
     1
 76
     1
176
     1
 77
     6
176
     1
 78
     2
176
     1
 67
     7
176
     1
 79
     3
176
     1
170
     0
176
     1
171
     0
176
     1
290
     0
176
     1
 93
        1
176
     1
 44
0.0
176
     1
173
     0
176
     1
  0
VISUALSTYLE
  5
35
102
{ACAD_REACTORS
330
2A
102
}
330
2A
100
AcDbVisualStyle
  2
Dim
 70
    11
177
     2
291
     1
 71
     2
176
     1
 72
     2
176
     1
 73
     0
176
     1
 90
        0
176
     1
 40
-0.6
176
     1
 41
-30.0
176
     1
 62
     5
 63
     7
421
 16777215
176
     1
 74
     1
176
     1
 91
        4
176
     1
 64
     7
176
     1
 65
   257
176
     1
 75
     1
176
     1
175
     1
176
     1
 42
1.0
176
     1
 92
        8
176
     1
 66
     7
176
     1
 43
1.0
176
     1
 76
     1
176
     1
 77
     6
176
     1
 78
     2
176
     1
 67
     7
176
     1
 79
     5
176
     1
170
     0
176
     1
171
     0
176
     1
290
     0
176
     1
 93
        1
176
     1
 44
-50.0
176
     1
173
     0
176
     1
  0
VISUALSTYLE
  5
39
102
{ACAD_REACTORS
330
2A
102
}
330
2A
100
AcDbVisualStyle
  2
Facepattern
 70
    15
177
     2
291
     1
 71
     2
176
     1
 72
     2
176
     1
 73
     0
176
     1
 90
        0
176
     1
 40
-0.6
176
     1
 41
-30.0
176
     1
 62
     5
 63
     7
421
 16777215
176
     1
 74
     1
176
     1
 91
        4
176
     1
 64
     7
176
     1
 65
   257
176
     1
 75
     1
176
     1
175
     1
176
     1
 42
1.0
176
     1
 92
        8
176
     1
 66
     7
176
     1
 43
1.0
176
     1
 76
     1
176
     1
 77
     6
176
     1
 78
     2
176
     1
 67
     7
176
     1
 79
     5
176
     1
170
     0
176
     1
171
     0
176
     1
290
     0
176
     1
 93
        1
176
     1
 44
0.0
176
     1
173
     0
176
     1
  0
VISUALSTYLE
  5
2B
102
{ACAD_REACTORS
330
2A
102
}
330
2A
100
AcDbVisualStyle
  2
Flat
 70
     0
177
     2
291
     1
 71
     2
176
     1
 72
     1
176
     1
 73
     1
176
     1
 90
        2
176
     1
 40
-0.6
176
     1
 41
30.0
176
     1
 62
     5
 63
     7
421
 16777215
176
     1
 74
     0
176
     1
 91
        4
176
     1
 64
     7
176
     1
 65
   257
176
     1
 75
     1
176
     1
175
     1
176
     1
 42
1.0
176
     1
 92
        8
176
     1
 66
     7
176
     1
 43
1.0
176
     1
 76
     1
176
     1
 77
     6
176
     1
 78
     2
176
     1
 67
     7
176
     1
 79
     5
176
     1
170
     0
176
     1
171
     0
176
     1
290
     0
176
     1
 93
       13
176
     1
 44
0.0
176
     1
173
     0
176
     1
  0
VISUALSTYLE
  5
2C
102
{ACAD_REACTORS
330
2A
102
}
330
2A
100
AcDbVisualStyle
  2
FlatWithEdges
 70
     1
177
     2
291
     1
 71
     2
176
     1
 72
     1
176
     1
 73
     1
176
     1
 90
        2
176
     1
 40
-0.6
176
     1
 41
30.0
176
     1
 62
     5
 63
     7
421
 16777215
176
     1
 74
     1
176
     1
 91
        4
176
     1
 64
     7
176
     1
 65
   257
176
     1
 75
     1
176
     1
175
     1
176
     1
 42
1.0
176
     1
 92
        0
176
     1
 66
   257
176
     1
 43
1.0
176
     1
 76
     1
176
     1
 77
     6
176
     1
 78
     2
176
     1
 67
     7
176
     1
 79
     5
176
     1
170
     0
176
     1
171
     0
176
     1
290
     0
176
     1
 93
       13
176
     1
 44
0.0
176
     1
173
     0
176
     1
  0
VISUALSTYLE
  5
2D
102
{ACAD_REACTORS
330
2A
102
}
330
2A
100
AcDbVisualStyle
  2
Gouraud
 70
     2
177
     2
291
     1
 71
     2
176
     1
 72
     2
176
     1
 73
     1
176
     1
 90
        2
176
     1
 40
-0.6
176
     1
 41
30.0
176
     1
 62
     5
 63
     7
421
 16777215
176
     1
 74
     0
176
     1
 91
        4
176
     1
 64
     7
176
     1
 65
   257
176
     1
 75
     1
176
     1
175
     1
176
     1
 42
1.0
176
     1
 92
        0
176
     1
 66
     7
176
     1
 43
1.0
176
     1
 76
     1
176
     1
 77
     6
176
     1
 78
     2
176
     1
 67
     7
176
     1
 79
     5
176
     1
170
     0
176
     1
171
     0
176
     1
290
     0
176
     1
 93
       13
176
     1
 44
0.0
176
     1
173
     0
176
     1
  0
VISUALSTYLE
  5
2E
102
{ACAD_REACTORS
330
2A
102
}
330
2A
100
AcDbVisualStyle
  2
GouraudWithEdges
 70
     3
177
     2
291
     1
 71
     2
176
     1
 72
     2
176
     1
 73
     1
176
     1
 90
        2
176
     1
 40
-0.6
176
     1
 41
30.0
176
     1
 62
     5
 63
     7
421
 16777215
176
     1
 74
     1
176
     1
 91
        4
176
     1
 64
     7
176
     1
 65
   257
176
     1
 75
     1
176
     1
175
     1
176
     1
 42
1.0
176
     1
 92
        0
176
     1
 66
   257
176
     1
 43
1.0
176
     1
 76
     1
176
     1
 77
     6
176
     1
 78
     2
176
     1
 67
     7
176
     1
 79
     5
176
     1
170
     0
176
     1
171
     0
176
     1
290
     0
176
     1
 93
       13
176
     1
 44
0.0
176
     1
173
     0
176
     1
  0
VISUALSTYLE
  5
38
102
{ACAD_REACTORS
330
2A
102
}
330
2A
100
AcDbVisualStyle
  2
Linepattern
 70
    14
177
     2
291
     1
 71
     2
176
     1
 72
     2
176
     1
 73
     0
176
     1
 90
        0
176
     1
 40
-0.6
176
     1
 41
-30.0
176
     1
 62
     5
 63
     7
421
 16777215
176
     1
 74
     1
176
     1
 91
        4
176
     1
 64
     7
176
     1
 65
   257
176
     1
 75
     7
176
     1
175
     7
176
     1
 42
1.0
176
     1
 92
        8
176
     1
 66
     7
176
     1
 43
1.0
176
     1
 76
     1
176
     1
 77
     6
176
     1
 78
     2
176
     1
 67
     7
176
     1
 79
     5
176
     1
170
     0
176
     1
171
     0
176
     1
290
     0
176
     1
 93
        1
176
     1
 44
0.0
176
     1
173
     0
176
     1
  0
VISUALSTYLE
  5
33
102
{ACAD_REACTORS
330
2A
102
}
330
2A
100
AcDbVisualStyle
  2
Realistic
 70
     8
177
     2
291
     0
 71
     2
176
     1
 72
     2
176
     1
 73
     0
176
     1
 90
        0
176
     1
 40
-0.6
176
     1
 41
-30.0
176
     1
 62
     5
 63
     7
421
 16777215
176
     1
 74
     1
176
     1
 91
        0
176
     1
 64
     7
176
     1
 65
   257
176
     1
 75
     1
176
     1
175
     1
176
     1
 42
1.0
176
     1
 92
        8
176
     1
 66
     8
424
  7895160
176
     1
 43
1.0
176
     1
 76
     1
176
     1
 77
     6
176
     1
 78
     2
176
     1
 67
     7
176
     1
 79
     5
176
     1
170
     0
176
     1
171
     0
176
     1
290
     0
176
     1
 93
       13
176
     1
 44
0.0
176
     1
173
     0
176
     1
  0
VISUALSTYLE
  5
37
102
{ACAD_REACTORS
330
2A
102
}
330
2A
100
AcDbVisualStyle
  2
Thicken
 70
    13
177
     2
291
     1
 71
     2
176
     1
 72
     2
176
     1
 73
     0
176
     1
 90
        0
176
     1
 40
-0.6
176
     1
 41
-30.0
176
     1
 62
     5
 63
     7
421
 16777215
176
     1
 74
     1
176
     1
 91
        4
176
     1
 64
     7
176
     1
 65
   257
176
     1
 75
     1
176
     1
175
     1
176
     1
 42
1.0
176
     1
 92
       12
176
     1
 66
     7
176
     1
 43
1.0
176
     1
 76
     1
176
     1
 77
     6
176
     1
 78
     2
176
     1
 67
     7
176
     1
 79
     5
176
     1
170
     0
176
     1
171
     0
176
     1
290
     0
176
     1
 93
        1
176
     1
 44
0.0
176
     1
173
     0
176
     1
  0
ENDSEC
  0
EOF
