  0
SECTION
  2
HEADER
  9
$ACADVER
  1
AC1024
  9
$ACADMAINTVER
 70
     6
  9
$DWGCODEPAGE
  3
UNDEFINED
  9
$INSBASE
 10
0.0
 20
0.0
 30
0.0
  9
$EXTMIN
 10
1.000000000000000E+20
 20
1.000000000000000E+20
 30
1.000000000000000E+20
  9
$EXTMAX
 10
-1.000000000000000E+20
 20
-1.000000000000000E+20
 30
-1.000000000000000E+20
  9
$LIMMIN
 10
0.0
 20
0.0
  9
$LIMMAX
 10
12.0
 20
9.0
  9
$ORTHOMODE
 70
     0
  9
$REGENMODE
 70
     1
  9
$FILLMODE
 70
     1
  9
$QTEXTMODE
 70
     0
  9
$MIRRTEXT
 70
     1
  9
$LTSCALE
 40
1.0
  9
$ATTMODE
 70
     1
  9
$TEXTSIZE
 40
0.2
  9
$TRACEWID
 40
0.05
  9
$TEXTSTYLE
  7
Standard
  9
$CLAYER
  8
0
  9
$CELTYPE
  6
ByLayer
  9
$CECOLOR
 62
   256
  9
$CELTSCALE
 40
1.0
  9
$DISPSILH
 70
     0
  9
$DIMSCALE
 40
1.0
  9
$DIMASZ
 40
0.18
  9
$DIMEXO
 40
0.0625
  9
$DIMDLI
 40
0.38
  9
$DIMRND
 40
0.0
  9
$DIMDLE
 40
0.0
  9
$DIMEXE
 40
0.18
  9
$DIMTP
 40
0.0
  9
$DIMTM
 40
0.0
  9
$DIMTXT
 40
0.18
  9
$DIMCEN
 40
0.09
  9
$DIMTSZ
 40
0.0
  9
$DIMTOL
 70
     0
  9
$DIMLIM
 70
     0
  9
$DIMTIH
 70
     1
  9
$DIMTOH
 70
     1
  9
$DIMSE1
 70
     0
  9
$DIMSE2
 70
     0
  9
$DIMTAD
 70
     0
  9
$DIMZIN
 70
     0
  9
$DIMBLK
  1

  9
$DIMASO
 70
     1
  9
$DIMSHO
 70
     1
  9
$DIMPOST
  1

  9
$DIMAPOST
  1

  9
$DIMALT
 70
     0
  9
$DIMALTD
 70
     2
  9
$DIMALTF
 40
25.4
  9
$DIMLFAC
 40
1.0
  9
$DIMTOFL
 70
     0
  9
$DIMTVP
 40
0.0
  9
$DIMTIX
 70
     0
  9
$DIMSOXD
 70
     0
  9
$DIMSAH
 70
     0
  9
$DIMBLK1
  1

  9
$DIMBLK2
  1

  9
$DIMSTYLE
  2
Standard
  9
$DIMCLRD
 70
     0
  9
$DIMCLRE
 70
     0
  9
$DIMCLRT
 70
     0
  9
$DIMTFAC
 40
1.0
  9
$DIMGAP
 40
0.09
  9
$DIMJUST
 70
     0
  9
$DIMSD1
 70
     0
  9
$DIMSD2
 70
     0
  9
$DIMTOLJ
 70
     1
  9
$DIMTZIN
 70
     0
  9
$DIMALTZ
 70
     0
  9
$DIMALTTZ
 70
     0
  9
$DIMUPT
 70
     0
  9
$DIMDEC
 70
     4
  9
$DIMTDEC
 70
     4
  9
$DIMALTU
 70
     2
  9
$DIMALTTD
 70
     2
  9
$DIMTXSTY
  7
Standard
  9
$DIMAUNIT
 70
     0
  9
$DIMADEC
 70
     0
  9
$DIMALTRND
 40
0.0
  9
$DIMAZIN
 70
     0
  9
$DIMDSEP
 70
    46
  9
$DIMATFIT
 70
     3
  9
$DIMFRAC
 70
     0
  9
$DIMLDRBLK
  1

  9
$DIMLUNIT
 70
     2
  9
$DIMLWD
 70
    -2
  9
$DIMLWE
 70
    -2
  9
$DIMTMOVE
 70
     0
  9
$DIMFXL
 40
1.0
  9
$DIMFXLON
 70
     0
  9
$DIMJOGANG
 40
0.7853981633974483
  9
$DIMTFILL
 70
     0
  9
$DIMTFILLCLR
 70
     0
  9
$DIMARCSYM
 70
     0
  9
$DIMLTYPE
  6

  9
$DIMLTEX1
  6

  9
$DIMLTEX2
  6

  9
$DIMTXTDIRECTION
 70
     0
  9
$LUNITS
 70
     2
  9
$LUPREC
 70
     4
  9
$SKETCHINC
 40
0.1
  9
$FILLETRAD
 40
0.5
  9
$AUNITS
 70
     0
  9
$AUPREC
 70
     0
  9
$MENU
  1
.
  9
$ELEVATION
 40
0.0
  9
$PELEVATION
 40
0.0
  9
$THICKNESS
 40
0.0
  9
$LIMCHECK
 70
     0
  9
$CHAMFERA
 40
0.5
  9
$CHAMFERB
 40
0.5
  9
$CHAMFERC
 40
1.0
  9
$CHAMFERD
 40
0.0
  9
$SKPOLY
 70
     0
  9
$TDCREATE
 40
2458113.725555555
  9
$TDUCREATE
 40
2458113.642222222
  9
$TDUPDATE
 40
2458113.725555555
  9
$TDUUPDATE
 40
2458113.642222222
  9
$TDINDWG
 40
0.0000000116
  9
$TDUSRTIMER
 40
0.0000000116
  9
$USRTIMER
 70
     1
  9
$ANGBASE
 50
0.0
  9
$ANGDIR
 70
     0
  9
$PDMODE
 70
     0
  9
$PDSIZE
 40
0.0
  9
$PLINEWID
 40
0.0
  9
$SPLFRAME
 70
     0
  9
$SPLINETYPE
 70
     6
  9
$SPLINESEGS
 70
     8
  9
$HANDSEED
  5
B6
  9
$SURFTAB1
 70
     6
  9
$SURFTAB2
 70
     6
  9
$SURFTYPE
 70
     6
  9
$SURFU
 70
     6
  9
$SURFV
 70
     6
  9
$UCSBASE
  2

  9
$UCSNAME
  2

  9
$UCSORG
 10
0.0
 20
0.0
 30
0.0
  9
$UCSXDIR
 10
1.0
 20
0.0
 30
0.0
  9
$UCSYDIR
 10
0.0
 20
1.0
 30
0.0
  9
$UCSORTHOREF
  2

  9
$UCSORTHOVIEW
 70
     0
  9
$UCSORGTOP
 10
0.0
 20
0.0
 30
0.0
  9
$UCSORGBOTTOM
 10
0.0
 20
0.0
 30
0.0
  9
$UCSORGLEFT
 10
0.0
 20
0.0
 30
0.0
  9
$UCSORGRIGHT
 10
0.0
 20
0.0
 30
0.0
  9
$UCSORGFRONT
 10
0.0
 20
0.0
 30
0.0
  9
$UCSORGBACK
 10
0.0
 20
0.0
 30
0.0
  9
$PUCSBASE
  2

  9
$PUCSNAME
  2

  9
$PUCSORG
 10
0.0
 20
0.0
 30
0.0
  9
$PUCSXDIR
 10
1.0
 20
0.0
 30
0.0
  9
$PUCSYDIR
 10
0.0
 20
1.0
 30
0.0
  9
$PUCSORTHOREF
  2

  9
$PUCSORTHOVIEW
 70
     0
  9
$PUCSORGTOP
 10
0.0
 20
0.0
 30
0.0
  9
$PUCSORGBOTTOM
 10
0.0
 20
0.0
 30
0.0
  9
$PUCSORGLEFT
 10
0.0
 20
0.0
 30
0.0
  9
$PUCSORGRIGHT
 10
0.0
 20
0.0
 30
0.0
  9
$PUCSORGFRONT
 10
0.0
 20
0.0
 30
0.0
  9
$PUCSORGBACK
 10
0.0
 20
0.0
 30
0.0
  9
$USERI1
 70
     0
  9
$USERI2
 70
     0
  9
$USERI3
 70
     0
  9
$USERI4
 70
     0
  9
$USERI5
 70
     0
  9
$USERR1
 40
0.0
  9
$USERR2
 40
0.0
  9
$USERR3
 40
0.0
  9
$USERR4
 40
0.0
  9
$USERR5
 40
0.0
  9
$WORLDVIEW
 70
     1
  9
$SHADEDGE
 70
     3
  9
$SHADEDIF
 70
    70
  9
$TILEMODE
 70
     1
  9
$MAXACTVP
 70
    64
  9
$PINSBASE
 10
0.0
 20
0.0
 30
0.0
  9
$PLIMCHECK
 70
     0
  9
$PEXTMIN
 10
1.000000000000000E+20
 20
1.000000000000000E+20
 30
1.000000000000000E+20
  9
$PEXTMAX
 10
-1.000000000000000E+20
 20
-1.000000000000000E+20
 30
-1.000000000000000E+20
  9
$PLIMMIN
 10
0.0
 20
0.0
  9
$PLIMMAX
 10
12.0
 20
9.0
  9
$UNITMODE
 70
     0
  9
$VISRETAIN
 70
     1
  9
$PLINEGEN
 70
     0
  9
$PSLTSCALE
 70
     1
  9
$TREEDEPTH
 70
  3020
  9
$CMLSTYLE
  2
Standard
  9
$CMLJUST
 70
     0
  9
$CMLSCALE
 40
1.0
  9
$PROXYGRAPHICS
 70
     1
  9
$MEASUREMENT
 70
     0
  9
$CELWEIGHT
370
    -1
  9
$ENDCAPS
280
     0
  9
$JOINSTYLE
280
     0
  9
$LWDISPLAY
290
     1
  9
$INSUNITS
 70
     1
  9
$HYPERLINKBASE
  1

  9
$STYLESHEET
  1

  9
$XEDIT
290
     1
  9
$CEPSNTYPE
380
     0
  9
$PSTYLEMODE
290
     1
  9
$FINGERPRINTGUID
  2
{831CE9FE-85D2-E9E7-AE7D-D3C2562D4C60}
  9
$VERSIONGUID
  2
{FAEB1C32-E019-11D5-929B-00C0DF256EC4}
  9
$EXTNAMES
290
     1
  9
$PSVPSCALE
 40
0.0
  9
$OLESTARTUP
290
     0
  9
$SORTENTS
280
   127
  9
$INDEXCTL
280
     0
  9
$HIDETEXT
280
     1
  9
$XCLIPFRAME
280
     2
  9
$HALOGAP
280
     0
  9
$OBSCOLOR
 70
   257
  9
$OBSLTYPE
280
     0
  9
$INTERSECTIONDISPLAY
280
     0
  9
$INTERSECTIONCOLOR
 70
   257
  9
$DIMASSOC
280
     2
  9
$PROJECTNAME
  1

  9
$CAMERADISPLAY
290
     0
  9
$LENSLENGTH
 40
50.0
  9
$CAMERAHEIGHT
 40
0.0
  9
$STEPSPERSEC
 40
2.0
  9
$STEPSIZE
 40
6.0
  9
$3DDWFPREC
 40
2.0
  9
$PSOLWIDTH
 40
0.25
  9
$PSOLHEIGHT
 40
4.0
  9
$LOFTANG1
 40
1.570796326794897
  9
$LOFTANG2
 40
1.570796326794897
  9
$LOFTMAG1
 40
0.0
  9
$LOFTMAG2
 40
0.0
  9
$LOFTPARAM
 70
     7
  9
$LOFTNORMALS
280
     1
  9
$LATITUDE
 40
37.795
  9
$LONGITUDE
 40
-122.394
  9
$NORTHDIRECTION
 40
0.0
  9
$TIMEZONE
 70
 -8000
  9
$LIGHTGLYPHDISPLAY
280
     1
  9
$TILEMODELIGHTSYNCH
280
     1
  9
$CMATERIAL
347
3C
  9
$SOLIDHIST
280
     1
  9
$SHOWHIST
280
     1
  9
$DWFFRAME
280
     2
  9
$DGNFRAME
280
     2
  9
$REALWORLDSCALE
290
     1
  9
$INTERFERECOLOR
 62
   256
  9
$CSHADOW
280
     0
  9
$SHADOWPLANELOCATION
 40
0.0
  0
ENDSEC
  0
SECTION
  2
CLASSES
  0
CLASS
  1
ACDBDICTIONARYWDFLT
  2
AcDbDictionaryWithDefault
  3
ObjectDBX Classes
 90
        0
 91
        4
280
     0
281
     0
  0
CLASS
  1
VISUALSTYLE
  2
AcDbVisualStyle
  3
ObjectDBX Classes
 90
     4095
 91
        4
280
     0
281
     0
  0
CLASS
  1
MATERIAL
  2
AcDbMaterial
  3
ObjectDBX Classes
 90
     1153
 91
        4
280
     0
281
     0
  0
CLASS
  1
SUN
  2
AcDbSun
  3
SCENEOE
 90
     1024
 91
        4
280
     0
281
     0
  0
ENDSEC
  0
SECTION
  2
TABLES
  0
TABLE
  2
VPORT
  5
8
330
0
100
AcDbSymbolTable
 70
     1
  0
VPORT
  5
29
330
8
100
AcDbSymbolTableRecord
100
AcDbViewportTableRecord
  2
*Active
 70
     0
 10
0.0
 20
0.0
 11
1.0
 21
1.0
 12
0.0
 22
0.0
 13
0.0
 23
0.0
 14
0.5
 24
0.5
 15
0.5
 25
0.5
 16
0.0
 26
0.0
 36
1.0
 17
297.6379999999999
 27
-420.9449999999997
 37
0.0
 40
841.8899999999994
 41
0.7070709950231031
 42
50.0
 43
0.0
 44
0.0
 50
0.0
 51
0.0
 71
     0
 72
   100
 73
     1
 74
     3
 75
     0
 76
     0
 77
     0
 78
     0
281
     0
 65
     1
110
0.0
120
0.0
130
0.0
111
1.0
121
0.0
131
0.0
112
0.0
122
1.0
132
0.0
 79
     0
146
0.0
 60
     3
 61
     5
292
     1
282
     1
141
0.0
142
0.0
 63
   250
361
3F
  0
ENDTAB
  0
TABLE
  2
LTYPE
  5
5
330
0
100
AcDbSymbolTable
 70
     1
  0
LTYPE
  5
14
330
5
100
AcDbSymbolTableRecord
100
AcDbLinetypeTableRecord
  2
ByBlock
 70
     0
  3

 72
    65
 73
     0
 40
0.0
  0
LTYPE
  5
15
330
5
100
AcDbSymbolTableRecord
100
AcDbLinetypeTableRecord
  2
ByLayer
 70
     0
  3

 72
    65
 73
     0
 40
0.0
  0
LTYPE
  5
16
330
5
100
AcDbSymbolTableRecord
100
AcDbLinetypeTableRecord
  2
Continuous
 70
     0
  3
Solid line
 72
    65
 73
     0
 40
0.0
  0
ENDTAB
  0
TABLE
  2
LAYER
  5
2
330
0
100
AcDbSymbolTable
 70
     2
  0
LAYER
  5
10
330
2
100
AcDbSymbolTableRecord
100
AcDbLayerTableRecord
  2
0
 70
     0
 62
     7
  6
Continuous
370
    -3
390
F
347
3E
  0
LAYER
  5
40
330
2
100
AcDbSymbolTableRecord
100
AcDbLayerTableRecord
  2
Layer 1
 70
     0
 62
     7
  6
Continuous
370
    -3
390
F
347
3E
  0
ENDTAB
  0
TABLE
  2
STYLE
  5
3
330
0
100
AcDbSymbolTable
 70
     1
  0
STYLE
  5
11
330
3
100
AcDbSymbolTableRecord
100
AcDbTextStyleTableRecord
  2
Standard
 70
     0
 40
0.0
 41
1.0
 50
0.0
 71
     0
 42
0.2
  3
txt
  4

  0
ENDTAB
  0
TABLE
  2
VIEW
  5
6
330
0
100
AcDbSymbolTable
 70
     0
  0
ENDTAB
  0
TABLE
  2
UCS
  5
7
330
0
100
AcDbSymbolTable
 70
     0
  0
ENDTAB
  0
TABLE
  2
APPID
  5
9
330
0
100
AcDbSymbolTable
 70
     1
  0
APPID
  5
12
330
9
100
AcDbSymbolTableRecord
100
AcDbRegAppTableRecord
  2
ACAD
 70
     0
  0
ENDTAB
  0
TABLE
  2
DIMSTYLE
  5
A
330
0
100
AcDbSymbolTable
 70
     1
100
AcDbDimStyleTable
  0
DIMSTYLE
105
27
330
A
100
AcDbSymbolTableRecord
100
AcDbDimStyleTableRecord
  2
Standard
 70
     0
178
     0
340
11
  0
ENDTAB
  0
TABLE
  2
BLOCK_RECORD
  5
1
330
0
100
AcDbSymbolTable
 70
     2
  0
BLOCK_RECORD
  5
1F
330
1
100
AcDbSymbolTableRecord
100
AcDbBlockTableRecord
  2
*Model_Space
340
22
 70
     0
280
     1
281
     0
  0
BLOCK_RECORD
  5
1B
330
1
100
AcDbSymbolTableRecord
100
AcDbBlockTableRecord
  2
*Paper_Space
340
1E
 70
     0
280
     1
281
     0
  0
BLOCK_RECORD
  5
23
330
1
100
AcDbSymbolTableRecord
100
AcDbBlockTableRecord
  2
*Paper_Space0
340
26
 70
     0
280
     1
281
     0
  0
BLOCK_RECORD
  5
41
330
1
100
AcDbSymbolTableRecord
100
AcDbBlockTableRecord
  2
block 2
340
0
102
{BLKREFS
331
42
102
}
 70
     0
280
     1
281
     0
  0
ENDTAB
  0
ENDSEC
  0
SECTION
  2
BLOCKS
  0
BLOCK
  5
20
330
1F
100
AcDbEntity
  8
0
100
AcDbBlockBegin
  2
*Model_Space
 70
     0
 10
0.0
 20
0.0
 30
0.0
  3
*Model_Space
  1

  0
ENDBLK
  5
21
330
1F
100
AcDbEntity
  8
0
100
AcDbBlockEnd
  0
BLOCK
  5
1C
330
1B
100
AcDbEntity
 67
     1
  8
0
100
AcDbBlockBegin
  2
*Paper_Space
 70
     0
 10
0.0
 20
0.0
 30
0.0
  3
*Paper_Space
  1

  0
ENDBLK
  5
1D
330
1B
100
AcDbEntity
 67
     1
  8
0
100
AcDbBlockEnd
  0
BLOCK
  5
24
330
23
100
AcDbEntity
  8
0
100
AcDbBlockBegin
  2
*Paper_Space0
 70
     0
 10
0.0
 20
0.0
 30
0.0
  3
*Paper_Space0
  1

  0
ENDBLK
  5
25
330
23
100
AcDbEntity
  8
0
100
AcDbBlockEnd
  0
BLOCK
  5
43
330
41
100
AcDbEntity
  8
0
100
AcDbBlockBegin
  2
block 2
 70
     0
 10
0.0
 20
0.0
 30
0.0
  3
block 2
  1

  0
SPLINE
  5
45
330
41
100
AcDbEntity
  8
Layer 1
 62
   156
420
  1785491
370
    18
100
AcDbSpline
210
0.0
220
0.0
230
1.0
 70
     8
 71
     3
 72
     8
 73
     4
 74
     0
 42
0.0000000001
 43
0.0000000001
 12
1.0
 22
0.0
 32
0.0
 13
1.0
 23
0.0
 33
0.0
 40
0.0
 40
0.0
 40
0.0
 40
0.0
 40
1.0
 40
1.0
 40
1.0
 40
1.0
 10
460.9375783149117
 20
-477.2734429472639
 30
0.0
 10
449.3985724464474
 20
-492.9753817111468
 30
0.0
 10
428.5955722290146
 20
-508.6128259539564
 30
0.0
 10
413.2395464235706
 20
-544.1444870309042
 30
0.0
  0
SPLINE
  5
46
330
41
100
AcDbEntity
  8
Layer 1
 62
   156
420
  1785491
370
    18
100
AcDbSpline
210
0.0
220
0.0
230
1.0
 70
     8
 71
     3
 72
    11
 73
     7
 74
     0
 42
0.0000000001
 43
0.0000000001
 12
1.0
 22
0.0
 32
0.0
 13
1.0
 23
0.0
 33
0.0
 40
0.0
 40
0.0
 40
0.0
 40
0.0
 40
1.0
 40
1.0
 40
1.0
 40
2.0
 40
2.0
 40
2.0
 40
2.0
 10
419.8650919466836
 20
-504.0160004924528
 30
0.0
 10
418.1705870337246
 20
-503.8752800903967
 30
0.0
 10
416.9920830228548
 20
-502.9195600840849
 30
0.0
 10
415.4676101366695
 20
-502.2159580737971
 30
0.0
 10
411.4981608044691
 20
-500.4217869267832
 30
0.0
 10
408.7013553948727
 20
-499.0849486989246
 30
0.0
 10
406.7605925741591
 20
-494.8105958427896
 30
0.0
  0
SPLINE
  5
47
330
41
100
AcDbEntity
  8
Layer 1
 62
   156
420
  1785491
370
    18
100
AcDbSpline
210
0.0
220
0.0
230
1.0
 70
     8
 71
     3
 72
     8
 73
     4
 74
     0
 42
0.0000000001
 43
0.0000000001
 12
1.0
 22
0.0
 32
0.0
 13
1.0
 23
0.0
 33
0.0
 40
0.0
 40
0.0
 40
0.0
 40
0.0
 40
1.0
 40
1.0
 40
1.0
 40
1.0
 10
468.7826708335215
 20
-454.8345610663036
 30
0.0
 10
456.5048912417878
 20
-463.5063957324546
 30
0.0
 10
418.0181576385075
 20
-483.8579454857518
 30
0.0
 10
409.8388387878695
 20
-498.8152392547199
 30
0.0
  0
SPLINE
  5
48
330
41
100
AcDbEntity
  8
Layer 1
 62
   156
420
  1785491
370
    18
100
AcDbSpline
210
0.0
220
0.0
230
1.0
 70
     8
 71
     3
 72
     8
 73
     4
 74
     0
 42
0.0000000001
 43
0.0000000001
 12
1.0
 22
0.0
 32
0.0
 13
1.0
 23
0.0
 33
0.0
 40
0.0
 40
0.0
 40
0.0
 40
0.0
 40
1.0
 40
1.0
 40
1.0
 40
1.0
 10
463.3180714232276
 20
-446.1568663118851
 30
0.0
 10
457.3140307577742
 20
-448.5490907801122
 30
0.0
 10
414.4708583291031
 20
-457.5316890584691
 30
0.0
 10
413.3802780090045
 20
-461.4190524214155
 30
0.0
  0
SPLINE
  5
49
330
41
100
AcDbEntity
  8
Layer 1
 62
   156
420
  1785491
370
    18
100
AcDbSpline
210
0.0
220
0.0
230
1.0
 70
     8
 71
     3
 72
     8
 73
     4
 74
     0
 42
0.0000000001
 43
0.0000000001
 12
1.0
 22
0.0
 32
0.0
 13
1.0
 23
0.0
 33
0.0
 40
0.0
 40
0.0
 40
0.0
 40
0.0
 40
1.0
 40
1.0
 40
1.0
 40
1.0
 10
517.7061321753772
 20
-436.7345265625536
 30
0.0
 10
517.7061321753772
 20
-436.7345265625536
 30
0.0
 10
436.2999555289407
 20
-442.9437709677604
 30
0.0
 10
402.1872186491037
 20
-419.6840293942751
 30
0.0
  0
SPLINE
  5
4A
330
41
100
AcDbEntity
  8
Layer 1
 62
   156
420
  1785491
370
    18
100
AcDbSpline
210
0.0
220
0.0
230
1.0
 70
     8
 71
     3
 72
    11
 73
     7
 74
     0
 42
0.0000000001
 43
0.0000000001
 12
1.0
 22
0.0
 32
0.0
 13
1.0
 23
0.0
 33
0.0
 40
0.0
 40
0.0
 40
0.0
 40
0.0
 40
1.0
 40
1.0
 40
1.0
 40
2.0
 40
2.0
 40
2.0
 40
2.0
 10
516.9556382755709
 20
-435.0165812965224
 30
0.0
 10
516.9556382755709
 20
-435.0165812965224
 30
0.0
 10
458.1348904502975
 20
-435.5384087367529
 30
0.0
 10
450.9054427010797
 20
-432.3253245760025
 30
0.0
 10
443.6759949518619
 20
-429.1004978719648
 30
0.0
 10
411.7385362572077
 20
-415.1868701668291
 30
0.0
 10
407.7808071015443
 20
-409.8805714233977
 30
0.0
  0
SPLINE
  5
4B
330
41
100
AcDbEntity
  8
Layer 1
 62
   156
420
  1785491
370
    18
100
AcDbSpline
210
0.0
220
0.0
230
1.0
 70
     8
 71
     3
 72
    11
 73
     7
 74
     0
 42
0.0000000001
 43
0.0000000001
 12
1.0
 22
0.0
 32
0.0
 13
1.0
 23
0.0
 33
0.0
 40
0.0
 40
0.0
 40
0.0
 40
0.0
 40
1.0
 40
1.0
 40
1.0
 40
2.0
 40
2.0
 40
2.0
 40
2.0
 10
518.6677234533308
 20
-446.2330921928678
 30
0.0
 10
518.6677234533308
 20
-446.2330921928678
 30
0.0
 10
472.470679361606
 20
-457.9773018010874
 30
0.0
 10
460.9375783149117
 20
-473.6851006532361
 30
0.0
 10
449.3985724464474
 20
-489.3928995053884
 30
0.0
 10
429.4105718332685
 20
-499.1904973879973
 30
0.0
 10
414.0604061160939
 20
-534.7162871933051
 30
0.0
  0
SPLINE
  5
4C
330
41
100
AcDbEntity
  8
Layer 1
 62
   156
420
  1785491
370
    18
100
AcDbSpline
210
0.0
220
0.0
230
1.0
 70
     8
 71
     3
 72
     8
 73
     4
 74
     0
 42
0.0000000001
 43
0.0000000001
 12
1.0
 22
0.0
 32
0.0
 13
1.0
 23
0.0
 33
0.0
 40
0.0
 40
0.0
 40
0.0
 40
0.0
 40
1.0
 40
1.0
 40
1.0
 40
1.0
 10
520.5029152182233
 20
-445.4122213169721
 30
0.0
 10
520.5029152182233
 20
-445.4122213169721
 30
0.0
 10
469.8790888751428
 20
-444.4389210458539
 30
0.0
 10
422.9961013215543
 20
-506.9652464806422
 30
0.0
  0
SPLINE
  5
4D
330
41
100
AcDbEntity
  8
Layer 1
 62
   156
420
  1785491
370
    18
100
AcDbSpline
210
0.0
220
0.0
230
1.0
 70
     8
 71
     3
 72
     8
 73
     4
 74
     0
 42
0.0000000001
 43
0.0000000001
 12
1.0
 22
0.0
 32
0.0
 13
1.0
 23
0.0
 33
0.0
 40
0.0
 40
0.0
 40
0.0
 40
0.0
 40
1.0
 40
1.0
 40
1.0
 40
1.0
 10
514.4988745527717
 20
-445.0369743670672
 30
0.0
 10
514.4988745527717
 20
-445.0369743670672
 30
0.0
 10
455.7543973419815
 20
-451.0879069220391
 30
0.0
 10
415.7725136606059
 20
-502.1045604798273
 30
0.0
  0
SPLINE
  5
4E
330
41
100
AcDbEntity
  8
Layer 1
 62
   156
420
  1785491
370
    18
100
AcDbSpline
210
0.0
220
0.0
230
1.0
 70
     8
 71
     3
 72
    11
 73
     7
 74
     0
 42
0.0000000001
 43
0.0000000001
 12
1.0
 22
0.0
 32
0.0
 13
1.0
 23
0.0
 33
0.0
 40
0.0
 40
0.0
 40
0.0
 40
0.0
 40
1.0
 40
1.0
 40
1.0
 40
2.0
 40
2.0
 40
2.0
 40
2.0
 10
521.939442046887
 20
-442.4864380486033
 30
0.0
 10
521.939442046887
 20
-442.4864380486033
 30
0.0
 10
467.0178001278473
 20
-449.3758217442773
 30
0.0
 10
462.8489959607869
 20
-452.9641640383052
 30
0.0
 10
458.6860518819904
 20
-456.5583776039784
 30
0.0
 10
415.150986436196
 20
-476.5170777758176
 30
0.0
 10
401.7181431866629
 20
-496.3467889055082
 30
0.0
  0
SPLINE
  5
4F
330
41
100
AcDbEntity
  8
Layer 1
 62
   156
420
  1785491
370
    18
100
AcDbSpline
210
0.0
220
0.0
230
1.0
 70
     8
 71
     3
 72
    11
 73
     7
 74
     0
 42
0.0000000001
 43
0.0000000001
 12
1.0
 22
0.0
 32
0.0
 13
1.0
 23
0.0
 33
0.0
 40
0.0
 40
0.0
 40
0.0
 40
0.0
 40
1.0
 40
1.0
 40
1.0
 40
2.0
 40
2.0
 40
2.0
 40
2.0
 10
520.0924853719625
 20
-440.6219011088742
 30
0.0
 10
520.0924853719625
 20
-440.6219011088742
 30
0.0
 10
473.0218407932989
 20
-445.2597807383772
 30
0.0
 10
466.8067474831969
 20
-447.1301777663757
 30
0.0
 10
460.5975142613643
 20
-449.0005747943742
 30
0.0
 10
418.9035006687282
 20
-462.9845571088517
 30
0.0
 10
416.3119325490115
 20
-470.5423599184542
 30
0.0
  0
SPLINE
  5
50
330
41
100
AcDbEntity
  8
Layer 1
 62
   156
420
  1785491
370
    18
100
AcDbSpline
210
0.0
220
0.0
230
1.0
 70
     8
 71
     3
 72
     8
 73
     4
 74
     0
 42
0.0000000001
 43
0.0000000001
 12
1.0
 22
0.0
 32
0.0
 13
1.0
 23
0.0
 33
0.0
 40
0.0
 40
0.0
 40
0.0
 40
0.0
 40
1.0
 40
1.0
 40
1.0
 40
1.0
 10
518.6677234533308
 20
-438.2296766406471
 30
0.0
 10
518.6677234533308
 20
-438.2296766406471
 30
0.0
 10
410.5834725994082
 20
-446.7607909047401
 30
0.0
 10
404.579454300705
 20
-450.3432731105004
 30
0.0
  0
SPLINE
  5
51
330
41
100
AcDbEntity
  8
Layer 1
 62
   156
420
  1785491
370
    18
100
AcDbSpline
210
0.0
220
0.0
230
1.0
 70
     8
 71
     3
 72
    11
 73
     7
 74
     0
 42
0.0000000001
 43
0.0000000001
 12
1.0
 22
0.0
 32
0.0
 13
1.0
 23
0.0
 33
0.0
 40
0.0
 40
0.0
 40
0.0
 40
0.0
 40
1.0
 40
1.0
 40
1.0
 40
2.0
 40
2.0
 40
2.0
 40
2.0
 10
516.5452084293102
 20
-432.7709261352466
 30
0.0
 10
516.5452084293102
 20
-432.7709261352466
 30
0.0
 10
474.2414101555478
 20
-432.9175178089463
 30
0.0
 10
469.7384020232075
 20
-431.0529808692154
 30
0.0
 10
465.2294890691028
 20
-429.1708636646817
 30
0.0
 10
444.6962094792452
 20
-428.4262186697688
 30
0.0
 10
417.8129427153744
 20
-402.1761881234688
 30
0.0
  0
SPLINE
  5
52
330
41
100
AcDbEntity
  8
Layer 1
 62
   156
420
  1785491
370
    18
100
AcDbSpline
210
0.0
220
0.0
230
1.0
 70
     8
 71
     3
 72
    11
 73
     7
 74
     0
 42
0.0000000001
 43
0.0000000001
 12
1.0
 22
0.0
 32
0.0
 13
1.0
 23
0.0
 33
0.0
 40
0.0
 40
0.0
 40
0.0
 40
0.0
 40
1.0
 40
1.0
 40
1.0
 40
2.0
 40
2.0
 40
2.0
 40
2.0
 10
516.345831227698
 20
-429.9272288361317
 30
0.0
 10
516.345831227698
 20
-429.9272288361317
 30
0.0
 10
474.0420776874344
 20
-430.6777339193122
 30
0.0
 10
467.4868755902899
 20
-427.8281653485556
 30
0.0
 10
460.9375783149117
 20
-424.9961882259777
 30
0.0
 10
445.5815748762161
 20
-424.9961882259777
 30
0.0
 10
412.4890525237624
 20
-391.1883436867001
 30
0.0
  0
SPLINE
  5
53
330
41
100
AcDbEntity
  8
Layer 1
 62
   156
420
  1785491
370
    18
100
AcDbSpline
210
0.0
220
0.0
230
1.0
 70
     8
 71
     3
 72
    11
 73
     7
 74
     0
 42
0.0000000001
 43
0.0000000001
 12
1.0
 22
0.0
 32
0.0
 13
1.0
 23
0.0
 33
0.0
 40
0.0
 40
0.0
 40
0.0
 40
0.0
 40
1.0
 40
1.0
 40
1.0
 40
2.0
 40
2.0
 40
2.0
 40
2.0
 10
516.7856062487972
 20
-427.3825526059354
 30
0.0
 10
516.6272943985605
 20
-428.1389177773854
 30
0.0
 10
516.4807027248607
 20
-428.6138421447195
 30
0.0
 10
516.4807027248607
 20
-429.405390212527
 30
0.0
 10
516.4807027248607
 20
-435.5208172885723
 30
0.0
 10
518.4742063399881
 20
-439.6134179414003
 30
0.0
 10
522.8248074438598
 20
-443.4245666067382
 30
0.0
  0
SPLINE
  5
54
330
41
100
AcDbEntity
  8
Layer 1
 62
   156
420
  1785491
370
    18
100
AcDbSpline
210
0.0
220
0.0
230
1.0
 70
     8
 71
     3
 72
    20
 73
    16
 74
     0
 42
0.0000000001
 43
0.0000000001
 12
1.0
 22
0.0
 32
0.0
 13
1.0
 23
0.0
 33
0.0
 40
0.0
 40
0.0
 40
0.0
 40
0.0
 40
1.0
 40
1.0
 40
1.0
 40
2.0
 40
2.0
 40
2.0
 40
3.0
 40
3.0
 40
3.0
 40
4.0
 40
4.0
 40
4.0
 40
5.0
 40
5.0
 40
5.0
 40
5.0
 10
515.2494131860767
 20
-425.9225854241995
 30
0.0
 10
516.9614983638385
 20
-426.0633058262556
 30
0.0
 10
517.9641102596706
 20
-427.1538861463578
 30
0.0
 10
518.7263243360139
 20
-428.8425086042989
 30
0.0
 10
519.2657655911717
 20
-430.050357790009
 30
0.0
 10
518.7263243360139
 20
-431.422367730851
 30
0.0
 10
519.7582814066845
 20
-432.2080557103909
 30
0.0
 10
522.1094740736607
 20
-434.0080869456724
 30
0.0
 10
523.8449996044947
 20
-435.7729464679724
 30
0.0
 10
523.8449996044947
 20
-438.9098159311125
 30
0.0
 10
523.8449996044947
 20
-438.9098159311125
 30
0.0
 10
523.8449996044947
 20
-441.6597070844382
 30
0.0
 10
523.8449996044947
 20
-441.6597070844382
 30
0.0
 10
523.8449996044947
 20
-443.9639854951456
 30
0.0
 10
522.9831192940946
 20
-445.9575114770232
 30
0.0
 10
520.983710857201
 20
-446.678704935488
 30
0.0
  0
SPLINE
  5
55
330
41
100
AcDbEntity
  8
Layer 1
 62
   156
420
  1785491
370
    18
100
AcDbSpline
210
0.0
220
0.0
230
1.0
 70
     8
 71
     3
 72
    11
 73
     7
 74
     0
 42
0.0000000001
 43
0.0000000001
 12
1.0
 22
0.0
 32
0.0
 13
1.0
 23
0.0
 33
0.0
 40
0.0
 40
0.0
 40
0.0
 40
0.0
 40
1.0
 40
1.0
 40
1.0
 40
2.0
 40
2.0
 40
2.0
 40
2.0
 10
408.806881717197
 20
-507.7157403804467
 30
0.0
 10
408.1912369478068
 20
-510.4011370127027
 30
0.0
 10
409.1059251528677
 20
-512.0897706540163
 30
0.0
 10
408.806881717197
 20
-514.8924361518802
 30
0.0
 10
408.3905917826687
 20
-518.5980473115196
 30
0.0
 10
405.5820661965372
 20
-520.6150248298436
 30
0.0
 10
405.3240881122438
 20
-524.3147759012118
 30
0.0
  0
SPLINE
  5
56
330
41
100
AcDbEntity
  8
Layer 1
 62
   156
420
  1785491
370
    18
100
AcDbSpline
210
0.0
220
0.0
230
1.0
 70
     8
 71
     3
 72
    11
 73
     7
 74
     0
 42
0.0000000001
 43
0.0000000001
 12
1.0
 22
0.0
 32
0.0
 13
1.0
 23
0.0
 33
0.0
 40
0.0
 40
0.0
 40
0.0
 40
0.0
 40
1.0
 40
1.0
 40
1.0
 40
2.0
 40
2.0
 40
2.0
 40
2.0
 10
521.4645064961769
 20
-446.4617586524455
 30
0.0
 10
521.4645064961769
 20
-446.4617586524455
 30
0.0
 10
483.5171694145538
 20
-459.7480214116531
 30
0.0
 10
471.0752178843177
 20
-470.5130482937402
 30
0.0
 10
458.6332663540816
 20
-481.2839464474655
 30
0.0
 10
431.6151728265431
 20
-512.5177919484577
 30
0.0
 10
427.6808840239537
 20
-531.90189033553
 30
0.0
  0
SPLINE
  5
57
330
41
100
AcDbEntity
  8
Layer 1
 62
   156
420
  1785491
370
    18
100
AcDbSpline
210
0.0
220
0.0
230
1.0
 70
     8
 71
     3
 72
    11
 73
     7
 74
     0
 42
0.0000000001
 43
0.0000000001
 12
1.0
 22
0.0
 32
0.0
 13
1.0
 23
0.0
 33
0.0
 40
0.0
 40
0.0
 40
0.0
 40
0.0
 40
1.0
 40
1.0
 40
1.0
 40
2.0
 40
2.0
 40
2.0
 40
2.0
 10
439.0381153223589
 20
-507.7861061731655
 30
0.0
 10
438.6276854760963
 20
-511.9842331483178
 30
0.0
 10
440.468759696003
 20
-517.0618542487973
 30
0.0
 10
439.8531149266128
 20
-521.2541211356802
 30
0.0
 10
438.4869538906642
 20
-530.5240203064204
 30
0.0
 10
433.3037952844843
 20
-535.9123938357316
 30
0.0
 10
425.1127562573092
 20
-538.9026828085462
 30
0.0
  0
SPLINE
  5
58
330
41
100
AcDbEntity
  8
Layer 1
 62
   156
420
  1785491
370
    18
100
AcDbSpline
210
0.0
220
0.0
230
1.0
 70
     8
 71
     3
 72
    20
 73
    16
 74
     0
 42
0.0000000001
 43
0.0000000001
 12
1.0
 22
0.0
 32
0.0
 13
1.0
 23
0.0
 33
0.0
 40
0.0
 40
0.0
 40
0.0
 40
0.0
 40
1.0
 40
1.0
 40
1.0
 40
2.0
 40
2.0
 40
2.0
 40
3.0
 40
3.0
 40
3.0
 40
4.0
 40
4.0
 40
4.0
 40
5.0
 40
5.0
 40
5.0
 40
5.0
 10
401.0966383290015
 20
-551.4677521092854
 30
0.0
 10
404.9195183542506
 20
-554.2411059824353
 30
0.0
 10
404.8491525615354
 20
-546.0090127872609
 30
0.0
 10
408.7365382912321
 20
-543.3939819477237
 30
0.0
 10
414.2597609509576
 20
-539.6825106998185
 30
0.0
 10
406.6902267814421
 20
-554.3935465610266
 30
0.0
 10
409.5573979837536
 20
-560.7493826399368
 30
0.0
 10
412.4304069075843
 20
-567.0993474472016
 30
0.0
 10
419.3842963077041
 20
-565.6862833383602
 30
0.0
 10
425.6638953222537
 20
-567.9260672279925
 30
0.0
 10
429.7506358868122
 20
-569.3801743214626
 30
0.0
 10
419.8650919466836
 20
-573.3085806690342
 30
0.0
 10
415.5614162824568
 20
-572.5639468574955
 30
0.0
 10
410.2434085458608
 20
-571.5906354030049
 30
0.0
 10
407.6400978828606
 20
-566.5775088235987
 30
0.0
 10
407.6400978828606
 20
-560.7493826399368
 30
0.0
  0
SPLINE
  5
59
330
41
100
AcDbEntity
  8
Layer 1
 62
   156
420
  1785491
370
    18
100
AcDbSpline
210
0.0
220
0.0
230
1.0
 70
     8
 71
     3
 72
    14
 73
    10
 74
     0
 42
0.0000000001
 43
0.0000000001
 12
1.0
 22
0.0
 32
0.0
 13
1.0
 23
0.0
 33
0.0
 40
0.0
 40
0.0
 40
0.0
 40
0.0
 40
1.0
 40
1.0
 40
1.0
 40
2.0
 40
2.0
 40
2.0
 40
3.0
 40
3.0
 40
3.0
 40
3.0
 10
425.6638953222537
 20
-538.8968227202768
 30
0.0
 10
426.4144115888121
 20
-542.7959174431362
 30
0.0
 10
422.0462525868861
 20
-545.4109594660476
 30
0.0
 10
423.7524776763785
 20
-548.7764953887654
 30
0.0
 10
425.1831220500262
 20
-551.6202038712545
 30
0.0
 10
429.8268617677968
 20
-547.2109907013291
 30
0.0
 10
431.3864951835913
 20
-549.9726132145661
 30
0.0
 10
434.9396545812615
 20
-556.1818464363987
 30
0.0
 10
431.6679359877071
 20
-564.2614990529801
 30
0.0
 10
425.8046269076876
 20
-567.7794755542927
 30
0.0
  0
SPLINE
  5
5A
330
41
100
AcDbEntity
  8
Layer 1
 62
   156
420
  1785491
370
    18
100
AcDbSpline
210
0.0
220
0.0
230
1.0
 70
     8
 71
     3
 72
    14
 73
    10
 74
     0
 42
0.0000000001
 43
0.0000000001
 12
1.0
 22
0.0
 32
0.0
 13
1.0
 23
0.0
 33
0.0
 40
0.0
 40
0.0
 40
0.0
 40
0.0
 40
1.0
 40
1.0
 40
1.0
 40
2.0
 40
2.0
 40
2.0
 40
3.0
 40
3.0
 40
3.0
 40
3.0
 10
421.2957363203295
 20
-514.9745221211324
 30
0.0
 10
415.0161373057817
 20
-523.0424321944265
 30
0.0
 10
407.7808071015443
 20
-522.2274325901726
 30
0.0
 10
399.4607790322243
 20
-527.2346990813094
 30
0.0
 10
395.2274691607126
 20
-529.7793753115075
 30
0.0
 10
394.3362436754742
 20
-534.8628676836306
 30
0.0
 10
395.3681783793963
 20
-540.1046607226144
 30
0.0
 10
396.3942753617994
 20
-545.1881530947376
 30
0.0
 10
399.5956281626386
 20
-546.7595178704414
 30
0.0
 10
401.0966383290015
 20
-551.76678436158
 30
0.0
  0
SPLINE
  5
5B
330
41
100
AcDbEntity
  8
Layer 1
 62
   156
420
  1785491
370
    18
100
AcDbSpline
210
0.0
220
0.0
230
1.0
 70
     8
 71
     3
 72
    20
 73
    16
 74
     0
 42
0.0000000001
 43
0.0000000001
 12
1.0
 22
0.0
 32
0.0
 13
1.0
 23
0.0
 33
0.0
 40
0.0
 40
0.0
 40
0.0
 40
0.0
 40
1.0
 40
1.0
 40
1.0
 40
2.0
 40
2.0
 40
2.0
 40
3.0
 40
3.0
 40
3.0
 40
4.0
 40
4.0
 40
4.0
 40
5.0
 40
5.0
 40
5.0
 40
5.0
 10
393.1811800176747
 20
-464.1103203253115
 30
0.0
 10
397.8952631614138
 20
-464.6321477655401
 30
0.0
 10
401.3722190448498
 20
-465.6054592200308
 30
0.0
 10
404.0986586617273
 20
-469.7859947470042
 30
0.0
 10
405.0485073963955
 20
-471.2928650016347
 30
0.0
 10
406.0100986743528
 20
-472.5593486201524
 30
0.0
 10
405.4647973309275
 20
-474.2772938861817
 30
0.0
 10
405.0485073963955
 20
-475.5496264095927
 30
0.0
 10
402.8732292112127
 20
-475.1040248503468
 30
0.0
 10
402.1872186491037
 20
-473.9841329055307
 30
0.0
 10
399.5956281626386
 20
-476.4525832547424
 30
0.0
 10
406.4850118583126
 20
-479.6656785988689
 30
0.0
 10
405.4647973309275
 20
-483.2540208928967
 30
0.0
 10
404.4387227152747
 20
-486.8482232751921
 30
0.0
 10
401.4425848375649
 20
-487.5166423891224
 30
0.0
 10
399.1910584046454
 20
-490.4365767525942
 30
0.0
  0
SPLINE
  5
5C
330
41
100
AcDbEntity
  8
Layer 1
 62
   156
420
  1785491
370
    18
100
AcDbSpline
210
0.0
220
0.0
230
1.0
 70
     8
 71
     3
 72
    14
 73
    10
 74
     0
 42
0.0000000001
 43
0.0000000001
 12
1.0
 22
0.0
 32
0.0
 13
1.0
 23
0.0
 33
0.0
 40
0.0
 40
0.0
 40
0.0
 40
0.0
 40
1.0
 40
1.0
 40
1.0
 40
2.0
 40
2.0
 40
2.0
 40
3.0
 40
3.0
 40
3.0
 40
3.0
 10
404.7788091355669
 20
-429.405390212527
 30
0.0
 10
403.8934437385979
 20
-432.471905066328
 30
0.0
 10
403.8934437385979
 20
-435.2335163961907
 30
0.0
 10
403.277798969204
 20
-438.3762571309726
 30
0.0
 10
402.4686594532177
 20
-442.5626527462136
 30
0.0
 10
399.1851983163779
 20
-444.0695230008459
 30
0.0
 10
399.1851983163779
 20
-448.332155680444
 30
0.0
 10
399.1851983163779
 20
-449.5986281155874
 30
0.0
 10
399.2555641090948
 20
-451.1641328030237
 30
0.0
 10
399.4666391204919
 20
-452.4423365980765
 30
0.0
  0
SPLINE
  5
5D
330
41
100
AcDbEntity
  8
Layer 1
 62
   156
420
  1785491
370
    18
100
AcDbSpline
210
0.0
220
0.0
230
1.0
 70
     8
 71
     3
 72
    20
 73
    16
 74
     0
 42
0.0000000001
 43
0.0000000001
 12
1.0
 22
0.0
 32
0.0
 13
1.0
 23
0.0
 33
0.0
 40
0.0
 40
0.0
 40
0.0
 40
0.0
 40
1.0
 40
1.0
 40
1.0
 40
2.0
 40
2.0
 40
2.0
 40
3.0
 40
3.0
 40
3.0
 40
4.0
 40
4.0
 40
4.0
 40
5.0
 40
5.0
 40
5.0
 40
5.0
 10
407.64595797113
 20
-432.694711437638
 30
0.0
 10
408.5313233681009
 20
-434.4888825846519
 30
0.0
 10
409.5573979837536
 20
-435.5325486484835
 30
0.0
 10
409.5573979837536
 20
-437.6316121360596
 30
0.0
 10
409.5573979837536
 20
-445.0369743670672
 30
0.0
 10
405.3944539049589
 20
-452.4423365980765
 30
0.0
 10
398.6457794279704
 20
-452.4423365980765
 30
0.0
 10
395.303695041699
 20
-452.4423365980765
 30
0.0
 10
393.7968247870685
 20
-449.4520476252619
 30
0.0
 10
390.4547404007953
 20
-449.4520476252619
 30
0.0
 10
389.0240960271476
 20
-449.4520476252619
 30
0.0
 10
388.5491604764411
 20
-451.4631650553165
 30
0.0
 10
388.5491604764411
 20
-453.0345298310222
 30
0.0
 10
388.5491604764411
 20
-455.948592922854
 30
0.0
 10
389.3582999924274
 20
-457.0743449559377
 30
0.0
 10
390.4547404007953
 20
-459.7714729481013
 30
0.0
  0
SPLINE
  5
5E
330
41
100
AcDbEntity
  8
Layer 1
 62
   156
420
  1785491
370
    18
100
AcDbSpline
210
0.0
220
0.0
230
1.0
 70
     8
 71
     3
 72
    35
 73
    31
 74
     0
 42
0.0000000001
 43
0.0000000001
 12
1.0
 22
0.0
 32
0.0
 13
1.0
 23
0.0
 33
0.0
 40
0.0
 40
0.0
 40
0.0
 40
0.0
 40
1.0
 40
1.0
 40
1.0
 40
2.0
 40
2.0
 40
2.0
 40
3.0
 40
3.0
 40
3.0
 40
4.0
 40
4.0
 40
4.0
 40
5.0
 40
5.0
 40
5.0
 40
6.0
 40
6.0
 40
6.0
 40
7.0
 40
7.0
 40
7.0
 40
8.0
 40
8.0
 40
8.0
 40
9.0
 40
9.0
 40
9.0
 40
10.0
 40
10.0
 40
10.0
 40
10.0
 10
397.2854784802894
 20
-464.4093413942301
 30
0.0
 10
395.303695041699
 20
-465.0777605081603
 30
0.0
 10
394.4066094681893
 20
-466.7957057741896
 30
0.0
 10
392.3661804134208
 20
-466.7957057741896
 30
0.0
 10
390.5837294429421
 20
-466.7957057741896
 30
0.0
 10
389.364160080695
 20
-465.0074058988175
 30
0.0
 10
389.364160080695
 20
-463.0607829898363
 30
0.0
 10
389.364160080695
 20
-457.3030114155172
 30
0.0
 10
396.253543776369
 20
-456.6287322133194
 30
0.0
 10
401.5070681752641
 20
-456.6287322133194
 30
0.0
 10
409.0824624330453
 20
-456.6287322133194
 30
0.0
 10
415.0219973940493
 20
-463.5826216134392
 30
0.0
 10
415.0219973940493
 20
-471.8909295062222
 30
0.0
 10
415.0219973940493
 20
-478.9210336039523
 30
0.0
 10
411.8792678426416
 20
-483.7758483331254
 30
0.0
 10
406.2797969351814
 20
-487.1531156157544
 30
0.0
 10
401.3722190448498
 20
-490.1375445003014
 30
0.0
 10
394.8170393144519
 20
-490.9584041928247
 30
0.0
 10
394.8170393144519
 20
-497.1676485980315
 30
0.0
 10
394.8170393144519
 20
-503.2303125129129
 30
0.0
 10
399.3962733277767
 20
-508.0851384254584
 30
0.0
 10
404.9136582659812
 20
-508.0851384254584
 30
0.0
 10
411.3281064109469
 20
-508.0851384254584
 30
0.0
 10
414.4708583291031
 20
-503.8987316268413
 30
0.0
 10
420.885306474067
 20
-503.8987316268413
 30
0.0
 10
422.4508223448793
 20
-503.8987316268413
 30
0.0
 10
422.9257355288391
 20
-506.068149723762
 30
0.0
 10
422.9257355288391
 20
-507.7861061731655
 30
0.0
 10
422.9257355288391
 20
-510.5535887746701
 30
0.0
 10
422.9257355288391
 20
-512.5764263812634
 30
0.0
 10
421.2957363203295
 20
-514.6696297805702
 30
0.0
  0
SPLINE
  5
5F
330
41
100
AcDbEntity
  8
Layer 1
 62
   156
420
  1785491
370
    18
100
AcDbSpline
210
0.0
220
0.0
230
1.0
 70
     8
 71
     3
 72
     8
 73
     4
 74
     0
 42
0.0000000001
 43
0.0000000001
 12
1.0
 22
0.0
 32
0.0
 13
1.0
 23
0.0
 33
0.0
 40
0.0
 40
0.0
 40
0.0
 40
0.0
 40
1.0
 40
1.0
 40
1.0
 40
1.0
 10
395.5030498765609
 20
-392.0092033792225
 30
0.0
 10
402.5331427909168
 20
-396.2718360588224
 30
0.0
 10
403.4185081878877
 20
-404.1227998490767
 30
0.0
 10
403.4185081878877
 20
-412.9470862771959
 30
0.0
  0
SPLINE
  5
60
330
41
100
AcDbEntity
  8
Layer 1
 62
   156
420
  1785491
370
    18
100
AcDbSpline
210
0.0
220
0.0
230
1.0
 70
     8
 71
     3
 72
    14
 73
    10
 74
     0
 42
0.0000000001
 43
0.0000000001
 12
1.0
 22
0.0
 32
0.0
 13
1.0
 23
0.0
 33
0.0
 40
0.0
 40
0.0
 40
0.0
 40
0.0
 40
1.0
 40
1.0
 40
1.0
 40
2.0
 40
2.0
 40
2.0
 40
3.0
 40
3.0
 40
3.0
 40
3.0
 10
425.3883369731575
 20
-374.9587062109467
 30
0.0
 10
429.0060020752735
 20
-377.4271677435327
 30
0.0
 10
429.4867753475046
 20
-380.7868323946077
 30
0.0
 10
432.2073548761127
 20
-384.2286053816861
 30
0.0
 10
434.7402997463996
 20
-387.4416895424356
 30
0.0
 10
437.9475350022567
 20
-389.1655060801095
 30
0.0
 10
437.9475350022567
 20
-393.5043534573178
 30
0.0
 10
437.9475350022567
 20
-396.4242766374164
 30
0.0
 10
435.1390094161234
 20
-397.9897813248526
 30
0.0
 10
432.4887956802304
 20
-397.9897813248526
 30
0.0
  0
SPLINE
  5
61
330
41
100
AcDbEntity
  8
Layer 1
 62
   156
420
  1785491
370
    18
100
AcDbSpline
210
0.0
220
0.0
230
1.0
 70
     8
 71
     3
 72
    14
 73
    10
 74
     0
 42
0.0000000001
 43
0.0000000001
 12
1.0
 22
0.0
 32
0.0
 13
1.0
 23
0.0
 33
0.0
 40
0.0
 40
0.0
 40
0.0
 40
0.0
 40
1.0
 40
1.0
 40
1.0
 40
2.0
 40
2.0
 40
2.0
 40
3.0
 40
3.0
 40
3.0
 40
3.0
 10
410.3782576762751
 20
-358.4945421873472
 30
0.0
 10
416.933437406673
 20
-364.7800012901644
 30
0.0
 10
424.7023264110503
 20
-362.6164432815149
 30
0.0
 10
429.4750551709676
 20
-370.461558166875
 30
0.0
 10
425.1831220500262
 20
-374.5717390845084
 30
0.0
 10
420.7445972553869
 20
-377.0460383386126
 30
0.0
 10
420.7445972553869
 20
-383.2494338389261
 30
0.0
 10
420.7445972553869
 20
-383.2494338389261
 30
0.0
 10
420.7445972553869
 20
-385.125690955193
 30
0.0
 10
420.7445972553869
 20
-385.125690955193
 30
0.0
  0
SPLINE
  5
62
330
41
100
AcDbEntity
  8
Layer 1
 62
   156
420
  1785491
370
    18
100
AcDbSpline
210
0.0
220
0.0
230
1.0
 70
     8
 71
     3
 72
    11
 73
     7
 74
     0
 42
0.0000000001
 43
0.0000000001
 12
1.0
 22
0.0
 32
0.0
 13
1.0
 23
0.0
 33
0.0
 40
0.0
 40
0.0
 40
0.0
 40
0.0
 40
1.0
 40
1.0
 40
1.0
 40
2.0
 40
2.0
 40
2.0
 40
2.0
 10
406.5553776510278
 20
-358.7935632562667
 30
0.0
 10
402.7383577140481
 20
-362.4698739745636
 30
0.0
 10
401.3663589565804
 20
-366.3513772492424
 30
0.0
 10
401.3663589565804
 20
-371.8922025405227
 30
0.0
 10
401.3663589565804
 20
-371.8922025405227
 30
0.0
 10
401.3663589565804
 20
-376.4538562890411
 30
0.0
 10
401.3663589565804
 20
-376.4538562890411
 30
0.0
  0
SPLINE
  5
63
330
41
100
AcDbEntity
  8
Layer 1
 62
   156
420
  1785491
370
    18
100
AcDbSpline
210
0.0
220
0.0
230
1.0
 70
     8
 71
     3
 72
     8
 73
     4
 74
     0
 42
0.0000000001
 43
0.0000000001
 12
1.0
 22
0.0
 32
0.0
 13
1.0
 23
0.0
 33
0.0
 40
0.0
 40
0.0
 40
0.0
 40
0.0
 40
1.0
 40
1.0
 40
1.0
 40
1.0
 10
414.7405565899335
 20
-375.2577496466156
 30
0.0
 10
414.7405565899335
 20
-375.2577496466156
 30
0.0
 10
444.2212739285369
 20
-437.1801393051719
 30
0.0
 10
515.4546057424595
 20
-425.8111878302316
 30
0.0
  0
SPLINE
  5
64
330
41
100
AcDbEntity
  8
Layer 1
 62
   156
420
  1785491
370
    18
100
AcDbSpline
210
0.0
220
0.0
230
1.0
 70
     8
 71
     3
 72
    26
 73
    22
 74
     0
 42
0.0000000001
 43
0.0000000001
 12
1.0
 22
0.0
 32
0.0
 13
1.0
 23
0.0
 33
0.0
 40
0.0
 40
0.0
 40
0.0
 40
0.0
 40
1.0
 40
1.0
 40
1.0
 40
2.0
 40
2.0
 40
2.0
 40
3.0
 40
3.0
 40
3.0
 40
4.0
 40
4.0
 40
4.0
 40
5.0
 40
5.0
 40
5.0
 40
6.0
 40
6.0
 40
6.0
 40
7.0
 40
7.0
 40
7.0
 40
7.0
 10
406.0100986743528
 20
-358.4945421873472
 30
0.0
 10
405.8693670889188
 20
-357.4508649401414
 30
0.0
 10
405.8048837512197
 20
-356.9290263165358
 30
0.0
 10
405.8048837512197
 20
-355.8853714360775
 30
0.0
 10
405.8048837512197
 20
-347.3542459886103
 30
0.0
 10
413.5796328438664
 20
-342.0420983402846
 30
0.0
 10
421.3543819365077
 20
-342.0420983402846
 30
0.0
 10
421.3543819365077
 20
-342.0420983402846
 30
0.0
 10
422.9257355288391
 20
-342.0420983402846
 30
0.0
 10
422.9257355288391
 20
-342.0420983402846
 30
0.0
 10
422.9257355288391
 20
-342.0420983402846
 30
0.0
 10
422.9257355288391
 20
-345.0323761297241
 30
0.0
 10
422.9257355288391
 20
-345.0323761297241
 30
0.0
 10
418.4989532774835
 20
-350.6494273019871
 30
0.0
 10
409.5573979837536
 20
-349.7464816402116
 30
0.0
 10
409.5573979837536
 20
-357.151843871221
 30
0.0
 10
409.5573979837536
 20
-362.9858301431505
 30
0.0
 10
416.6519966025589
 20
-364.0353674786256
 30
0.0
 10
416.6519966025589
 20
-369.8693537505551
 30
0.0
 10
416.6519966025589
 20
-373.6042877182845
 30
0.0
 10
414.2011377015242
 20
-375.8557917844537
 30
0.0
 10
410.9294191079698
 20
-377.0460383386126
 30
0.0
  0
SPLINE
  5
65
330
41
100
AcDbEntity
  8
Layer 1
 62
   156
420
  1785491
370
    18
100
AcDbSpline
210
0.0
220
0.0
230
1.0
 70
     8
 71
     3
 72
    35
 73
    31
 74
     0
 42
0.0000000001
 43
0.0000000001
 12
1.0
 22
0.0
 32
0.0
 13
1.0
 23
0.0
 33
0.0
 40
0.0
 40
0.0
 40
0.0
 40
0.0
 40
1.0
 40
1.0
 40
1.0
 40
2.0
 40
2.0
 40
2.0
 40
3.0
 40
3.0
 40
3.0
 40
4.0
 40
4.0
 40
4.0
 40
5.0
 40
5.0
 40
5.0
 40
6.0
 40
6.0
 40
6.0
 40
7.0
 40
7.0
 40
7.0
 40
8.0
 40
8.0
 40
8.0
 40
9.0
 40
9.0
 40
9.0
 40
10.0
 40
10.0
 40
10.0
 40
10.0
 10
402.4569392766807
 20
-367.4771180989537
 30
0.0
 10
406.7605925741591
 20
-367.4771180989537
 30
0.0
 10
410.6479783038558
 20
-370.836805116779
 30
0.0
 10
410.6479783038558
 20
-375.5567707155342
 30
0.0
 10
410.6479783038558
 20
-378.9926612475938
 30
0.0
 10
409.1469681374929
 20
-382.7334553035917
 30
0.0
 10
406.0100986743528
 20
-382.7334553035917
 30
0.0
 10
397.8952631614138
 20
-382.7334553035917
 30
0.0
 10
401.7181431866629
 20
-364.4868403095134
 30
0.0
 10
393.5857497756697
 20
-364.4868403095134
 30
0.0
 10
389.7042241342406
 20
-364.4868403095134
 30
0.0
 10
389.633880708272
 20
-370.2446007004592
 30
0.0
 10
389.633880708272
 20
-374.5013732917914
 30
0.0
 10
389.633880708272
 20
-381.8363697300847
 30
0.0
 10
390.1146539804995
 20
-391.7101823103039
 30
0.0
 10
396.8047052080619
 20
-391.7101823103039
 30
0.0
 10
396.8047052080619
 20
-391.7101823103039
 30
0.0
 10
404.8491525615354
 20
-391.7101823103039
 30
0.0
 10
404.8491525615354
 20
-391.7101823103039
 30
0.0
 10
411.5392037890942
 20
-391.7101823103039
 30
0.0
 10
417.7425769226593
 20
-396.6412229204589
 30
0.0
 10
417.7425769226593
 20
-403.9762193587512
 30
0.0
 10
417.7425769226593
 20
-408.0864002763838
 30
0.0
 10
412.7001275351613
 20
-407.412121074186
 30
0.0
 10
409.2818172679072
 20
-409.0597117308744
 30
0.0
 10
404.8491525615354
 20
-411.1470438585402
 30
0.0
 10
402.1872186491037
 20
-414.9640637955199
 30
0.0
 10
402.1872186491037
 20
-420.2820827154883
 30
0.0
 10
402.1872186491037
 20
-425.7408220375164
 30
0.0
 10
404.0986586617273
 20
-429.1004978719648
 30
0.0
 10
407.6518180593994
 20
-432.9996037781984
 30
0.0
  0
SPLINE
  5
66
330
41
100
AcDbEntity
  8
Layer 1
 62
   156
420
  1785491
370
    18
100
AcDbSpline
210
0.0
220
0.0
230
1.0
 70
     8
 71
     3
 72
    17
 73
    13
 74
     0
 42
0.0000000001
 43
0.0000000001
 12
1.0
 22
0.0
 32
0.0
 13
1.0
 23
0.0
 33
0.0
 40
0.0
 40
0.0
 40
0.0
 40
0.0
 40
1.0
 40
1.0
 40
1.0
 40
2.0
 40
2.0
 40
2.0
 40
3.0
 40
3.0
 40
3.0
 40
4.0
 40
4.0
 40
4.0
 40
4.0
 10
190.0257312285939
 20
-447.2955351425844
 30
0.0
 10
205.3465517709292
 20
-451.0715009115647
 30
0.0
 10
214.387784482089
 20
-450.3796302611863
 30
0.0
 10
230.0310888131662
 20
-450.3796302611863
 30
0.0
 10
244.3199746515802
 20
-450.3796302611863
 30
0.0
 10
252.3937448131428
 20
-450.8662859884334
 30
0.0
 10
266.6826306515577
 20
-450.8662859884334
 30
0.0
 10
275.9232070142061
 20
-450.8662859884334
 30
0.0
 10
281.0359998276699
 20
-451.012866478759
 30
0.0
 10
290.2707161020498
 20
-449.8402113727789
 30
0.0
 10
295.1372733745065
 20
-449.277329764549
 30
0.0
 10
300.2148832916118
 20
-449.7874370282425
 30
0.0
 10
303.8677312900891
 20
-446.5391699711345
 30
0.0
  0
SPLINE
  5
67
330
41
100
AcDbEntity
  8
Layer 1
 62
   156
420
  1785491
370
    18
100
AcDbSpline
210
0.0
220
0.0
230
1.0
 70
     8
 71
     3
 72
    14
 73
    10
 74
     0
 42
0.0000000001
 43
0.0000000001
 12
1.0
 22
0.0
 32
0.0
 13
1.0
 23
0.0
 33
0.0
 40
0.0
 40
0.0
 40
0.0
 40
0.0
 40
1.0
 40
1.0
 40
1.0
 40
2.0
 40
2.0
 40
2.0
 40
3.0
 40
3.0
 40
3.0
 40
3.0
 10
85.412570578148
 20
-437.0464644290842
 30
0.0
 10
89.96249855844417
 20
-438.8992700089038
 30
0.0
 10
92.67134952298784
 20
-441.4556775990113
 30
0.0
 10
97.48512685922014
 20
-442.4055375170556
 30
0.0
 10
103.3601617074628
 20
-443.6250956959284
 30
0.0
 10
106.8253778434564
 20
-442.2237741303725
 30
0.0
 10
112.8411330937561
 20
-442.663515601349
 30
0.0
 10
122.1462039774788
 20
-443.3729776999044
 30
0.0
 10
129.299437029088
 20
-444.3228376179486
 30
0.0
 10
138.405158669636
 20
-442.0830537283127
 30
0.0
  0
SPLINE
  5
68
330
41
100
AcDbEntity
  8
Layer 1
 62
   156
420
  1785491
370
    18
100
AcDbSpline
210
0.0
220
0.0
230
1.0
 70
     8
 71
     3
 72
    11
 73
     7
 74
     0
 42
0.0000000001
 43
0.0000000001
 12
1.0
 22
0.0
 32
0.0
 13
1.0
 23
0.0
 33
0.0
 40
0.0
 40
0.0
 40
0.0
 40
0.0
 40
1.0
 40
1.0
 40
1.0
 40
2.0
 40
2.0
 40
2.0
 40
2.0
 10
265.152308860479
 20
-416.7770118284161
 30
0.0
 10
258.4270859199369
 20
-419.4682685489379
 30
0.0
 10
252.2588844993543
 20
-421.848772840628
 30
0.0
 10
245.6685330559749
 20
-424.4755350400756
 30
0.0
 10
223.1827481021191
 20
-433.4522620467906
 30
0.0
 10
207.5042496913093
 20
-437.8145609604453
 30
0.0
 10
183.2770567516027
 20
-437.8145609604453
 30
0.0
  0
SPLINE
  5
69
330
41
100
AcDbEntity
  8
Layer 1
 62
   156
420
  1785491
370
    18
100
AcDbSpline
210
0.0
220
0.0
230
1.0
 70
     8
 71
     3
 72
    11
 73
     7
 74
     0
 42
0.0000000001
 43
0.0000000001
 12
1.0
 22
0.0
 32
0.0
 13
1.0
 23
0.0
 33
0.0
 40
0.0
 40
0.0
 40
0.0
 40
0.0
 40
1.0
 40
1.0
 40
1.0
 40
2.0
 40
2.0
 40
2.0
 40
2.0
 10
274.8912499435364
 20
-423.1914711567551
 30
0.0
 10
264.7711906389322
 20
-426.2814375470007
 30
0.0
 10
255.6654745900742
 20
-427.0964371512564
 30
0.0
 10
245.4105437883072
 20
-430.1218978370543
 30
0.0
 10
217.5187826735873
 20
-438.2543136147979
 30
0.0
 10
199.6005115565185
 20
-438.9168614570845
 30
0.0
 10
170.8761649810531
 20
-438.9168614570845
 30
0.0
  0
SPLINE
  5
6A
330
41
100
AcDbEntity
  8
Layer 1
 62
   156
420
  1785491
370
    18
100
AcDbSpline
210
0.0
220
0.0
230
1.0
 70
     8
 71
     3
 72
     8
 73
     4
 74
     0
 42
0.0000000001
 43
0.0000000001
 12
1.0
 22
0.0
 32
0.0
 13
1.0
 23
0.0
 33
0.0
 40
0.0
 40
0.0
 40
0.0
 40
0.0
 40
1.0
 40
1.0
 40
1.0
 40
1.0
 10
273.8651753278828
 20
-430.6378763723897
 30
0.0
 10
237.9700098443154
 20
-430.6378763723897
 30
0.0
 10
218.996341303503
 20
-445.3723637700477
 30
0.0
 10
183.1011646365614
 20
-440.8634843660657
 30
0.0
  0
SPLINE
  5
6B
330
41
100
AcDbEntity
  8
Layer 1
 62
   156
420
  1785491
370
    18
100
AcDbSpline
210
0.0
220
0.0
230
1.0
 70
     8
 71
     3
 72
    11
 73
     7
 74
     0
 42
0.0000000001
 43
0.0000000001
 12
1.0
 22
0.0
 32
0.0
 13
1.0
 23
0.0
 33
0.0
 40
0.0
 40
0.0
 40
0.0
 40
0.0
 40
1.0
 40
1.0
 40
1.0
 40
2.0
 40
2.0
 40
2.0
 40
2.0
 10
244.390329260922
 20
-376.2674070684179
 30
0.0
 10
234.0591837615466
 20
-390.5035185622964
 30
0.0
 10
226.5658754730184
 20
-398.6417944283057
 30
0.0
 10
212.5936021517018
 20
-409.0843487050242
 30
0.0
 10
199.7588234067562
 20
-418.7060321058461
 30
0.0
 10
193.555439089816
 20
-428.2573720806977
 30
0.0
 10
177.4723821043881
 20
-430.8958544566813
 30
0.0
  0
SPLINE
  5
6C
330
41
100
AcDbEntity
  8
Layer 1
 62
   156
420
  1785491
370
    18
100
AcDbSpline
210
0.0
220
0.0
230
1.0
 70
     8
 71
     3
 72
     8
 73
     4
 74
     0
 42
0.0000000001
 43
0.0000000001
 12
1.0
 22
0.0
 32
0.0
 13
1.0
 23
0.0
 33
0.0
 40
0.0
 40
0.0
 40
0.0
 40
0.0
 40
1.0
 40
1.0
 40
1.0
 40
1.0
 10
235.929569606169
 20
-376.2674070684179
 30
0.0
 10
224.584069667676
 20
-391.4651098402501
 30
0.0
 10
218.8732123496247
 20
-401.5851803282267
 30
0.0
 10
203.1067678812942
 20
-412.4205730030271
 30
0.0
  0
SPLINE
  5
6D
330
41
100
AcDbEntity
  8
Layer 1
 62
   156
420
  1785491
370
    18
100
AcDbSpline
210
0.0
220
0.0
230
1.0
 70
     8
 71
     3
 72
    11
 73
     7
 74
     0
 42
0.0000000001
 43
0.0000000001
 12
1.0
 22
0.0
 32
0.0
 13
1.0
 23
0.0
 33
0.0
 40
0.0
 40
0.0
 40
0.0
 40
0.0
 40
1.0
 40
1.0
 40
1.0
 40
2.0
 40
2.0
 40
2.0
 40
2.0
 10
226.4368752474948
 20
-370.1226571842835
 30
0.0
 10
216.5689339389182
 20
-387.1027997432184
 30
0.0
 10
208.489292505712
 20
-397.7916119276933
 30
0.0
 10
196.1704811127283
 20
-413.1886583510131
 30
0.0
 10
186.4373889345643
 20
-425.4371151346568
 30
0.0
 10
175.0332433798922
 20
-431.3942415438396
 30
0.0
 10
159.5189336826497
 20
-428.8378339537339
 30
0.0
  0
SPLINE
  5
6E
330
41
100
AcDbEntity
  8
Layer 1
 62
   156
420
  1785491
370
    18
100
AcDbSpline
210
0.0
220
0.0
230
1.0
 70
     8
 71
     3
 72
    14
 73
    10
 74
     0
 42
0.0000000001
 43
0.0000000001
 12
1.0
 22
0.0
 32
0.0
 13
1.0
 23
0.0
 33
0.0
 40
0.0
 40
0.0
 40
0.0
 40
0.0
 40
1.0
 40
1.0
 40
1.0
 40
2.0
 40
2.0
 40
2.0
 40
3.0
 40
3.0
 40
3.0
 40
3.0
 10
166.9477474501055
 20
-461.8951734098282
 30
0.0
 10
178.4808764552372
 20
-479.2622942785783
 30
0.0
 10
183.0190786673093
 20
-492.056030038897
 30
0.0
 10
183.0190786673093
 20
-512.8356010866337
 30
0.0
 10
183.0190786673093
 20
-527.0951641169577
 30
0.0
 10
188.583355495035
 20
-534.5357092443246
 30
0.0
 10
194.986094646838
 20
-547.3587678127333
 30
0.0
 10
198.0584584055296
 20
-553.5856036661189
 30
0.0
 10
197.2024158166496
 20
-558.0123859174764
 30
0.0
 10
199.4304795297467
 20
-564.7903832025568
 30
0.0
  0
SPLINE
  5
6F
330
41
100
AcDbEntity
  8
Layer 1
 62
   156
420
  1785491
370
    18
100
AcDbSpline
210
0.0
220
0.0
230
1.0
 70
     8
 71
     3
 72
    11
 73
     7
 74
     0
 42
0.0000000001
 43
0.0000000001
 12
1.0
 22
0.0
 32
0.0
 13
1.0
 23
0.0
 33
0.0
 40
0.0
 40
0.0
 40
0.0
 40
0.0
 40
1.0
 40
1.0
 40
1.0
 40
2.0
 40
2.0
 40
2.0
 40
2.0
 10
277.1896794493496
 20
-536.253654510354
 30
0.0
 10
274.4690999207378
 20
-535.2275798947012
 30
0.0
 10
192.2537837583159
 20
-467.3656329083897
 30
0.0
 10
186.4373889345643
 20
-464.9675483518949
 30
0.0
 10
180.6268430157079
 20
-462.5870440602048
 30
0.0
 10
165.7516296243039
 20
-452.4317906758679
 30
0.0
 10
165.7516296243039
 20
-452.4317906758679
 30
0.0
  0
SPLINE
  5
70
330
41
100
AcDbEntity
  8
Layer 1
 62
   156
420
  1785491
370
    18
100
AcDbSpline
210
0.0
220
0.0
230
1.0
 70
     8
 71
     3
 72
     8
 73
     4
 74
     0
 42
0.0000000001
 43
0.0000000001
 12
1.0
 22
0.0
 32
0.0
 13
1.0
 23
0.0
 33
0.0
 40
0.0
 40
0.0
 40
0.0
 40
0.0
 40
1.0
 40
1.0
 40
1.0
 40
1.0
 10
265.0584915313166
 20
-545.4766394248236
 30
0.0
 10
265.0584915313166
 20
-545.4766394248236
 30
0.0
 10
191.2277091426631
 20
-469.7637286482604
 30
0.0
 10
183.3591427208548
 20
-465.3252038536193
 30
0.0
  0
SPLINE
  5
71
330
41
100
AcDbEntity
  8
Layer 1
 62
   156
420
  1785491
370
    18
100
AcDbSpline
210
0.0
220
0.0
230
1.0
 70
     8
 71
     3
 72
     8
 73
     4
 74
     0
 42
0.0000000001
 43
0.0000000001
 12
1.0
 22
0.0
 32
0.0
 13
1.0
 23
0.0
 33
0.0
 40
0.0
 40
0.0
 40
0.0
 40
0.0
 40
1.0
 40
1.0
 40
1.0
 40
1.0
 10
244.8945764363471
 20
-562.2339756124493
 30
0.0
 10
244.8945764363471
 20
-562.2339756124493
 30
0.0
 10
184.7311638450719
 20
-471.8217491512114
 30
0.0
 10
180.6268430157079
 20
-468.0457833822293
 30
0.0
  0
SPLINE
  5
72
330
41
100
AcDbEntity
  8
Layer 1
 62
   156
420
  1785491
370
    18
100
AcDbSpline
210
0.0
220
0.0
230
1.0
 70
     8
 71
     3
 72
    11
 73
     7
 74
     0
 42
0.0000000001
 43
0.0000000001
 12
1.0
 22
0.0
 32
0.0
 13
1.0
 23
0.0
 33
0.0
 40
0.0
 40
0.0
 40
0.0
 40
0.0
 40
1.0
 40
1.0
 40
1.0
 40
2.0
 40
2.0
 40
2.0
 40
2.0
 10
230.3594326901757
 20
-568.0386614430372
 30
0.0
 10
230.3594326901757
 20
-568.0386614430372
 30
0.0
 10
179.5948971284106
 20
-468.7435141208753
 30
0.0
 10
176.1824581327983
 20
-464.9675483518949
 30
0.0
 10
172.7700079538108
 20
-461.2208942076304
 30
0.0
 10
154.0484685923993
 20
-446.0114712592622
 30
0.0
 10
154.0484685923993
 20
-446.0114712592622
 30
0.0
  0
SPLINE
  5
73
330
41
100
AcDbEntity
  8
Layer 1
 62
   156
420
  1785491
370
    18
100
AcDbSpline
210
0.0
220
0.0
230
1.0
 70
     8
 71
     3
 72
    11
 73
     7
 74
     0
 42
0.0000000001
 43
0.0000000001
 12
1.0
 22
0.0
 32
0.0
 13
1.0
 23
0.0
 33
0.0
 40
0.0
 40
0.0
 40
0.0
 40
0.0
 40
1.0
 40
1.0
 40
1.0
 40
2.0
 40
2.0
 40
2.0
 40
2.0
 10
289.848566079253
 20
-505.4830132001607
 30
0.0
 10
289.848566079253
 20
-505.4830132001607
 30
0.0
 10
199.4304795297467
 20
-466.6913537061937
 30
0.0
 10
190.8817738174748
 20
-463.6131186758575
 30
0.0
 10
182.3272080169336
 20
-460.5466038220584
 30
0.0
 10
155.9247257086663
 20
-445.2551060878122
 30
0.0
 10
154.8986455013246
 20
-445.2551060878122
 30
0.0
  0
SPLINE
  5
74
330
41
100
AcDbEntity
  8
Layer 1
 62
   156
420
  1785491
370
    18
100
AcDbSpline
210
0.0
220
0.0
230
1.0
 70
     8
 71
     3
 72
    11
 73
     7
 74
     0
 42
0.0000000001
 43
0.0000000001
 12
1.0
 22
0.0
 32
0.0
 13
1.0
 23
0.0
 33
0.0
 40
0.0
 40
0.0
 40
0.0
 40
0.0
 40
1.0
 40
1.0
 40
1.0
 40
2.0
 40
2.0
 40
2.0
 40
2.0
 10
144.7316663487663
 20
-363.6202629817999
 30
0.0
 10
151.7441845900048
 20
-374.1273117795909
 30
0.0
 10
151.5682868832773
 20
-383.7079521957849
 30
0.0
 10
156.6928166483394
 20
-395.2410756092304
 30
0.0
 10
161.477276768167
 20
-406.0002535864214
 30
0.0
 10
166.437640186412
 20
-414.7248514137355
 30
0.0
 10
160.8029975659701
 20
-424.9915023920366
 30
0.0
  0
SPLINE
  5
75
330
41
100
AcDbEntity
  8
Layer 1
 62
   156
420
  1785491
370
    18
100
AcDbSpline
210
0.0
220
0.0
230
1.0
 70
     8
 71
     3
 72
    14
 73
    10
 74
     0
 42
0.0000000001
 43
0.0000000001
 12
1.0
 22
0.0
 32
0.0
 13
1.0
 23
0.0
 33
0.0
 40
0.0
 40
0.0
 40
0.0
 40
0.0
 40
1.0
 40
1.0
 40
1.0
 40
2.0
 40
2.0
 40
2.0
 40
3.0
 40
3.0
 40
3.0
 40
3.0
 10
127.3059110472122
 20
-375.07716051426
 30
0.0
 10
132.2545486972331
 20
-375.5931390495962
 30
0.0
 10
134.2128917827522
 20
-380.471416498588
 30
0.0
 10
136.1771005482251
 20
-384.9978873507489
 30
0.0
 10
138.504836087066
 20
-390.2103575816454
 30
0.0
 10
140.2872814658576
 20
-393.0247432560436
 30
0.0
 10
142.3335762005836
 20
-398.3369020877444
 30
0.0
 10
146.1681764023688
 20
-408.3924780546495
 30
0.0
 10
152.0725284670143
 20
-413.1124436534037
 30
0.0
 10
153.2803720610391
 20
-423.9536964164727
 30
0.0
  0
SPLINE
  5
76
330
41
100
AcDbEntity
  8
Layer 1
 62
   156
420
  1785491
370
    18
100
AcDbSpline
210
0.0
220
0.0
230
1.0
 70
     8
 71
     3
 72
    11
 73
     7
 74
     0
 42
0.0000000001
 43
0.0000000001
 12
1.0
 22
0.0
 32
0.0
 13
1.0
 23
0.0
 33
0.0
 40
0.0
 40
0.0
 40
0.0
 40
0.0
 40
1.0
 40
1.0
 40
1.0
 40
2.0
 40
2.0
 40
2.0
 40
2.0
 10
179.9467037252416
 20
-373.0191511946841
 30
0.0
 10
179.2606931631344
 20
-379.6974598789584
 30
0.0
 10
176.522533369719
 20
-382.933995576157
 30
0.0
 10
175.1622436054131
 20
-389.4364009620158
 30
0.0
 10
173.1921691599837
 20
-398.4834825780708
 30
0.0
 10
175.8423828958794
 20
-403.8073727696819
 30
0.0
 10
174.8221683684933
 20
-413.0127662359737
 30
0.0
  0
SPLINE
  5
77
330
41
100
AcDbEntity
  8
Layer 1
 62
   156
420
  1785491
370
    18
100
AcDbSpline
210
0.0
220
0.0
230
1.0
 70
     8
 71
     3
 72
     8
 73
     4
 74
     0
 42
0.0000000001
 43
0.0000000001
 12
1.0
 22
0.0
 32
0.0
 13
1.0
 23
0.0
 33
0.0
 40
0.0
 40
0.0
 40
0.0
 40
0.0
 40
1.0
 40
1.0
 40
1.0
 40
1.0
 10
185.7513783724571
 20
-377.1234496572988
 30
0.0
 10
176.522533369719
 20
-391.0429486340772
 30
0.0
 10
183.2770567516027
 20
-403.8777273790229
 30
0.0
 10
175.1622436054131
 20
-418.4890970061788
 30
0.0
  0
SPLINE
  5
78
330
41
100
AcDbEntity
  8
Layer 1
 62
   156
420
  1785491
370
    18
100
AcDbSpline
210
0.0
220
0.0
230
1.0
 70
     8
 71
     3
 72
    11
 73
     7
 74
     0
 42
0.0000000001
 43
0.0000000001
 12
1.0
 22
0.0
 32
0.0
 13
1.0
 23
0.0
 33
0.0
 40
0.0
 40
0.0
 40
0.0
 40
0.0
 40
1.0
 40
1.0
 40
1.0
 40
2.0
 40
2.0
 40
2.0
 40
2.0
 10
201.3125967342803
 20
-363.4560910432947
 30
0.0
 10
195.5841479680503
 20
-374.0510858986054
 30
0.0
 10
191.0576771158894
 20
-389.8702823447238
 30
0.0
 10
186.091453609376
 20
-401.0574816163553
 30
0.0
 10
182.3272080169336
 20
-409.6824020262384
 30
0.0
 10
182.0926702857132
 20
-417.8089465323392
 30
0.0
 10
173.4501584276522
 20
-421.5731921247816
 30
0.0
  0
SPLINE
  5
79
330
41
100
AcDbEntity
  8
Layer 1
 62
   156
420
  1785491
370
    18
100
AcDbSpline
210
0.0
220
0.0
230
1.0
 70
     8
 71
     3
 72
    11
 73
     7
 74
     0
 42
0.0000000001
 43
0.0000000001
 12
1.0
 22
0.0
 32
0.0
 13
1.0
 23
0.0
 33
0.0
 40
0.0
 40
0.0
 40
0.0
 40
0.0
 40
1.0
 40
1.0
 40
1.0
 40
2.0
 40
2.0
 40
2.0
 40
2.0
 10
210.3714097102475
 20
-366.8685412222812
 30
0.0
 10
206.261228792614
 20
-376.8830518378099
 30
0.0
 10
201.5705860019489
 20
-386.1060367522814
 30
0.0
 10
196.3522444994114
 20
-395.5635593979714
 30
0.0
 10
189.4276779073807
 20
-408.0582740893724
 30
0.0
 10
186.2673457244182
 20
-417.3809252378978
 30
0.0
 10
173.8078139293766
 20
-424.2996317416601
 30
0.0
  0
SPLINE
  5
7A
330
41
100
AcDbEntity
  8
Layer 1
 62
   156
420
  1785491
370
    18
100
AcDbSpline
210
0.0
220
0.0
230
1.0
 70
     8
 71
     3
 72
    11
 73
     7
 74
     0
 42
0.0000000001
 43
0.0000000001
 12
1.0
 22
0.0
 32
0.0
 13
1.0
 23
0.0
 33
0.0
 40
0.0
 40
0.0
 40
0.0
 40
0.0
 40
1.0
 40
1.0
 40
1.0
 40
2.0
 40
2.0
 40
2.0
 40
2.0
 10
175.1622436054131
 20
-365.5023801863335
 30
0.0
 10
173.1921691599837
 20
-377.639428192635
 30
0.0
 10
170.7119930425479
 20
-387.1966170723827
 30
0.0
 10
170.7119930425479
 20
-399.3336650786823
 30
0.0
 10
170.7119930425479
 20
-410.1983805615737
 30
0.0
 10
176.4463074887353
 20
-425.5074809273719
 30
0.0
 10
165.5757319175755
 20
-426.6918673932632
 30
0.0
  0
SPLINE
  5
7B
330
41
100
AcDbEntity
  8
Layer 1
 62
   156
420
  1785491
370
    18
100
AcDbSpline
210
0.0
220
0.0
230
1.0
 70
     8
 71
     3
 72
    11
 73
     7
 74
     0
 42
0.0000000001
 43
0.0000000001
 12
1.0
 22
0.0
 32
0.0
 13
1.0
 23
0.0
 33
0.0
 40
0.0
 40
0.0
 40
0.0
 40
0.0
 40
1.0
 40
1.0
 40
1.0
 40
2.0
 40
2.0
 40
2.0
 40
2.0
 10
152.5885014106634
 20
-364.4880257472169
 30
0.0
 10
152.5885014106634
 20
-364.4880257472169
 30
0.0
 10
171.7380732498896
 20
-417.4747425670603
 30
0.0
 10
166.6076778048728
 20
-421.5731921247816
 30
0.0
 10
161.4714166799004
 20
-425.659921505965
 30
0.0
 10
161.1372071229353
 20
-426.6977274815308
 30
0.0
 10
158.3931760578771
 20
-426.6977274815308
 30
0.0
  0
SPLINE
  5
7C
330
41
100
AcDbEntity
  8
Layer 1
 62
   156
420
  1785491
370
    18
100
AcDbSpline
210
0.0
220
0.0
230
1.0
 70
     8
 71
     3
 72
    11
 73
     7
 74
     0
 42
0.0000000001
 43
0.0000000001
 12
1.0
 22
0.0
 32
0.0
 13
1.0
 23
0.0
 33
0.0
 40
0.0
 40
0.0
 40
0.0
 40
0.0
 40
1.0
 40
1.0
 40
1.0
 40
2.0
 40
2.0
 40
2.0
 40
2.0
 10
216.8679550078377
 20
-370.2809690345202
 30
0.0
 10
216.8679550078377
 20
-370.2809690345202
 30
0.0
 10
189.5097638766329
 20
-423.2618257660961
 30
0.0
 10
177.2144040200947
 20
-425.3139861807795
 30
0.0
 10
164.9014527153786
 20
-427.3720066837268
 30
0.0
 10
159.782783038585
 20
-428.7381565363012
 30
0.0
 10
158.3931760578771
 20
-428.0638773341034
 30
0.0
  0
SPLINE
  5
7D
330
41
100
AcDbEntity
  8
Layer 1
 62
   156
420
  1785491
370
    18
100
AcDbSpline
210
0.0
220
0.0
230
1.0
 70
     8
 71
     3
 72
    11
 73
     7
 74
     0
 42
0.0000000001
 43
0.0000000001
 12
1.0
 22
0.0
 32
0.0
 13
1.0
 23
0.0
 33
0.0
 40
0.0
 40
0.0
 40
0.0
 40
0.0
 40
1.0
 40
1.0
 40
1.0
 40
2.0
 40
2.0
 40
2.0
 40
2.0
 10
298.9073678718441
 20
-483.108625840272
 30
0.0
 10
298.9073678718441
 20
-483.108625840272
 30
0.0
 10
199.0786841162899
 20
-457.1165733782673
 30
0.0
 10
189.5097638766329
 20
-453.3464676975545
 30
0.0
 10
179.9467037252416
 20
-449.5822221051112
 30
0.0
 10
158.997100650733
 20
-444.4811494681853
 30
0.0
 10
156.6107306790864
 20
-443.0915368957903
 30
0.0
  0
SPLINE
  5
7E
330
41
100
AcDbEntity
  8
Layer 1
 62
   156
420
  1785491
370
    18
100
AcDbSpline
210
0.0
220
0.0
230
1.0
 70
     8
 71
     3
 72
    11
 73
     7
 74
     0
 42
0.0000000001
 43
0.0000000001
 12
1.0
 22
0.0
 32
0.0
 13
1.0
 23
0.0
 33
0.0
 40
0.0
 40
0.0
 40
0.0
 40
0.0
 40
1.0
 40
1.0
 40
1.0
 40
2.0
 40
2.0
 40
2.0
 40
2.0
 10
307.4560735841169
 20
-461.2208942076304
 30
0.0
 10
307.4560735841169
 20
-461.2208942076304
 30
0.0
 10
197.7125230803422
 20
-453.3464676975545
 30
0.0
 10
189.8615592900887
 20
-449.934017518568
 30
0.0
 10
181.9929928682823
 20
-446.5391699711345
 30
0.0
 10
159.4309820334411
 20
-442.0830537283127
 30
0.0
 10
158.0531064126444
 20
-441.4087745261168
 30
0.0
  0
SPLINE
  5
7F
330
41
100
AcDbEntity
  8
Layer 1
 62
   156
420
  1785491
370
    18
100
AcDbSpline
210
0.0
220
0.0
230
1.0
 70
     8
 71
     3
 72
    11
 73
     7
 74
     0
 42
0.0000000001
 43
0.0000000001
 12
1.0
 22
0.0
 32
0.0
 13
1.0
 23
0.0
 33
0.0
 40
0.0
 40
0.0
 40
0.0
 40
0.0
 40
1.0
 40
1.0
 40
1.0
 40
2.0
 40
2.0
 40
2.0
 40
2.0
 10
280.6197098931407
 20
-438.4947002509125
 30
0.0
 10
280.6197098931407
 20
-438.4947002509125
 30
0.0
 10
198.7444689676386
 20
-444.305246169768
 30
0.0
 10
187.4693236384874
 20
-442.5931609920062
 30
0.0
 10
176.1883182210668
 20
-440.8576242777981
 30
0.0
 10
161.3189705096192
 20
-440.969021871766
 30
0.0
 10
159.2668100949377
 20
-439.6028720191916
 30
0.0
  0
SPLINE
  5
80
330
41
100
AcDbEntity
  8
Layer 1
 62
   156
420
  1785491
370
    18
100
AcDbSpline
210
0.0
220
0.0
230
1.0
 70
     8
 71
     3
 72
    11
 73
     7
 74
     0
 42
0.0000000001
 43
0.0000000001
 12
1.0
 22
0.0
 32
0.0
 13
1.0
 23
0.0
 33
0.0
 40
0.0
 40
0.0
 40
0.0
 40
0.0
 40
1.0
 40
1.0
 40
1.0
 40
2.0
 40
2.0
 40
2.0
 40
2.0
 10
262.853890538041
 20
-412.3384870337759
 30
0.0
 10
262.853890538041
 20
-412.3384870337759
 30
0.0
 10
196.6864484646894
 20
-435.5806371590807
 30
0.0
 10
189.8615592900887
 20
-435.5806371590807
 30
0.0
 10
183.0190786673093
 20
-435.5806371590807
 30
0.0
 10
170.5360897441333
 20
-440.3006027578358
 30
0.0
 10
159.9469549770902
 20
-435.8327663384807
 30
0.0
  0
SPLINE
  5
81
330
41
100
AcDbEntity
  8
Layer 1
 62
   156
420
  1785491
370
    18
100
AcDbSpline
210
0.0
220
0.0
230
1.0
 70
     8
 71
     3
 72
     8
 73
     4
 74
     0
 42
0.0000000001
 43
0.0000000001
 12
1.0
 22
0.0
 32
0.0
 13
1.0
 23
0.0
 33
0.0
 40
0.0
 40
0.0
 40
0.0
 40
0.0
 40
1.0
 40
1.0
 40
1.0
 40
1.0
 10
260.6258268249439
 20
-389.952368313976
 30
0.0
 10
260.6258268249439
 20
-389.952368313976
 30
0.0
 10
196.4284591970199
 20
-442.7573329305105
 30
0.0
 10
160.1990785648022
 20
-433.5343480160409
 30
0.0
  0
SPLINE
  5
82
330
41
100
AcDbEntity
  8
Layer 1
 62
   156
420
  1785491
370
    18
100
AcDbSpline
210
0.0
220
0.0
230
1.0
 70
     8
 71
     3
 72
     8
 73
     4
 74
     0
 42
0.0000000001
 43
0.0000000001
 12
1.0
 22
0.0
 32
0.0
 13
1.0
 23
0.0
 33
0.0
 40
0.0
 40
0.0
 40
0.0
 40
0.0
 40
1.0
 40
1.0
 40
1.0
 40
1.0
 10
249.6907567327107
 20
-381.2453731182159
 30
0.0
 10
249.6907567327107
 20
-381.2453731182159
 30
0.0
 10
194.3880301422496
 20
-444.2173001122483
 30
0.0
 10
159.5247993626053
 20
-430.8958544566813
 30
0.0
  0
SPLINE
  5
83
330
41
100
AcDbEntity
  8
Layer 1
 62
   156
420
  1785491
370
    18
100
AcDbSpline
210
0.0
220
0.0
230
1.0
 70
     8
 71
     3
 72
    11
 73
     7
 74
     0
 42
0.0000000001
 43
0.0000000001
 12
1.0
 22
0.0
 32
0.0
 13
1.0
 23
0.0
 33
0.0
 40
0.0
 40
0.0
 40
0.0
 40
0.0
 40
1.0
 40
1.0
 40
1.0
 40
2.0
 40
2.0
 40
2.0
 40
2.0
 10
153.3741837985144
 20
-446.5391699711345
 30
0.0
 10
165.5757319175755
 20
-460.5290235572538
 30
0.0
 10
171.9081052766614
 20
-470.6139111488737
 30
0.0
 10
176.8625974232637
 20
-488.5614938906547
 30
0.0
 10
183.0249387555778
 20
-510.7951720318615
 30
0.0
 10
175.3322756321859
 20
-525.8111002336354
 30
0.0
 10
182.6790034303885
 20
-548.0389071031987
 30
0.0
  0
SPLINE
  5
84
330
41
100
AcDbEntity
  8
Layer 1
 62
   156
420
  1785491
370
    18
100
AcDbSpline
210
0.0
220
0.0
230
1.0
 70
     8
 71
     3
 72
    11
 73
     7
 74
     0
 42
0.0000000001
 43
0.0000000001
 12
1.0
 22
0.0
 32
0.0
 13
1.0
 23
0.0
 33
0.0
 40
0.0
 40
0.0
 40
0.0
 40
0.0
 40
1.0
 40
1.0
 40
1.0
 40
2.0
 40
2.0
 40
2.0
 40
2.0
 10
149.5219921485495
 20
-471.1357497724766
 30
0.0
 10
144.9017039672253
 20
-485.0611088375226
 30
0.0
 10
146.4437515265272
 20
-494.5362117480181
 30
0.0
 10
137.8891857259878
 20
-505.9931204638524
 30
0.0
 10
133.7907305765784
 20
-511.4694512340593
 30
0.0
 10
130.4603719585321
 20
-510.5371827641957
 30
0.0
 10
124.9019552190739
 20
-514.4597402068721
 30
0.0
  0
SPLINE
  5
85
330
41
100
AcDbEntity
  8
Layer 1
 62
   156
420
  1785491
370
    18
100
AcDbSpline
210
0.0
220
0.0
230
1.0
 70
     8
 71
     3
 72
    14
 73
    10
 74
     0
 42
0.0000000001
 43
0.0000000001
 12
1.0
 22
0.0
 32
0.0
 13
1.0
 23
0.0
 33
0.0
 40
0.0
 40
0.0
 40
0.0
 40
0.0
 40
1.0
 40
1.0
 40
1.0
 40
2.0
 40
2.0
 40
2.0
 40
3.0
 40
3.0
 40
3.0
 40
3.0
 10
147.8099069707887
 20
-464.6274731149751
 30
0.0
 10
146.1857678505476
 20
-474.4485113506598
 30
0.0
 10
141.2195443440341
 20
-478.6466383258121
 30
0.0
 10
136.5230358734134
 20
-487.2129354862609
 30
0.0
 10
133.6265586380741
 20
-492.4899114216041
 30
0.0
 10
133.8904079940103
 20
-496.4183289525536
 30
0.0
 10
130.7183612261997
 20
-501.5545956692149
 30
0.0
 10
127.716346485161
 20
-506.4328619348307
 30
0.0
 10
122.9436121335548
 20
-508.655054376286
 30
0.0
 10
120.6334680428936
 20
-513.8499555257513
 30
0.0
  0
SPLINE
  5
86
330
41
100
AcDbEntity
  8
Layer 1
 62
   156
420
  1785491
370
    18
100
AcDbSpline
210
0.0
220
0.0
230
1.0
 70
     8
 71
     3
 72
     8
 73
     4
 74
     0
 42
0.0000000001
 43
0.0000000001
 12
1.0
 22
0.0
 32
0.0
 13
1.0
 23
0.0
 33
0.0
 40
0.0
 40
0.0
 40
0.0
 40
0.0
 40
1.0
 40
1.0
 40
1.0
 40
1.0
 10
146.4437515265272
 20
-462.5811727885612
 30
0.0
 10
146.4437515265272
 20
-462.5811727885612
 30
0.0
 10
128.6720664914719
 20
-497.2861029013438
 30
0.0
 10
111.2463111899187
 20
-507.2068185544595
 30
0.0
  0
SPLINE
  5
87
330
41
100
AcDbEntity
  8
Layer 1
 62
   156
420
  1785491
370
    18
100
AcDbSpline
210
0.0
220
0.0
230
1.0
 70
     8
 71
     3
 72
     8
 73
     4
 74
     0
 42
0.0000000001
 43
0.0000000001
 12
1.0
 22
0.0
 32
0.0
 13
1.0
 23
0.0
 33
0.0
 40
0.0
 40
0.0
 40
0.0
 40
0.0
 40
1.0
 40
1.0
 40
1.0
 40
1.0
 10
148.5721378221942
 20
-451.5522965505406
 30
0.0
 10
148.5721378221942
 20
-451.5522965505406
 30
0.0
 10
127.5932175312819
 20
-490.6077942170687
 30
0.0
 10
101.2669611039983
 20
-495.069770548158
 30
0.0
  0
SPLINE
  5
88
330
41
100
AcDbEntity
  8
Layer 1
 62
   156
420
  1785491
370
    18
100
AcDbSpline
210
0.0
220
0.0
230
1.0
 70
     8
 71
     3
 72
     8
 73
     4
 74
     0
 42
0.0000000001
 43
0.0000000001
 12
1.0
 22
0.0
 32
0.0
 13
1.0
 23
0.0
 33
0.0
 40
0.0
 40
0.0
 40
0.0
 40
0.0
 40
1.0
 40
1.0
 40
1.0
 40
1.0
 10
143.7055861414246
 20
-453.6865429344743
 30
0.0
 10
143.7055861414246
 20
-453.6865429344743
 30
0.0
 10
116.048362757926
 20
-491.2175788981931
 30
0.0
 10
95.5502325143043
 20
-484.7210336006046
 30
0.0
  0
SPLINE
  5
89
330
41
100
AcDbEntity
  8
Layer 1
 62
   156
420
  1785491
370
    18
100
AcDbSpline
210
0.0
220
0.0
230
1.0
 70
     8
 71
     3
 72
     8
 73
     4
 74
     0
 42
0.0000000001
 43
0.0000000001
 12
1.0
 22
0.0
 32
0.0
 13
1.0
 23
0.0
 33
0.0
 40
0.0
 40
0.0
 40
0.0
 40
0.0
 40
1.0
 40
1.0
 40
1.0
 40
1.0
 10
155.3208067074975
 20
-424.2996317416601
 30
0.0
 10
155.3208067074975
 20
-424.2996317416601
 30
0.0
 10
150.8881420011248
 20
-380.8935665213858
 30
0.0
 10
136.5288959616819
 20
-371.3070660169224
 30
0.0
  0
SPLINE
  5
8A
330
41
100
AcDbEntity
  8
Layer 1
 62
   156
420
  1785491
370
    18
100
AcDbSpline
210
0.0
220
0.0
230
1.0
 70
     8
 71
     3
 72
     8
 73
     4
 74
     0
 42
0.0000000001
 43
0.0000000001
 12
1.0
 22
0.0
 32
0.0
 13
1.0
 23
0.0
 33
0.0
 40
0.0
 40
0.0
 40
0.0
 40
0.0
 40
1.0
 40
1.0
 40
1.0
 40
1.0
 10
149.5219921485495
 20
-426.0175881910654
 30
0.0
 10
149.5219921485495
 20
-426.0175881910654
 30
0.0
 10
133.1164513743825
 20
-391.14262605151
 30
0.0
 10
127.634260515908
 20
-388.4161864346297
 30
0.0
  0
SPLINE
  5
8B
330
41
100
AcDbEntity
  8
Layer 1
 62
   156
420
  1785491
370
    18
100
AcDbSpline
210
0.0
220
0.0
230
1.0
 70
     8
 71
     3
 72
     8
 73
     4
 74
     0
 42
0.0000000001
 43
0.0000000001
 12
1.0
 22
0.0
 32
0.0
 13
1.0
 23
0.0
 33
0.0
 40
0.0
 40
0.0
 40
0.0
 40
0.0
 40
1.0
 40
1.0
 40
1.0
 40
1.0
 10
141.0670981737539
 20
-431.2183382454241
 30
0.0
 10
141.0670981737539
 20
-431.2183382454241
 30
0.0
 10
101.8239742364294
 20
-407.5540269139474
 30
0.0
 10
93.97300485448886
 20
-407.8941021508663
 30
0.0
  0
SPLINE
  5
8C
330
41
100
AcDbEntity
  8
Layer 1
 62
   156
420
  1785491
370
    18
100
AcDbSpline
210
0.0
220
0.0
230
1.0
 70
     8
 71
     3
 72
     8
 73
     4
 74
     0
 42
0.0000000001
 43
0.0000000001
 12
1.0
 22
0.0
 32
0.0
 13
1.0
 23
0.0
 33
0.0
 40
0.0
 40
0.0
 40
0.0
 40
0.0
 40
1.0
 40
1.0
 40
1.0
 40
1.0
 10
145.7636122360627
 20
-428.0638773341034
 30
0.0
 10
145.7636122360627
 20
-428.0638773341034
 30
0.0
 10
124.2159502486529
 20
-397.9851066742876
 30
0.0
 10
104.0461694737278
 20
-390.8025508145893
 30
0.0
  0
SPLINE
  5
8D
330
41
100
AcDbEntity
  8
Layer 1
 62
   156
420
  1785491
370
    18
100
AcDbSpline
210
0.0
220
0.0
230
1.0
 70
     8
 71
     3
 72
     8
 73
     4
 74
     0
 42
0.0000000001
 43
0.0000000001
 12
1.0
 22
0.0
 32
0.0
 13
1.0
 23
0.0
 33
0.0
 40
0.0
 40
0.0
 40
0.0
 40
0.0
 40
1.0
 40
1.0
 40
1.0
 40
1.0
 10
141.6534313184302
 20
-450.971823494132
 30
0.0
 10
141.6534313184302
 20
-450.971823494132
 30
0.0
 10
94.48311211818145
 20
-476.6003491827705
 30
0.0
 10
86.28034452694101
 20
-476.6003491827705
 30
0.0
  0
SPLINE
  5
8E
330
41
100
AcDbEntity
  8
Layer 1
 62
   156
420
  1785491
370
    18
100
AcDbSpline
210
0.0
220
0.0
230
1.0
 70
     8
 71
     3
 72
     8
 73
     4
 74
     0
 42
0.0000000001
 43
0.0000000001
 12
1.0
 22
0.0
 32
0.0
 13
1.0
 23
0.0
 33
0.0
 40
0.0
 40
0.0
 40
0.0
 40
0.0
 40
1.0
 40
1.0
 40
1.0
 40
1.0
 10
140.633216791045
 20
-444.8857080428043
 30
0.0
 10
140.633216791045
 20
-444.8857080428043
 30
0.0
 10
87.30055905432528
 20
-462.5811727885612
 30
0.0
 10
78.41764378508833
 20
-460.1948084086034
 30
0.0
  0
SPLINE
  5
8F
330
41
100
AcDbEntity
  8
Layer 1
 62
   156
420
  1785491
370
    18
100
AcDbSpline
210
0.0
220
0.0
230
1.0
 70
     8
 71
     3
 72
     8
 73
     4
 74
     0
 42
0.0000000001
 43
0.0000000001
 12
1.0
 22
0.0
 32
0.0
 13
1.0
 23
0.0
 33
0.0
 40
0.0
 40
0.0
 40
0.0
 40
0.0
 40
1.0
 40
1.0
 40
1.0
 40
1.0
 10
139.0853035517885
 20
-443.3553862517238
 30
0.0
 10
139.0853035517885
 20
-443.3553862517238
 30
0.0
 10
87.62890293133569
 20
-454.7302089983095
 30
0.0
 10
81.14408340196678
 20
-451.6461026963298
 30
0.0
  0
SPLINE
  5
90
330
41
100
AcDbEntity
  8
Layer 1
 62
   156
420
  1785491
370
    18
100
AcDbSpline
210
0.0
220
0.0
230
1.0
 70
     8
 71
     3
 72
     8
 73
     4
 74
     0
 42
0.0000000001
 43
0.0000000001
 12
1.0
 22
0.0
 32
0.0
 13
1.0
 23
0.0
 33
0.0
 40
0.0
 40
0.0
 40
0.0
 40
0.0
 40
1.0
 40
1.0
 40
1.0
 40
1.0
 10
137.8891857259878
 20
-440.969021871766
 30
0.0
 10
137.8891857259878
 20
-440.969021871766
 30
0.0
 10
96.8694792939832
 20
-433.6750684180988
 30
0.0
 10
91.41073997195781
 20
-429.6117905733608
 30
0.0
  0
SPLINE
  5
91
330
41
100
AcDbEntity
  8
Layer 1
 62
   156
420
  1785491
370
    18
100
AcDbSpline
210
0.0
220
0.0
230
1.0
 70
     8
 71
     3
 72
     8
 73
     4
 74
     0
 42
0.0000000001
 43
0.0000000001
 12
1.0
 22
0.0
 32
0.0
 13
1.0
 23
0.0
 33
0.0
 40
0.0
 40
0.0
 40
0.0
 40
0.0
 40
1.0
 40
1.0
 40
1.0
 40
1.0
 10
137.7308738757511
 20
-439.4269687207761
 30
0.0
 10
137.7308738757511
 20
-439.4269687207761
 30
0.0
 10
103.8702689711563
 20
-429.76424233533
 30
0.0
 10
97.05123988482319
 20
-425.3139861807795
 30
0.0
  0
SPLINE
  5
92
330
41
100
AcDbEntity
  8
Layer 1
 62
   156
420
  1785491
370
    18
100
AcDbSpline
210
0.0
220
0.0
230
1.0
 70
     8
 71
     3
 72
     8
 73
     4
 74
     0
 42
0.0000000001
 43
0.0000000001
 12
1.0
 22
0.0
 32
0.0
 13
1.0
 23
0.0
 33
0.0
 40
0.0
 40
0.0
 40
0.0
 40
0.0
 40
1.0
 40
1.0
 40
1.0
 40
1.0
 10
151.90835652851
 20
-470.7956745355586
 30
0.0
 10
151.90835652851
 20
-475.9260699805745
 30
0.0
 10
151.90835652851
 20
-507.7227970897948
 30
0.0
 10
135.4969556660726
 20
-522.4162415028259
 30
0.0
  0
SPLINE
  5
93
330
41
100
AcDbEntity
  8
Layer 1
 62
   156
420
  1785491
370
    18
100
AcDbSpline
210
0.0
220
0.0
230
1.0
 70
     8
 71
     3
 72
    11
 73
     7
 74
     0
 42
0.0000000001
 43
0.0000000001
 12
1.0
 22
0.0
 32
0.0
 13
1.0
 23
0.0
 33
0.0
 40
0.0
 40
0.0
 40
0.0
 40
0.0
 40
1.0
 40
1.0
 40
1.0
 40
2.0
 40
2.0
 40
2.0
 40
2.0
 10
146.0567732167137
 20
-447.66492200422
 30
0.0
 10
146.0567732167137
 20
-447.66492200422
 30
0.0
 10
154.6406618253441
 20
-468.0399121105875
 30
0.0
 10
154.3064522683799
 20
-471.8276204228532
 30
0.0
 10
153.9487911749666
 20
-475.5742745671178
 30
0.0
 10
157.302601329463
 20
-521.3315324543692
 30
0.0
 10
135.4383212332677
 20
-534.3363544094627
 30
0.0
  0
SPLINE
  5
94
330
41
100
AcDbEntity
  8
Layer 1
 62
   156
420
  1785491
370
    18
100
AcDbSpline
210
0.0
220
0.0
230
1.0
 70
     8
 71
     3
 72
    11
 73
     7
 74
     0
 42
0.0000000001
 43
0.0000000001
 12
1.0
 22
0.0
 32
0.0
 13
1.0
 23
0.0
 33
0.0
 40
0.0
 40
0.0
 40
0.0
 40
0.0
 40
1.0
 40
1.0
 40
1.0
 40
2.0
 40
2.0
 40
2.0
 40
2.0
 10
147.9799389975606
 20
-447.9229112718876
 30
0.0
 10
147.9799389975606
 20
-447.9229112718876
 30
0.0
 10
159.4309820334411
 20
-475.9260699805745
 30
0.0
 10
159.0850467082528
 20
-478.6583696857215
 30
0.0
 10
158.744977063021
 20
-481.384809302599
 30
0.0
 10
155.6726021209524
 20
-531.1291191536038
 30
0.0
 10
147.1356221769047
 20
-539.3260294524207
 30
0.0
  0
SPLINE
  5
95
330
41
100
AcDbEntity
  8
Layer 1
 62
   156
420
  1785491
370
    18
100
AcDbSpline
210
0.0
220
0.0
230
1.0
 70
     8
 71
     3
 72
    11
 73
     7
 74
     0
 42
0.0000000001
 43
0.0000000001
 12
1.0
 22
0.0
 32
0.0
 13
1.0
 23
0.0
 33
0.0
 40
0.0
 40
0.0
 40
0.0
 40
0.0
 40
1.0
 40
1.0
 40
1.0
 40
2.0
 40
2.0
 40
2.0
 40
2.0
 10
152.2132488690722
 20
-447.019954426738
 30
0.0
 10
152.2132488690722
 20
-447.019954426738
 30
0.0
 10
166.2676025679521
 20
-472.1442329399506
 30
0.0
 10
167.6396181004811
 20
-480.7163901886706
 30
0.0
 10
168.999907864787
 20
-489.2533645410331
 30
0.0
 10
172.4651156132504
 20
-545.6056284669703
 30
0.0
 10
171.4390409975958
 20
-547.6636601532955
 30
0.0
  0
SPLINE
  5
96
330
41
100
AcDbEntity
  8
Layer 1
 62
   156
420
  1785491
370
    18
100
AcDbSpline
210
0.0
220
0.0
230
1.0
 70
     8
 71
     3
 72
    11
 73
     7
 74
     0
 42
0.0000000001
 43
0.0000000001
 12
1.0
 22
0.0
 32
0.0
 13
1.0
 23
0.0
 33
0.0
 40
0.0
 40
0.0
 40
0.0
 40
0.0
 40
1.0
 40
1.0
 40
1.0
 40
2.0
 40
2.0
 40
2.0
 40
2.0
 10
151.181308573463
 20
-447.4245241847311
 30
0.0
 10
151.181308573463
 20
-447.4245241847311
 30
0.0
 10
165.5757319175755
 20
-476.2426824976737
 30
0.0
 10
165.2356622723428
 20
-487.2129354862609
 30
0.0
 10
164.9014527153786
 20
-498.1245540420459
 30
0.0
 10
166.9477474501055
 20
-545.6584028115085
 30
0.0
 10
163.8753725080378
 20
-554.5530326655935
 30
0.0
  0
SPLINE
  5
97
330
41
100
AcDbEntity
  8
Layer 1
 62
   156
420
  1785491
370
    18
100
AcDbSpline
210
0.0
220
0.0
230
1.0
 70
     8
 71
     3
 72
    11
 73
     7
 74
     0
 42
0.0000000001
 43
0.0000000001
 12
1.0
 22
0.0
 32
0.0
 13
1.0
 23
0.0
 33
0.0
 40
0.0
 40
0.0
 40
0.0
 40
0.0
 40
1.0
 40
1.0
 40
1.0
 40
2.0
 40
2.0
 40
2.0
 40
2.0
 10
159.4309820334411
 20
-452.0037693814284
 30
0.0
 10
159.4309820334411
 20
-452.0037693814284
 30
0.0
 10
174.8221683684933
 20
-465.6652790905391
 30
0.0
 10
179.2606931631344
 20
-474.8999841815476
 30
0.0
 10
183.6992179577746
 20
-484.1229690960172
 30
0.0
 10
220.9722758372009
 20
-564.2744046672196
 30
0.0
 10
221.6465550393978
 20
-572.1488423606716
 30
0.0
  0
SPLINE
  5
98
330
41
100
AcDbEntity
  8
Layer 1
 62
   156
420
  1785491
370
    18
100
AcDbSpline
210
0.0
220
0.0
230
1.0
 70
     8
 71
     3
 72
     8
 73
     4
 74
     0
 42
0.0000000001
 43
0.0000000001
 12
1.0
 22
0.0
 32
0.0
 13
1.0
 23
0.0
 33
0.0
 40
0.0
 40
0.0
 40
0.0
 40
0.0
 40
1.0
 40
1.0
 40
1.0
 40
1.0
 10
155.9247257086663
 20
-444.0765797101922
 30
0.0
 10
155.9247257086663
 20
-444.0765797101922
 30
0.0
 10
293.9528645418677
 20
-495.7499210219994
 30
0.0
 10
296.6910467020334
 20
-497.8020702533049
 30
0.0
  0
SPLINE
  5
99
330
41
100
AcDbEntity
  8
Layer 1
 62
   156
420
  1785491
370
    18
100
AcDbSpline
210
0.0
220
0.0
230
1.0
 70
     8
 71
     3
 72
    17
 73
    13
 74
     0
 42
0.0000000001
 43
0.0000000001
 12
1.0
 22
0.0
 32
0.0
 13
1.0
 23
0.0
 33
0.0
 40
0.0
 40
0.0
 40
0.0
 40
0.0
 40
1.0
 40
1.0
 40
1.0
 40
2.0
 40
2.0
 40
2.0
 40
3.0
 40
3.0
 40
3.0
 40
4.0
 40
4.0
 40
4.0
 40
4.0
 10
156.1768492963784
 20
-425.5074809273719
 30
0.0
 10
146.8893642691482
 20
-425.5074809273719
 30
0.0
 10
135.7373534855606
 20
-431.7636284054752
 30
0.0
 10
137.9888631434187
 20
-440.8576242777981
 30
0.0
 10
139.0735721918772
 20
-445.3665036817802
 30
0.0
 10
146.7662353152691
 20
-447.3600296636578
 30
0.0
 10
150.5363465876671
 20
-444.7215361042981
 30
0.0
 10
154.5644359443604
 20
-441.9599247744354
 30
0.0
 10
156.5696876944603
 20
-440.2478395966737
 30
0.0
 10
155.4146184449728
 20
-435.2405731055351
 30
0.0
 10
154.7755165474464
 20
-432.4730905040306
 30
0.0
 10
148.9415246838298
 20
-434.9884439261368
 30
0.0
 10
148.490046261255
 20
-437.8204210487147
 30
0.0
  0
SPLINE
  5
9A
330
41
100
AcDbEntity
  8
Layer 1
 62
   156
420
  1785491
370
    18
100
AcDbSpline
210
0.0
220
0.0
230
1.0
 70
     8
 71
     3
 72
     8
 73
     4
 74
     0
 42
0.0000000001
 43
0.0000000001
 12
1.0
 22
0.0
 32
0.0
 13
1.0
 23
0.0
 33
0.0
 40
0.0
 40
0.0
 40
0.0
 40
0.0
 40
1.0
 40
1.0
 40
1.0
 40
1.0
 10
84.90832899441102
 20
-476.5241233017878
 30
0.0
 10
87.00739248198715
 20
-476.2075107846886
 30
0.0
 10
88.18005317965435
 20
-478.4941977472172
 30
0.0
 10
88.49667128843885
 20
-480.6108526829721
 30
0.0
  0
SPLINE
  5
9B
330
41
100
AcDbEntity
  8
Layer 1
 62
   156
420
  1785491
370
    18
100
AcDbSpline
210
0.0
220
0.0
230
1.0
 70
     8
 71
     3
 72
    11
 73
     7
 74
     0
 42
0.0000000001
 43
0.0000000001
 12
1.0
 22
0.0
 32
0.0
 13
1.0
 23
0.0
 33
0.0
 40
0.0
 40
0.0
 40
0.0
 40
0.0
 40
1.0
 40
1.0
 40
1.0
 40
2.0
 40
2.0
 40
2.0
 40
2.0
 10
85.92854352179711
 20
-480.3587346869463
 30
0.0
 10
87.46473099283048
 20
-482.4167551898972
 30
0.0
 10
88.29732204526408
 20
-483.8825824599007
 30
0.0
 10
88.49667128843885
 20
-486.5269361075298
 30
0.0
 10
91.70390374845192
 20
-487.013580651399
 30
0.0
 10
94.64728405668666
 20
-486.5269361075298
 30
0.0
 10
97.73138476697659
 20
-487.5354192750019
 30
0.0
  0
SPLINE
  5
9C
330
41
100
AcDbEntity
  8
Layer 1
 62
   156
420
  1785491
370
    18
100
AcDbSpline
210
0.0
220
0.0
230
1.0
 70
     8
 71
     3
 72
    26
 73
    22
 74
     0
 42
0.0000000001
 43
0.0000000001
 12
1.0
 22
0.0
 32
0.0
 13
1.0
 23
0.0
 33
0.0
 40
0.0
 40
0.0
 40
0.0
 40
0.0
 40
1.0
 40
1.0
 40
1.0
 40
2.0
 40
2.0
 40
2.0
 40
3.0
 40
3.0
 40
3.0
 40
4.0
 40
4.0
 40
4.0
 40
5.0
 40
5.0
 40
5.0
 40
6.0
 40
6.0
 40
6.0
 40
7.0
 40
7.0
 40
7.0
 40
7.0
 10
220.7905124505169
 20
-354.2155146806463
 30
0.0
 10
219.7058034020583
 20
-351.9815908792807
 30
0.0
 10
218.9318467824314
 20
-350.5685267704375
 30
0.0
 10
218.996341303503
 20
-348.0766248847794
 30
0.0
 10
219.0608358245763
 20
-346.4642059410744
 30
0.0
 10
217.9233524315814
 20
-344.2244220514403
 30
0.0
 10
219.512308655464
 20
-343.9840242319524
 30
0.0
 10
220.913641404396
 20
-343.7729492205544
 30
0.0
 10
220.6087490638338
 20
-345.5788629108529
 30
0.0
 10
221.5644690701456
 20
-346.5345717337914
 30
0.0
 10
223.1065222211364
 20
-352.7496874106409
 30
0.0
 10
219.2543305711706
 20
-356.6722336699468
 30
0.0
 10
220.2862652750919
 20
-362.9401125079594
 30
0.0
 10
221.0602218947224
 20
-367.8183899569522
 30
0.0
 10
225.076596666564
 20
-369.864679099991
 30
0.0
 10
229.7730995454986
 20
-371.4125923392494
 30
0.0
 10
233.5432052262104
 20
-372.638021789764
 30
0.0
 10
236.433816781594
 20
-371.4125923392494
 30
0.0
 10
240.0338904355331
 20
-373.1950433097263
 30
0.0
 10
247.2750807280372
 20
-376.7833856037541
 30
0.0
 10
249.1865207406609
 20
-382.2304047492444
 30
0.0
 10
255.6654745900742
 20
-387.0500365820562
 30
0.0
  0
SPLINE
  5
9D
330
41
100
AcDbEntity
  8
Layer 1
 62
   156
420
  1785491
370
    18
100
AcDbSpline
210
0.0
220
0.0
230
1.0
 70
     8
 71
     3
 72
     8
 73
     4
 74
     0
 42
0.0000000001
 43
0.0000000001
 12
1.0
 22
0.0
 32
0.0
 13
1.0
 23
0.0
 33
0.0
 40
0.0
 40
0.0
 40
0.0
 40
0.0
 40
1.0
 40
1.0
 40
1.0
 40
1.0
 10
212.8457313311001
 20
-367.8183899569522
 30
0.0
 10
218.4862340398113
 20
-364.5525314516635
 30
0.0
 10
218.755943484015
 20
-358.9061574713114
 30
0.0
 10
219.2484592995279
 20
-352.4330637101684
 30
0.0
  0
SPLINE
  5
9E
330
41
100
AcDbEntity
  8
Layer 1
 62
   156
420
  1785491
370
    18
100
AcDbSpline
210
0.0
220
0.0
230
1.0
 70
     8
 71
     3
 72
    26
 73
    22
 74
     0
 42
0.0000000001
 43
0.0000000001
 12
1.0
 22
0.0
 32
0.0
 13
1.0
 23
0.0
 33
0.0
 40
0.0
 40
0.0
 40
0.0
 40
0.0
 40
1.0
 40
1.0
 40
1.0
 40
2.0
 40
2.0
 40
2.0
 40
3.0
 40
3.0
 40
3.0
 40
4.0
 40
4.0
 40
4.0
 40
5.0
 40
5.0
 40
5.0
 40
6.0
 40
6.0
 40
6.0
 40
7.0
 40
7.0
 40
7.0
 40
7.0
 10
140.5452651418382
 20
-361.6560374412629
 30
0.0
 10
145.4176769108744
 20
-365.1798963975925
 30
0.0
 10
150.284222999956
 20
-362.5590054697877
 30
0.0
 10
155.6726021209524
 20
-365.2561222785771
 30
0.0
 10
158.2935042321333
 20
-366.5343148902557
 30
0.0
 10
159.3958047287706
 20
-368.5102606073269
 30
0.0
 10
162.3391850370044
 20
-368.8503246608734
 30
0.0
 10
166.9008387855238
 20
-369.3487005646557
 30
0.0
 10
169.71523005161
 20
-367.7538842525037
 30
0.0
 10
173.6260505426917
 20
-365.5023801863335
 30
0.0
 10
176.7629200058327
 20
-363.7199292158566
 30
0.0
 10
178.8092203322458
 20
-368.5806264000439
 30
0.0
 10
180.7910149542131
 20
-371.6471300704688
 30
0.0
 10
182.5910573728688
 20
-374.4849784646904
 30
0.0
 10
186.8830016771853
 20
-374.7898596218765
 30
0.0
 10
189.5097638766329
 20
-372.6790647743901
 30
0.0
 10
193.6140735226218
 20
-369.3487005646557
 30
0.0
 10
193.9424173996304
 20
-362.5590054697877
 30
0.0
 10
199.2545762313312
 20
-363.1980905922528
 30
0.0
 10
207.7856904954251
 20
-364.2124450313704
 30
0.0
 10
213.1037094153944
 20
-370.8966138039123
 30
0.0
 10
220.7846523622502
 20
-367.0444333373234
 30
0.0
  0
POLYLINE
  5
9F
330
41
100
AcDbEntity
  8
Layer 1
 62
   156
420
  1785491
370
    18
100
AcDb2dPolyline
 66
     1
 10
0.0
 20
0.0
 30
0.0
  0
VERTEX
  5
A0
330
9F
100
AcDbEntity
  8
Layer 1
 62
   156
420
  1785491
370
    18
100
AcDbVertex
100
AcDb2dVertex
 10
275.9232070142061
 20
-432.67830542716
 30
0.0
  0
VERTEX
  5
A1
330
9F
100
AcDbEntity
  8
Layer 1
 62
   156
420
  1785491
370
    18
100
AcDbVertex
100
AcDb2dVertex
 10
289.2622217512017
 20
-434.707003122021
 30
0.0
  0
SEQEND
  5
A2
330
9F
100
AcDbEntity
  8
Layer 1
 62
   156
420
  1785491
370
    18
  0
SPLINE
  5
A3
330
41
100
AcDbEntity
  8
Layer 1
 62
   156
420
  1785491
370
    18
100
AcDbSpline
210
0.0
220
0.0
230
1.0
 70
     8
 71
     3
 72
    23
 73
    19
 74
     0
 42
0.0000000001
 43
0.0000000001
 12
1.0
 22
0.0
 32
0.0
 13
1.0
 23
0.0
 33
0.0
 40
0.0
 40
0.0
 40
0.0
 40
0.0
 40
1.0
 40
1.0
 40
1.0
 40
2.0
 40
2.0
 40
2.0
 40
3.0
 40
3.0
 40
3.0
 40
4.0
 40
4.0
 40
4.0
 40
5.0
 40
5.0
 40
5.0
 40
6.0
 40
6.0
 40
6.0
 40
6.0
 10
269.2624785947364
 20
-402.9220073727101
 30
0.0
 10
267.5797162250647
 20
-408.0054997448342
 30
0.0
 10
259.828418668867
 20
-412.6140565662472
 30
0.0
 10
263.8623737055159
 20
-416.0089152970568
 30
0.0
 10
267.8376943093572
 20
-419.3451395950597
 30
0.0
 10
272.141369973584
 20
-416.1965387720065
 30
0.0
 10
277.1955395376172
 20
-414.9887007696707
 30
0.0
 10
277.5766465757888
 20
-420.3008596013706
 30
0.0
 10
273.7303261974685
 20
-422.9862562336239
 30
0.0
 10
274.3752937749505
 20
-428.3160065135035
 30
0.0
 10
275.0202613524316
 20
-433.6457456100088
 30
0.0
 10
279.3239146499081
 20
-437.2868622485748
 30
0.0
 10
284.6536649297877
 20
-437.2868622485748
 30
0.0
 10
290.2179529408886
 20
-437.2868622485748
 30
0.0
 10
291.1150385143956
 20
-431.1362522761719
 30
0.0
 10
295.9170900824029
 20
-428.3160065135035
 30
0.0
 10
300.4083780382061
 20
-425.700964490592
 30
0.0
 10
303.9263545395188
 20
-431.3121555745875
 30
0.0
 10
307.4560735841169
 20
-435.2405731055351
 30
0.0
  0
SPLINE
  5
A4
330
41
100
AcDbEntity
  8
Layer 1
 62
   156
420
  1785491
370
    18
100
AcDbSpline
210
0.0
220
0.0
230
1.0
 70
     8
 71
     3
 72
    11
 73
     7
 74
     0
 42
0.0000000001
 43
0.0000000001
 12
1.0
 22
0.0
 32
0.0
 13
1.0
 23
0.0
 33
0.0
 40
0.0
 40
0.0
 40
0.0
 40
0.0
 40
1.0
 40
1.0
 40
1.0
 40
2.0
 40
2.0
 40
2.0
 40
2.0
 10
256.4335711214344
 20
-387.0558966703247
 30
0.0
 10
256.4335711214344
 20
-387.0558966703247
 30
0.0
 10
278.9955707729005
 20
-401.8959327570574
 30
0.0
 10
278.9955707729005
 20
-401.8959327570574
 30
0.0
 10
272.0182410197067
 20
-404.7982644889771
 30
0.0
 10
266.3718670393537
 20
-400.5590945291997
 30
0.0
 10
259.5118061517696
 20
-403.9656846199186
 30
0.0
  0
SPLINE
  5
A5
330
41
100
AcDbEntity
  8
Layer 1
 62
   156
420
  1785491
370
    18
100
AcDbSpline
210
0.0
220
0.0
230
1.0
 70
     8
 71
     3
 72
    26
 73
    22
 74
     0
 42
0.0000000001
 43
0.0000000001
 12
1.0
 22
0.0
 32
0.0
 13
1.0
 23
0.0
 33
0.0
 40
0.0
 40
0.0
 40
0.0
 40
0.0
 40
1.0
 40
1.0
 40
1.0
 40
2.0
 40
2.0
 40
2.0
 40
3.0
 40
3.0
 40
3.0
 40
4.0
 40
4.0
 40
4.0
 40
5.0
 40
5.0
 40
5.0
 40
6.0
 40
6.0
 40
6.0
 40
7.0
 40
7.0
 40
7.0
 40
7.0
 10
316.4328117742043
 20
-436.0145297251638
 30
0.0
 10
310.6574487517046
 20
-436.0145297251638
 30
0.0
 10
303.6683764552254
 20
-433.1297782580477
 30
0.0
 10
301.8155820587817
 20
-438.5826574918065
 30
0.0
 10
299.8220560769041
 20
-444.3990634989314
 30
0.0
 10
306.6821169644882
 20
-447.301395230852
 30
0.0
 10
306.9459775037976
 20
-453.4461451149873
 30
0.0
 10
307.0691064576768
 20
-457.4214657188295
 30
0.0
 10
308.4880082880372
 20
-460.1713568721552
 30
0.0
 10
306.6821169644882
 20
-463.6952046451097
 30
0.0
 10
304.5713221170008
 20
-467.8698800838138
 30
0.0
 10
299.640281506845
 20
-468.1278693514832
 30
0.0
 10
298.7431959333389
 20
-472.6660715635553
 30
0.0
 10
298.0396051064272
 20
-476.0726504709
 30
0.0
 10
300.1562600421821
 20
-478.0368648280601
 30
0.0
 10
301.8155820587817
 20
-481.1326913065768
 30
0.0
 10
298.2272173980036
 20
-483.6890877133064
 30
0.0
 10
294.3750369314139
 20
-486.7145595824786
 30
0.0
 10
295.9170900824029
 20
-490.8657834847381
 30
0.0
 10
297.0076704025059
 20
-493.8912441705361
 30
0.0
 10
299.4409266719849
 20
-493.8326097377303
 30
0.0
 10
302.3315382273686
 20
-495.2280823983947
 30
0.0
  0
SPLINE
  5
A6
330
41
100
AcDbEntity
  8
Layer 1
 62
   156
420
  1785491
370
    18
100
AcDbSpline
210
0.0
220
0.0
230
1.0
 70
     8
 71
     3
 72
    20
 73
    16
 74
     0
 42
0.0000000001
 43
0.0000000001
 12
1.0
 22
0.0
 32
0.0
 13
1.0
 23
0.0
 33
0.0
 40
0.0
 40
0.0
 40
0.0
 40
0.0
 40
1.0
 40
1.0
 40
1.0
 40
2.0
 40
2.0
 40
2.0
 40
3.0
 40
3.0
 40
3.0
 40
4.0
 40
4.0
 40
4.0
 40
5.0
 40
5.0
 40
5.0
 40
5.0
 10
298.4852178490464
 20
-498.3004573404633
 30
0.0
 10
301.2996035234446
 20
-503.9995944819784
 30
0.0
 10
307.256718749255
 20
-504.9787660247366
 30
0.0
 10
313.6184037330568
 20
-504.1872179569273
 30
0.0
 10
316.4328117742043
 20
-503.8705942564557
 30
0.0
 10
318.4145952127965
 20
-499.6724672813034
 30
0.0
 10
316.6849297702283
 20
-497.5440921690133
 30
0.0
 10
310.7219320894037
 20
-490.4142994704762
 30
0.0
 10
299.3764433342858
 20
-494.3427170014238
 30
0.0
 10
293.0968219529868
 20
-501.1382945513087
 30
0.0
 10
286.4361159002656
 20
-508.2973988745616
 30
0.0
 10
286.049126407077
 20
-515.4154602131875
 30
0.0
 10
285.6621592806378
 20
-525.2247670889592
 30
0.0
 10
285.2751697874492
 20
-535.092719580909
 30
0.0
 10
271.0566497417512
 20
-536.1187941965654
 30
0.0
 10
271.0566497417512
 20
-546.0043381366959
 30
0.0
  0
SPLINE
  5
A7
330
41
100
AcDbEntity
  8
Layer 1
 62
   156
420
  1785491
370
    18
100
AcDbSpline
210
0.0
220
0.0
230
1.0
 70
     8
 71
     3
 72
    14
 73
    10
 74
     0
 42
0.0000000001
 43
0.0000000001
 12
1.0
 22
0.0
 32
0.0
 13
1.0
 23
0.0
 33
0.0
 40
0.0
 40
0.0
 40
0.0
 40
0.0
 40
1.0
 40
1.0
 40
1.0
 40
2.0
 40
2.0
 40
2.0
 40
3.0
 40
3.0
 40
3.0
 40
3.0
 10
249.2510152617342
 20
-554.4592265198044
 30
0.0
 10
253.7247117693596
 20
-552.2018623653657
 30
0.0
 10
257.084398787184
 20
-550.853303960972
 30
0.0
 10
262.0682025585002
 20
-550.853303960972
 30
0.0
 10
265.2812867192506
 20
-550.853303960972
 30
0.0
 10
267.6500596510314
 20
-553.6266466507441
 30
0.0
 10
270.276833033854
 20
-551.8852386648923
 30
0.0
 10
271.8775094342727
 20
-550.853303960972
 30
0.0
 10
269.2624785947364
 20
-548.7425091134846
 30
0.0
 10
267.7145653554799
 20
-547.5229397512376
 30
0.0
  0
SPLINE
  5
A8
330
41
100
AcDbEntity
  8
Layer 1
 62
   156
420
  1785491
370
    18
100
AcDbSpline
210
0.0
220
0.0
230
1.0
 70
     8
 71
     3
 72
    41
 73
    37
 74
     0
 42
0.0000000001
 43
0.0000000001
 12
1.0
 22
0.0
 32
0.0
 13
1.0
 23
0.0
 33
0.0
 40
0.0
 40
0.0
 40
0.0
 40
0.0
 40
1.0
 40
1.0
 40
1.0
 40
2.0
 40
2.0
 40
2.0
 40
3.0
 40
3.0
 40
3.0
 40
4.0
 40
4.0
 40
4.0
 40
5.0
 40
5.0
 40
5.0
 40
6.0
 40
6.0
 40
6.0
 40
7.0
 40
7.0
 40
7.0
 40
8.0
 40
8.0
 40
8.0
 40
9.0
 40
9.0
 40
9.0
 40
10.0
 40
10.0
 40
10.0
 40
11.0
 40
11.0
 40
11.0
 40
12.0
 40
12.0
 40
12.0
 40
12.0
 10
171.5563098632056
 20
-547.780917835531
 30
0.0
 10
179.0027038954659
 20
-547.780917835531
 30
0.0
 10
185.1415936913327
 20
-547.5874342723109
 30
0.0
 10
190.5358384922856
 20
-552.6591952845229
 30
0.0
 10
195.6662339373033
 20
-557.5316126452453
 30
0.0
 10
194.6460194099172
 20
-563.1838243471193
 30
0.0
 10
199.2545762313312
 20
-568.554617611624
 30
0.0
 10
203.6110150567192
 20
-573.6908731449112
 30
0.0
 10
209.7147219562285
 20
-570.0204448816294
 30
0.0
 10
216.4340736251297
 20
-570.8354444858851
 30
0.0
 10
220.4680286617768
 20
-571.3103800365916
 30
0.0
 10
222.7781783441251
 20
-573.3625292679008
 30
0.0
 10
226.6831331552521
 20
-572.4009603566938
 30
0.0
 10
229.1164117914795
 20
-571.8204984836611
 30
0.0
 10
229.0577773586756
 20
-568.0386614430372
 30
0.0
 10
231.5614106042449
 20
-568.0386614430372
 30
0.0
 10
234.3933877268228
 20
-569.1878650125709
 30
0.0
 10
235.9764838624378
 20
-571.1755309061791
 30
0.0
 10
239.0019445482376
 20
-570.6126492979492
 30
0.0
 10
240.93097600904
 20
-570.2139396282237
 30
0.0
 10
240.7257610859097
 20
-567.8451666964447
 30
0.0
 10
242.0743194903043
 20
-566.5141885568519
 30
0.0
 10
245.9265111402683
 20
-562.6678681785324
 30
0.0
 10
246.7004677598961
 20
-559.1909122950965
 30
0.0
 10
249.2568753500027
 20
-554.4592265198044
 30
0.0
 10
253.677808696465
 20
-546.1861015233771
 30
0.0
 10
262.3261918261687
 20
-544.2043069014126
 30
0.0
 10
271.566768188819
 20
-546.4968539522088
 30
0.0
 10
275.9232070142061
 20
-548.2968963708645
 30
0.0
 10
279.1304199033139
 20
-548.5548744551597
 30
0.0
 10
282.8419135179702
 20
-551.3692601295588
 30
0.0
 10
284.5012131678204
 20
-552.6591952845229
 30
0.0
 10
283.9383539263399
 20
-556.5055156628441
 30
0.0
 10
281.8158165355671
 20
-556.7635161138878
 30
0.0
 10
275.3427227744232
 20
-557.5316126452453
 30
0.0
 10
267.1927267318761
 20
-558.3466122494992
 30
0.0
 10
266.17251220449
 20
-551.8793785766266
 30
0.0
  0
SPLINE
  5
A9
330
41
100
AcDbEntity
  8
Layer 1
 62
   156
420
  1785491
370
    18
100
AcDbSpline
210
0.0
220
0.0
230
1.0
 70
     8
 71
     3
 72
     8
 73
     4
 74
     0
 42
0.0000000001
 43
0.0000000001
 12
1.0
 22
0.0
 32
0.0
 13
1.0
 23
0.0
 33
0.0
 40
0.0
 40
0.0
 40
0.0
 40
0.0
 40
1.0
 40
1.0
 40
1.0
 40
1.0
 10
121.3136129250461
 20
-514.8349871567771
 30
0.0
 10
120.0471376940604
 20
-516.3066745150518
 30
0.0
 10
120.1585408797137
 20
-518.223974615943
 30
0.0
 10
120.2816698335928
 20
-520.2233718694642
 30
0.0
  0
SPLINE
  5
AA
330
41
100
AcDbEntity
  8
Layer 1
 62
   156
420
  1785491
370
    18
100
AcDbSpline
210
0.0
220
0.0
230
1.0
 70
     8
 71
     3
 72
    14
 73
    10
 74
     0
 42
0.0000000001
 43
0.0000000001
 12
1.0
 22
0.0
 32
0.0
 13
1.0
 23
0.0
 33
0.0
 40
0.0
 40
0.0
 40
0.0
 40
0.0
 40
1.0
 40
1.0
 40
1.0
 40
2.0
 40
2.0
 40
2.0
 40
3.0
 40
3.0
 40
3.0
 40
3.0
 10
147.2177081461559
 20
-554.7172046040996
 30
0.0
 10
142.2045815667489
 20
-555.532226575102
 30
0.0
 10
134.6643646136381
 20
-556.8866450677651
 30
0.0
 10
134.6643646136381
 20
-551.8793785766266
 30
0.0
 10
139.1322066246821
 20
-551.5627548761531
 30
0.0
 10
141.5654796692215
 20
-553.5562808580289
 30
0.0
 10
145.927784174567
 20
-554.4592265198044
 30
0.0
 10
156.1709836164227
 20
-556.5641612790241
 30
0.0
 10
167.0826021722069
 20
-557.01563410991
 30
0.0
 10
171.8201592191417
 20
-547.5229397512376
 30
0.0
  0
SPLINE
  5
AB
330
41
100
AcDbEntity
  8
Layer 1
 62
   156
420
  1785491
370
    18
100
AcDbSpline
210
0.0
220
0.0
230
1.0
 70
     8
 71
     3
 72
    23
 73
    19
 74
     0
 42
0.0000000001
 43
0.0000000001
 12
1.0
 22
0.0
 32
0.0
 13
1.0
 23
0.0
 33
0.0
 40
0.0
 40
0.0
 40
0.0
 40
0.0
 40
1.0
 40
1.0
 40
1.0
 40
2.0
 40
2.0
 40
2.0
 40
3.0
 40
3.0
 40
3.0
 40
4.0
 40
4.0
 40
4.0
 40
5.0
 40
5.0
 40
5.0
 40
6.0
 40
6.0
 40
6.0
 40
6.0
 10
122.8439375119679
 20
-517.5321039655664
 30
0.0
 10
122.4628220862651
 20
-519.3262862959564
 30
0.0
 10
121.8999432738792
 20
-521.1908120523112
 30
0.0
 10
120.0471376940604
 20
-521.3843067989055
 30
0.0
 10
119.5194417780313
 20
-516.2597714421554
 30
0.0
 10
129.0062704567499
 20
-516.6526098402392
 30
0.0
 10
133.1164513743825
 20
-519.5959957401592
 30
0.0
 10
137.7367395557067
 20
-522.9146285899842
 30
0.0
 10
136.1126060271517
 20
-529.3994425276633
 30
0.0
 10
133.3744406420492
 20
-534.4536232750725
 30
0.0
 10
135.6728533728001
 20
-535.0164936999263
 30
0.0
 10
136.7634281012142
 20
-534.2777199766551
 30
0.0
 10
139.0032119908492
 20
-534.9695906270317
 30
0.0
 10
144.5733600902167
 20
-535.4210634579194
 30
0.0
 10
148.6190408950879
 20
-539.4139755099422
 30
0.0
 10
149.2698685608384
 20
-544.9606720728625
 30
0.0
 10
149.8386102573368
 20
-549.5985517023655
 30
0.0
 10
141.8176032569354
 20
-551.8852386648923
 30
0.0
 10
137.2207666120576
 20
-551.8852386648923
 30
0.0
  0
SPLINE
  5
AC
330
41
100
AcDbEntity
  8
Layer 1
 62
   156
420
  1785491
370
    18
100
AcDbSpline
210
0.0
220
0.0
230
1.0
 70
     8
 71
     3
 72
    11
 73
     7
 74
     0
 42
0.0000000001
 43
0.0000000001
 12
1.0
 22
0.0
 32
0.0
 13
1.0
 23
0.0
 33
0.0
 40
0.0
 40
0.0
 40
0.0
 40
0.0
 40
1.0
 40
1.0
 40
1.0
 40
2.0
 40
2.0
 40
2.0
 40
2.0
 10
85.92854352179711
 20
-480.1007454192786
 30
0.0
 10
95.67336426402653
 20
-481.7072930913419
 30
0.0
 10
100.4226442833406
 20
-489.5875796896853
 30
0.0
 10
102.3399443842336
 20
-499.074413960092
 30
0.0
 10
104.2689730491938
 20
-508.4850223495123
 30
0.0
 10
116.4353410677413
 20
-506.5618621603517
 30
0.0
 10
121.3136129250461
 20
-514.9757075588368
 30
0.0
  0
SPLINE
  5
AD
330
41
100
AcDbEntity
  8
Layer 1
 62
   156
420
  1785491
370
    18
100
AcDbSpline
210
0.0
220
0.0
230
1.0
 70
     8
 71
     3
 72
    26
 73
    22
 74
     0
 42
0.0000000001
 43
0.0000000001
 12
1.0
 22
0.0
 32
0.0
 13
1.0
 23
0.0
 33
0.0
 40
0.0
 40
0.0
 40
0.0
 40
0.0
 40
1.0
 40
1.0
 40
1.0
 40
2.0
 40
2.0
 40
2.0
 40
3.0
 40
3.0
 40
3.0
 40
4.0
 40
4.0
 40
4.0
 40
5.0
 40
5.0
 40
5.0
 40
6.0
 40
6.0
 40
6.0
 40
7.0
 40
7.0
 40
7.0
 40
7.0
 10
87.21847308507313
 20
-419.0812902391244
 30
0.0
 10
89.38789677367822
 20
-417.49233401524
 30
0.0
 10
91.11757339961787
 20
-416.5248826490169
 30
0.0
 10
93.88505320528111
 20
-416.5248826490169
 30
0.0
 10
96.57631272164508
 20
-416.5248826490169
 30
0.0
 10
97.97764267473303
 20
-419.4624084606694
 30
0.0
 10
97.97764267473303
 20
-422.1653853577263
 30
0.0
 10
97.97764267473303
 20
-427.2430176415819
 30
0.0
 10
92.7358440440612
 20
-428.3687696746656
 30
0.0
 10
88.7487948761518
 20
-431.3942415438396
 30
0.0
 10
85.412570578148
 20
-433.9682293987498
 30
0.0
 10
84.90832899441102
 20
-437.1520131181587
 30
0.0
 10
84.39235605076283
 20
-441.4087745261168
 30
0.0
 10
83.29591564239308
 20
-450.1275122651623
 30
0.0
 10
78.50559543429608
 20
-454.2025102864372
 30
0.0
 10
78.50559543429608
 20
-462.921248025481
 30
0.0
 10
78.50559543429608
 20
-468.7669656573216
 30
0.0
 10
77.01631103615637
 20
-477.2863597448795
 30
0.0
 10
82.84444281150536
 20
-477.2863597448795
 30
0.0
 10
83.87638310711554
 20
-477.2863597448795
 30
0.0
 10
86.63213994039597
 20
-475.2341993301961
 30
0.0
 10
87.21847308507313
 20
-474.4602427105692
 30
0.0
  0
SPLINE
  5
AE
330
41
100
AcDbEntity
  8
Layer 1
 62
   156
420
  1785491
370
    18
100
AcDbSpline
210
0.0
220
0.0
230
1.0
 70
     8
 71
     3
 72
     8
 73
     4
 74
     0
 42
0.0000000001
 43
0.0000000001
 12
1.0
 22
0.0
 32
0.0
 13
1.0
 23
0.0
 33
0.0
 40
0.0
 40
0.0
 40
0.0
 40
0.0
 40
1.0
 40
1.0
 40
1.0
 40
1.0
 10
89.78660085171578
 20
-410.1045632324103
 30
0.0
 10
89.20026770703953
 20
-412.4264330912956
 30
0.0
 10
89.96249855844417
 20
-414.466862146066
 30
0.0
 10
90.54296602316572
 20
-416.7828719166846
 30
0.0
  0
SPLINE
  5
AF
330
41
100
AcDbEntity
  8
Layer 1
 62
   156
420
  1785491
370
    18
100
AcDbSpline
210
0.0
220
0.0
230
1.0
 70
     8
 71
     3
 72
    11
 73
     7
 74
     0
 42
0.0000000001
 43
0.0000000001
 12
1.0
 22
0.0
 32
0.0
 13
1.0
 23
0.0
 33
0.0
 40
0.0
 40
0.0
 40
0.0
 40
0.0
 40
1.0
 40
1.0
 40
1.0
 40
2.0
 40
2.0
 40
2.0
 40
2.0
 10
88.49667128843885
 20
-418.3073336194939
 30
0.0
 10
89.01264423208704
 20
-421.4676546190822
 30
0.0
 10
94.14303967710475
 20
-418.6298174082358
 30
0.0
 10
96.19519729594231
 20
-420.8813214744059
 30
0.0
 10
97.2154146191715
 20
-422.030536227312
 30
0.0
 10
95.93721082411867
 20
-424.411040519004
 30
0.0
 10
96.19519729594231
 20
-426.023448279333
 30
0.0
  0
SPLINE
  5
B0
330
41
100
AcDbEntity
  8
Layer 1
 62
   156
420
  1785491
370
    18
100
AcDbSpline
210
0.0
220
0.0
230
1.0
 70
     8
 71
     3
 72
     8
 73
     4
 74
     0
 42
0.0000000001
 43
0.0000000001
 12
1.0
 22
0.0
 32
0.0
 13
1.0
 23
0.0
 33
0.0
 40
0.0
 40
0.0
 40
0.0
 40
0.0
 40
1.0
 40
1.0
 40
1.0
 40
1.0
 10
127.2003735415119
 20
-383.467554376296
 30
0.0
 10
125.4882883637501
 20
-387.7653587688801
 30
0.0
 10
121.5012391958417
 20
-390.6970133088889
 30
0.0
 10
116.945448331433
 20
-389.6123042604313
 30
0.0
  0
SPLINE
  5
B1
330
41
100
AcDbEntity
  8
Layer 1
 62
   156
420
  1785491
370
    18
100
AcDbSpline
210
0.0
220
0.0
230
1.0
 70
     8
 71
     3
 72
     8
 73
     4
 74
     0
 42
0.0000000001
 43
0.0000000001
 12
1.0
 22
0.0
 32
0.0
 13
1.0
 23
0.0
 33
0.0
 40
0.0
 40
0.0
 40
0.0
 40
0.0
 40
1.0
 40
1.0
 40
1.0
 40
1.0
 10
94.14303967710475
 20
-397.0528382044231
 30
0.0
 10
94.14303967710475
 20
-399.2281275729829
 30
0.0
 10
94.7293700259379
 20
-401.8900726687889
 30
0.0
 10
96.7111702395905
 20
-402.6640292884185
 30
0.0
  0
SPLINE
  5
B2
330
41
100
AcDbEntity
  8
Layer 1
 62
   156
420
  1785491
370
    18
100
AcDbSpline
210
0.0
220
0.0
230
1.0
 70
     8
 71
     3
 72
    29
 73
    25
 74
     0
 42
0.0000000001
 43
0.0000000001
 12
1.0
 22
0.0
 32
0.0
 13
1.0
 23
0.0
 33
0.0
 40
0.0
 40
0.0
 40
0.0
 40
0.0
 40
1.0
 40
1.0
 40
1.0
 40
2.0
 40
2.0
 40
2.0
 40
3.0
 40
3.0
 40
3.0
 40
4.0
 40
4.0
 40
4.0
 40
5.0
 40
5.0
 40
5.0
 40
6.0
 40
6.0
 40
6.0
 40
7.0
 40
7.0
 40
7.0
 40
8.0
 40
8.0
 40
8.0
 40
8.0
 10
126.9423898655314
 20
-378.3312988430107
 30
0.0
 10
126.625771756746
 20
-382.7405008295609
 30
0.0
 10
129.2701198126852
 20
-385.7718327870034
 30
0.0
 10
127.2003735415119
 20
-389.6123042604313
 30
0.0
 10
125.546922796555
 20
-392.6846680191229
 30
0.0
 10
121.3722473578509
 20
-391.6527333152017
 30
0.0
 10
118.2353750988659
 20
-390.1106801642127
 30
0.0
 10
112.0202678095466
 20
-387.0558966703247
 30
0.0
 10
103.876131855267
 20
-388.2578745843939
 30
0.0
 10
100.8037597090433
 20
-394.4847104377814
 30
0.0
 10
98.88059392819468
 20
-398.3662248958344
 30
0.0
 10
98.16526894552771
 20
-400.9578041989244
 30
0.0
 10
95.93721082411867
 20
-404.7396412395474
 30
0.0
 10
94.14303967710475
 20
-407.6830159560932
 30
0.0
 10
91.11757339961787
 20
-411.2772295217637
 30
0.0
 10
88.2386876124583
 20
-409.3423379726928
 30
0.0
 10
85.60019964478761
 20
-407.6185214350189
 30
0.0
 10
85.92854352179711
 20
-403.3089856825254
 30
0.0
 10
88.2386876124583
 20
-401.1512877621444
 30
0.0
 10
91.83289558644356
 20
-397.7388487665312
 30
0.0
 10
96.7111702395905
 20
-396.6013653735354
 30
0.0
 10
96.7111702395905
 20
-391.6527333152017
 30
0.0
 10
93.44530614261748
 20
-391.3361096147282
 30
0.0
 10
91.5749119104612
 20
-395.176581088157
 30
0.0
 10
92.34886573424592
 20
-398.3369020877444
 30
0.0
  0
SPLINE
  5
B3
330
41
100
AcDbEntity
  8
Layer 1
 62
   156
420
  1785491
370
    18
100
AcDbSpline
210
0.0
220
0.0
230
1.0
 70
     8
 71
     3
 72
    20
 73
    16
 74
     0
 42
0.0000000001
 43
0.0000000001
 12
1.0
 22
0.0
 32
0.0
 13
1.0
 23
0.0
 33
0.0
 40
0.0
 40
0.0
 40
0.0
 40
0.0
 40
1.0
 40
1.0
 40
1.0
 40
2.0
 40
2.0
 40
2.0
 40
3.0
 40
3.0
 40
3.0
 40
4.0
 40
4.0
 40
4.0
 40
5.0
 40
5.0
 40
5.0
 40
5.0
 10
138.504836087066
 20
-361.6560374412629
 30
0.0
 10
135.227246221868
 20
-359.7446197953877
 30
0.0
 10
133.6324243180297
 20
-356.9771371938823
 30
0.0
 10
133.6324243180297
 20
-353.2070203297963
 30
0.0
 10
133.6324243180297
 20
-351.207634259652
 30
0.0
 10
134.4591496905086
 20
-348.8447214161406
 30
0.0
 10
136.4468099924297
 20
-348.8447214161406
 30
0.0
 10
139.9061632443118
 20
-348.8447214161406
 30
0.0
 10
143.1192585884364
 20
-351.2721175973502
 30
0.0
 10
143.1192585884364
 20
-354.7314708492322
 30
0.0
 10
143.1192585884364
 20
-365.4320143936166
 30
0.0
 10
126.9482499537999
 20
-366.2880569824983
 30
0.0
 10
126.9482499537999
 20
-376.9768803503484
 30
0.0
 10
126.9482499537999
 20
-377.4400733577722
 30
0.0
 10
126.8251209999207
 20
-377.862223380569
 30
0.0
 10
126.8251209999207
 20
-378.3312988430107
 30
0.0
  0
ENDBLK
  5
44
330
41
100
AcDbEntity
  8
0
100
AcDbBlockEnd
  0
ENDSEC
  0
SECTION
  2
ENTITIES
  0
INSERT
  5
42
330
1F
100
AcDbEntity
  8
Layer 1
100
AcDbBlockReference
  2
block 2
 10
0.0
 20
0.0
 30
0.0
  0
ENDSEC
  0
SECTION
  2
OBJECTS
  0
DICTIONARY
  5
C
330
0
100
AcDbDictionary
281
     1
  3
ACAD_GROUP
350
D
  3
ACAD_LAYOUT
350
1A
  3
ACAD_MATERIAL
350
3B
  3
ACAD_MLEADERSTYLE
350
B5
  3
ACAD_MLINESTYLE
350
17
  3
ACAD_PLOTSETTINGS
350
19
  3
ACAD_PLOTSTYLENAME
350
E
  3
ACAD_TABLESTYLE
350
B4
  3
ACAD_VISUALSTYLE
350
2A
  0
SUN
  5
3F
330
29
100
AcDbSun
 90
        1
290
     0
 63
     7
421
 16777215
 40
1.0
291
     1
 91
  2455826
 92
 54000000
292
     0
 70
     2
 71
   256
280
     1
  0
DICTIONARY
  5
D
102
{ACAD_REACTORS
330
C
102
}
330
C
100
AcDbDictionary
281
     1
  0
DICTIONARY
  5
1A
102
{ACAD_REACTORS
330
C
102
}
330
C
100
AcDbDictionary
281
     1
  3
Layout1
350
1E
  3
Layout2
350
26
  3
Model
350
22
  0
DICTIONARY
  5
3B
102
{ACAD_REACTORS
330
C
102
}
330
C
100
AcDbDictionary
281
     1
  3
ByBlock
350
3D
  3
ByLayer
350
3C
  3
Global
350
3E
  0
DICTIONARY
  5
B5
102
{ACAD_REACTORS
330
C
102
}
330
C
100
AcDbDictionary
281
     1
  0
DICTIONARY
  5
17
102
{ACAD_REACTORS
330
C
102
}
330
C
100
AcDbDictionary
281
     1
  3
Standard
350
18
  0
DICTIONARY
  5
19
102
{ACAD_REACTORS
330
C
102
}
330
C
100
AcDbDictionary
281
     1
  0
ACDBDICTIONARYWDFLT
  5
E
102
{ACAD_REACTORS
330
C
102
}
330
C
100
AcDbDictionary
281
     1
  3
Normal
350
F
100
AcDbDictionaryWithDefault
340
F
  0
DICTIONARY
  5
B4
102
{ACAD_REACTORS
330
C
102
}
330
C
100
AcDbDictionary
281
     1
  0
DICTIONARY
  5
2A
102
{ACAD_REACTORS
330
C
102
}
330
C
100
AcDbDictionary
281
     1
  3
2dWireframe
350
2F
  3
3D Hidden
350
31
  3
3dWireframe
350
30
  3
Basic
350
32
  3
Brighten
350
36
  3
ColorChange
350
3A
  3
Conceptual
350
34
  3
Dim
350
35
  3
Facepattern
350
39
  3
Flat
350
2B
  3
FlatWithEdges
350
2C
  3
Gouraud
350
2D
  3
GouraudWithEdges
350
2E
  3
Linepattern
350
38
  3
Realistic
350
33
  3
Thicken
350
37
  0
LAYOUT
  5
1E
102
{ACAD_REACTORS
330
1A
102
}
330
1A
100
AcDbPlotSettings
  1

  2
none_device
  4

  6

 40
0.0
 41
0.0
 42
0.0
 43
0.0
 44
0.0
 45
0.0
 46
0.0
 47
0.0
 48
0.0
 49
0.0
140
0.0
141
0.0
142
1.0
143
1.0
 70
   688
 72
     0
 73
     0
 74
     5
  7

 75
    16
 76
     0
 77
     2
 78
   300
147
1.0
148
0.0
149
0.0
100
AcDbLayout
  1
Layout1
 70
     1
 71
     1
 10
0.0
 20
0.0
 11
12.0
 21
9.0
 12
0.0
 22
0.0
 32
0.0
 14
1.000000000000000E+20
 24
1.000000000000000E+20
 34
1.000000000000000E+20
 15
-1.000000000000000E+20
 25
-1.000000000000000E+20
 35
-1.000000000000000E+20
146
0.0
 13
0.0
 23
0.0
 33
0.0
 16
1.0
 26
0.0
 36
0.0
 17
0.0
 27
1.0
 37
0.0
 76
     0
330
1B
  0
LAYOUT
  5
26
102
{ACAD_REACTORS
330
1A
102
}
330
1A
100
AcDbPlotSettings
  1

  2
none_device
  4

  6

 40
0.0
 41
0.0
 42
0.0
 43
0.0
 44
0.0
 45
0.0
 46
0.0
 47
0.0
 48
0.0
 49
0.0
140
0.0
141
0.0
142
1.0
143
1.0
 70
   688
 72
     0
 73
     0
 74
     5
  7

 75
    16
 76
     0
 77
     2
 78
   300
147
1.0
148
0.0
149
0.0
100
AcDbLayout
  1
Layout2
 70
     1
 71
     2
 10
0.0
 20
0.0
 11
0.0
 21
0.0
 12
0.0
 22
0.0
 32
0.0
 14
0.0
 24
0.0
 34
0.0
 15
0.0
 25
0.0
 35
0.0
146
0.0
 13
0.0
 23
0.0
 33
0.0
 16
1.0
 26
0.0
 36
0.0
 17
0.0
 27
1.0
 37
0.0
 76
     0
330
23
  0
LAYOUT
  5
22
102
{ACAD_REACTORS
330
1A
102
}
330
1A
100
AcDbPlotSettings
  1

  2
none_device
  4

  6

 40
0.0
 41
0.0
 42
0.0
 43
0.0
 44
0.0
 45
0.0
 46
0.0
 47
0.0
 48
0.0
 49
0.0
140
0.0
141
0.0
142
1.0
143
1.0
 70
  1712
 72
     0
 73
     0
 74
     0
  7

 75
     0
 76
     0
 77
     2
 78
   300
147
1.0
148
0.0
149
0.0
100
AcDbLayout
  1
Model
 70
     1
 71
     0
 10
0.0
 20
0.0
 11
12.0
 21
9.0
 12
0.0
 22
0.0
 32
0.0
 14
1.000000000000000E+20
 24
1.000000000000000E+20
 34
1.000000000000000E+20
 15
-1.000000000000000E+20
 25
-1.000000000000000E+20
 35
-1.000000000000000E+20
146
0.0
 13
0.0
 23
0.0
 33
0.0
 16
1.0
 26
0.0
 36
0.0
 17
0.0
 27
1.0
 37
0.0
 76
     0
330
1F
331
29
  0
MATERIAL
  5
3D
102
{ACAD_REACTORS
330
3B
102
}
330
3B
100
AcDbMaterial
  1
ByBlock
 72
     1
 94
      127
  0
MATERIAL
  5
3C
102
{ACAD_REACTORS
330
3B
102
}
330
3B
100
AcDbMaterial
  1
ByLayer
 72
     1
 94
      127
  0
MATERIAL
  5
3E
102
{ACAD_REACTORS
330
3B
102
}
330
3B
100
AcDbMaterial
  1
Global
 72
     1
 94
      127
  0
MLINESTYLE
  5
18
102
{ACAD_REACTORS
330
17
102
}
330
17
100
AcDbMlineStyle
  2
Standard
 70
     0
  3

 62
   256
 51
90.0
 52
90.0
 71
     2
 49
0.5
 62
   256
  6
BYLAYER
 49
-0.5
 62
   256
  6
BYLAYER
  0
ACDBPLACEHOLDER
  5
F
102
{ACAD_REACTORS
330
E
102
}
330
E
  0
VISUALSTYLE
  5
2F
102
{ACAD_REACTORS
330
2A
102
}
330
2A
100
AcDbVisualStyle
  2
2dWireframe
 70
     4
177
     2
291
     0
 71
     0
176
     1
 72
     2
176
     1
 73
     0
176
     1
 90
        0
176
     1
 40
-0.6
176
     1
 41
-30.0
176
     1
 62
     5
 63
     7
421
 16777215
176
     1
 74
     1
176
     1
 91
        4
176
     1
 64
     7
176
     1
 65
   257
176
     1
 75
     1
176
     1
175
     1
176
     1
 42
1.0
176
     1
 92
        0
176
     1
 66
   257
176
     1
 43
1.0
176
     1
 76
     1
176
     1
 77
     6
176
     1
 78
     2
176
     1
 67
     7
176
     1
 79
     5
176
     1
170
     0
176
     1
171
     0
176
     1
290
     0
176
     1
 93
        1
176
     1
 44
0.0
176
     1
173
     0
176
     1
  0
VISUALSTYLE
  5
31
102
{ACAD_REACTORS
330
2A
102
}
330
2A
100
AcDbVisualStyle
  2
3D Hidden
 70
     6
177
     2
291
     0
 71
     1
176
     1
 72
     2
176
     1
 73
     2
176
     1
 90
        0
176
     1
 40
-0.6
176
     1
 41
-30.0
176
     1
 62
     5
 63
     7
421
 16777215
176
     1
 74
     2
176
     1
 91
        2
176
     1
 64
     7
176
     1
 65
   257
176
     1
 75
     2
176
     1
175
     1
176
     1
 42
40.0
176
     1
 92
        0
176
     1
 66
   257
176
     1
 43
1.0
176
     1
 76
     1
176
     1
 77
     6
176
     1
 78
     2
176
     1
 67
     7
176
     1
 79
     3
176
     1
170
     0
176
     1
171
     0
176
     1
290
     0
176
     1
 93
        1
176
     1
 44
0.0
176
     1
173
     0
176
     1
  0
VISUALSTYLE
  5
30
102
{ACAD_REACTORS
330
2A
102
}
330
2A
100
AcDbVisualStyle
  2
3dWireframe
 70
     5
177
     2
291
     0
 71
     0
176
     1
 72
     2
176
     1
 73
     0
176
     1
 90
        0
176
     1
 40
-0.6
176
     1
 41
-30.0
176
     1
 62
     5
 63
     7
421
 16777215
176
     1
 74
     1
176
     1
 91
        4
176
     1
 64
     7
176
     1
 65
   257
176
     1
 75
     1
176
     1
175
     1
176
     1
 42
1.0
176
     1
 92
        0
176
     1
 66
   257
176
     1
 43
1.0
176
     1
 76
     1
176
     1
 77
     6
176
     1
 78
     2
176
     1
 67
     7
176
     1
 79
     5
176
     1
170
     0
176
     1
171
     0
176
     1
290
     0
176
     1
 93
        1
176
     1
 44
0.0
176
     1
173
     0
176
     1
  0
VISUALSTYLE
  5
32
102
{ACAD_REACTORS
330
2A
102
}
330
2A
100
AcDbVisualStyle
  2
Basic
 70
     7
177
     2
291
     1
 71
     1
176
     1
 72
     0
176
     1
 73
     1
176
     1
 90
        0
176
     1
 40
-0.6
176
     1
 41
-30.0
176
     1
 62
     5
 63
     7
421
 16777215
176
     1
 74
     0
176
     1
 91
        4
176
     1
 64
     7
176
     1
 65
   257
176
     1
 75
     1
176
     1
175
     1
176
     1
 42
1.0
176
     1
 92
        8
176
     1
 66
     7
176
     1
 43
1.0
176
     1
 76
     1
176
     1
 77
     6
176
     1
 78
     2
176
     1
 67
     7
176
     1
 79
     5
176
     1
170
     0
176
     1
171
     0
176
     1
290
     0
176
     1
 93
        1
176
     1
 44
0.0
176
     1
173
     0
176
     1
  0
VISUALSTYLE
  5
36
102
{ACAD_REACTORS
330
2A
102
}
330
2A
100
AcDbVisualStyle
  2
Brighten
 70
    12
177
     2
291
     1
 71
     2
176
     1
 72
     2
176
     1
 73
     0
176
     1
 90
        0
176
     1
 40
-0.6
176
     1
 41
-30.0
176
     1
 62
     5
 63
     7
421
 16777215
176
     1
 74
     1
176
     1
 91
        4
176
     1
 64
     7
176
     1
 65
   257
176
     1
 75
     1
176
     1
175
     1
176
     1
 42
1.0
176
     1
 92
        8
176
     1
 66
     7
176
     1
 43
1.0
176
     1
 76
     1
176
     1
 77
     6
176
     1
 78
     2
176
     1
 67
     7
176
     1
 79
     5
176
     1
170
     0
176
     1
171
     0
176
     1
290
     0
176
     1
 93
        1
176
     1
 44
50.0
176
     1
173
     0
176
     1
  0
VISUALSTYLE
  5
3A
102
{ACAD_REACTORS
330
2A
102
}
330
2A
100
AcDbVisualStyle
  2
ColorChange
 70
    16
177
     2
291
     1
 71
     2
176
     1
 72
     2
176
     1
 73
     3
176
     1
 90
        0
176
     1
 40
-0.6
176
     1
 41
-30.0
176
     1
 62
     5
 63
     8
421
  8421504
176
     1
 74
     1
176
     1
 91
        4
176
     1
 64
     7
176
     1
 65
   257
176
     1
 75
     1
176
     1
175
     1
176
     1
 42
1.0
176
     1
 92
        8
176
     1
 66
     8
424
  8421504
176
     1
 43
1.0
176
     1
 76
     1
176
     1
 77
     6
176
     1
 78
     2
176
     1
 67
     7
176
     1
 79
     5
176
     1
170
     0
176
     1
171
     0
176
     1
290
     0
176
     1
 93
        1
176
     1
 44
0.0
176
     1
173
     0
176
     1
  0
VISUALSTYLE
  5
34
102
{ACAD_REACTORS
330
2A
102
}
330
2A
100
AcDbVisualStyle
  2
Conceptual
 70
     9
177
     2
291
     0
 71
     3
176
     1
 72
     2
176
     1
 73
     0
176
     1
 90
        0
176
     1
 40
-0.6
176
     1
 41
-30.0
176
     1
 62
     5
 63
     7
421
 16777215
176
     1
 74
     2
176
     1
 91
        2
176
     1
 64
     7
176
     1
 65
   257
176
     1
 75
     1
176
     1
175
     1
176
     1
 42
40.0
176
     1
 92
        8
176
     1
 66
     7
176
     1
 43
1.0
176
     1
 76
     1
176
     1
 77
     6
176
     1
 78
     2
176
     1
 67
     7
176
     1
 79
     3
176
     1
170
     0
176
     1
171
     0
176
     1
290
     0
176
     1
 93
        1
176
     1
 44
0.0
176
     1
173
     0
176
     1
  0
VISUALSTYLE
  5
35
102
{ACAD_REACTORS
330
2A
102
}
330
2A
100
AcDbVisualStyle
  2
Dim
 70
    11
177
     2
291
     1
 71
     2
176
     1
 72
     2
176
     1
 73
     0
176
     1
 90
        0
176
     1
 40
-0.6
176
     1
 41
-30.0
176
     1
 62
     5
 63
     7
421
 16777215
176
     1
 74
     1
176
     1
 91
        4
176
     1
 64
     7
176
     1
 65
   257
176
     1
 75
     1
176
     1
175
     1
176
     1
 42
1.0
176
     1
 92
        8
176
     1
 66
     7
176
     1
 43
1.0
176
     1
 76
     1
176
     1
 77
     6
176
     1
 78
     2
176
     1
 67
     7
176
     1
 79
     5
176
     1
170
     0
176
     1
171
     0
176
     1
290
     0
176
     1
 93
        1
176
     1
 44
-50.0
176
     1
173
     0
176
     1
  0
VISUALSTYLE
  5
39
102
{ACAD_REACTORS
330
2A
102
}
330
2A
100
AcDbVisualStyle
  2
Facepattern
 70
    15
177
     2
291
     1
 71
     2
176
     1
 72
     2
176
     1
 73
     0
176
     1
 90
        0
176
     1
 40
-0.6
176
     1
 41
-30.0
176
     1
 62
     5
 63
     7
421
 16777215
176
     1
 74
     1
176
     1
 91
        4
176
     1
 64
     7
176
     1
 65
   257
176
     1
 75
     1
176
     1
175
     1
176
     1
 42
1.0
176
     1
 92
        8
176
     1
 66
     7
176
     1
 43
1.0
176
     1
 76
     1
176
     1
 77
     6
176
     1
 78
     2
176
     1
 67
     7
176
     1
 79
     5
176
     1
170
     0
176
     1
171
     0
176
     1
290
     0
176
     1
 93
        1
176
     1
 44
0.0
176
     1
173
     0
176
     1
  0
VISUALSTYLE
  5
2B
102
{ACAD_REACTORS
330
2A
102
}
330
2A
100
AcDbVisualStyle
  2
Flat
 70
     0
177
     2
291
     1
 71
     2
176
     1
 72
     1
176
     1
 73
     1
176
     1
 90
        2
176
     1
 40
-0.6
176
     1
 41
30.0
176
     1
 62
     5
 63
     7
421
 16777215
176
     1
 74
     0
176
     1
 91
        4
176
     1
 64
     7
176
     1
 65
   257
176
     1
 75
     1
176
     1
175
     1
176
     1
 42
1.0
176
     1
 92
        8
176
     1
 66
     7
176
     1
 43
1.0
176
     1
 76
     1
176
     1
 77
     6
176
     1
 78
     2
176
     1
 67
     7
176
     1
 79
     5
176
     1
170
     0
176
     1
171
     0
176
     1
290
     0
176
     1
 93
       13
176
     1
 44
0.0
176
     1
173
     0
176
     1
  0
VISUALSTYLE
  5
2C
102
{ACAD_REACTORS
330
2A
102
}
330
2A
100
AcDbVisualStyle
  2
FlatWithEdges
 70
     1
177
     2
291
     1
 71
     2
176
     1
 72
     1
176
     1
 73
     1
176
     1
 90
        2
176
     1
 40
-0.6
176
     1
 41
30.0
176
     1
 62
     5
 63
     7
421
 16777215
176
     1
 74
     1
176
     1
 91
        4
176
     1
 64
     7
176
     1
 65
   257
176
     1
 75
     1
176
     1
175
     1
176
     1
 42
1.0
176
     1
 92
        0
176
     1
 66
   257
176
     1
 43
1.0
176
     1
 76
     1
176
     1
 77
     6
176
     1
 78
     2
176
     1
 67
     7
176
     1
 79
     5
176
     1
170
     0
176
     1
171
     0
176
     1
290
     0
176
     1
 93
       13
176
     1
 44
0.0
176
     1
173
     0
176
     1
  0
VISUALSTYLE
  5
2D
102
{ACAD_REACTORS
330
2A
102
}
330
2A
100
AcDbVisualStyle
  2
Gouraud
 70
     2
177
     2
291
     1
 71
     2
176
     1
 72
     2
176
     1
 73
     1
176
     1
 90
        2
176
     1
 40
-0.6
176
     1
 41
30.0
176
     1
 62
     5
 63
     7
421
 16777215
176
     1
 74
     0
176
     1
 91
        4
176
     1
 64
     7
176
     1
 65
   257
176
     1
 75
     1
176
     1
175
     1
176
     1
 42
1.0
176
     1
 92
        0
176
     1
 66
     7
176
     1
 43
1.0
176
     1
 76
     1
176
     1
 77
     6
176
     1
 78
     2
176
     1
 67
     7
176
     1
 79
     5
176
     1
170
     0
176
     1
171
     0
176
     1
290
     0
176
     1
 93
       13
176
     1
 44
0.0
176
     1
173
     0
176
     1
  0
VISUALSTYLE
  5
2E
102
{ACAD_REACTORS
330
2A
102
}
330
2A
100
AcDbVisualStyle
  2
GouraudWithEdges
 70
     3
177
     2
291
     1
 71
     2
176
     1
 72
     2
176
     1
 73
     1
176
     1
 90
        2
176
     1
 40
-0.6
176
     1
 41
30.0
176
     1
 62
     5
 63
     7
421
 16777215
176
     1
 74
     1
176
     1
 91
        4
176
     1
 64
     7
176
     1
 65
   257
176
     1
 75
     1
176
     1
175
     1
176
     1
 42
1.0
176
     1
 92
        0
176
     1
 66
   257
176
     1
 43
1.0
176
     1
 76
     1
176
     1
 77
     6
176
     1
 78
     2
176
     1
 67
     7
176
     1
 79
     5
176
     1
170
     0
176
     1
171
     0
176
     1
290
     0
176
     1
 93
       13
176
     1
 44
0.0
176
     1
173
     0
176
     1
  0
VISUALSTYLE
  5
38
102
{ACAD_REACTORS
330
2A
102
}
330
2A
100
AcDbVisualStyle
  2
Linepattern
 70
    14
177
     2
291
     1
 71
     2
176
     1
 72
     2
176
     1
 73
     0
176
     1
 90
        0
176
     1
 40
-0.6
176
     1
 41
-30.0
176
     1
 62
     5
 63
     7
421
 16777215
176
     1
 74
     1
176
     1
 91
        4
176
     1
 64
     7
176
     1
 65
   257
176
     1
 75
     7
176
     1
175
     7
176
     1
 42
1.0
176
     1
 92
        8
176
     1
 66
     7
176
     1
 43
1.0
176
     1
 76
     1
176
     1
 77
     6
176
     1
 78
     2
176
     1
 67
     7
176
     1
 79
     5
176
     1
170
     0
176
     1
171
     0
176
     1
290
     0
176
     1
 93
        1
176
     1
 44
0.0
176
     1
173
     0
176
     1
  0
VISUALSTYLE
  5
33
102
{ACAD_REACTORS
330
2A
102
}
330
2A
100
AcDbVisualStyle
  2
Realistic
 70
     8
177
     2
291
     0
 71
     2
176
     1
 72
     2
176
     1
 73
     0
176
     1
 90
        0
176
     1
 40
-0.6
176
     1
 41
-30.0
176
     1
 62
     5
 63
     7
421
 16777215
176
     1
 74
     1
176
     1
 91
        0
176
     1
 64
     7
176
     1
 65
   257
176
     1
 75
     1
176
     1
175
     1
176
     1
 42
1.0
176
     1
 92
        8
176
     1
 66
     8
424
  7895160
176
     1
 43
1.0
176
     1
 76
     1
176
     1
 77
     6
176
     1
 78
     2
176
     1
 67
     7
176
     1
 79
     5
176
     1
170
     0
176
     1
171
     0
176
     1
290
     0
176
     1
 93
       13
176
     1
 44
0.0
176
     1
173
     0
176
     1
  0
VISUALSTYLE
  5
37
102
{ACAD_REACTORS
330
2A
102
}
330
2A
100
AcDbVisualStyle
  2
Thicken
 70
    13
177
     2
291
     1
 71
     2
176
     1
 72
     2
176
     1
 73
     0
176
     1
 90
        0
176
     1
 40
-0.6
176
     1
 41
-30.0
176
     1
 62
     5
 63
     7
421
 16777215
176
     1
 74
     1
176
     1
 91
        4
176
     1
 64
     7
176
     1
 65
   257
176
     1
 75
     1
176
     1
175
     1
176
     1
 42
1.0
176
     1
 92
       12
176
     1
 66
     7
176
     1
 43
1.0
176
     1
 76
     1
176
     1
 77
     6
176
     1
 78
     2
176
     1
 67
     7
176
     1
 79
     5
176
     1
170
     0
176
     1
171
     0
176
     1
290
     0
176
     1
 93
        1
176
     1
 44
0.0
176
     1
173
     0
176
     1
  0
ENDSEC
  0
EOF
