  0
SECTION
  2
HEADER
  9
$ACADVER
  1
AC1024
  9
$ACADMAINTVER
 70
     6
  9
$DWGCODEPAGE
  3
UNDEFINED
  9
$INSBASE
 10
0.0
 20
0.0
 30
0.0
  9
$EXTMIN
 10
1.000000000000000E+20
 20
1.000000000000000E+20
 30
1.000000000000000E+20
  9
$EXTMAX
 10
-1.000000000000000E+20
 20
-1.000000000000000E+20
 30
-1.000000000000000E+20
  9
$LIMMIN
 10
0.0
 20
0.0
  9
$LIMMAX
 10
12.0
 20
9.0
  9
$ORTHOMODE
 70
     0
  9
$REGENMODE
 70
     1
  9
$FILLMODE
 70
     1
  9
$QTEXTMODE
 70
     0
  9
$MIRRTEXT
 70
     1
  9
$LTSCALE
 40
1.0
  9
$ATTMODE
 70
     1
  9
$TEXTSIZE
 40
0.2
  9
$TRACEWID
 40
0.05
  9
$TEXTSTYLE
  7
Standard
  9
$CLAYER
  8
0
  9
$CELTYPE
  6
ByLayer
  9
$CECOLOR
 62
   256
  9
$CELTSCALE
 40
1.0
  9
$DISPSILH
 70
     0
  9
$DIMSCALE
 40
1.0
  9
$DIMASZ
 40
0.18
  9
$DIMEXO
 40
0.0625
  9
$DIMDLI
 40
0.38
  9
$DIMRND
 40
0.0
  9
$DIMDLE
 40
0.0
  9
$DIMEXE
 40
0.18
  9
$DIMTP
 40
0.0
  9
$DIMTM
 40
0.0
  9
$DIMTXT
 40
0.18
  9
$DIMCEN
 40
0.09
  9
$DIMTSZ
 40
0.0
  9
$DIMTOL
 70
     0
  9
$DIMLIM
 70
     0
  9
$DIMTIH
 70
     1
  9
$DIMTOH
 70
     1
  9
$DIMSE1
 70
     0
  9
$DIMSE2
 70
     0
  9
$DIMTAD
 70
     0
  9
$DIMZIN
 70
     0
  9
$DIMBLK
  1

  9
$DIMASO
 70
     1
  9
$DIMSHO
 70
     1
  9
$DIMPOST
  1

  9
$DIMAPOST
  1

  9
$DIMALT
 70
     0
  9
$DIMALTD
 70
     2
  9
$DIMALTF
 40
25.4
  9
$DIMLFAC
 40
1.0
  9
$DIMTOFL
 70
     0
  9
$DIMTVP
 40
0.0
  9
$DIMTIX
 70
     0
  9
$DIMSOXD
 70
     0
  9
$DIMSAH
 70
     0
  9
$DIMBLK1
  1

  9
$DIMBLK2
  1

  9
$DIMSTYLE
  2
Standard
  9
$DIMCLRD
 70
     0
  9
$DIMCLRE
 70
     0
  9
$DIMCLRT
 70
     0
  9
$DIMTFAC
 40
1.0
  9
$DIMGAP
 40
0.09
  9
$DIMJUST
 70
     0
  9
$DIMSD1
 70
     0
  9
$DIMSD2
 70
     0
  9
$DIMTOLJ
 70
     1
  9
$DIMTZIN
 70
     0
  9
$DIMALTZ
 70
     0
  9
$DIMALTTZ
 70
     0
  9
$DIMUPT
 70
     0
  9
$DIMDEC
 70
     4
  9
$DIMTDEC
 70
     4
  9
$DIMALTU
 70
     2
  9
$DIMALTTD
 70
     2
  9
$DIMTXSTY
  7
Standard
  9
$DIMAUNIT
 70
     0
  9
$DIMADEC
 70
     0
  9
$DIMALTRND
 40
0.0
  9
$DIMAZIN
 70
     0
  9
$DIMDSEP
 70
    46
  9
$DIMATFIT
 70
     3
  9
$DIMFRAC
 70
     0
  9
$DIMLDRBLK
  1

  9
$DIMLUNIT
 70
     2
  9
$DIMLWD
 70
    -2
  9
$DIMLWE
 70
    -2
  9
$DIMTMOVE
 70
     0
  9
$DIMFXL
 40
1.0
  9
$DIMFXLON
 70
     0
  9
$DIMJOGANG
 40
0.7853981633974483
  9
$DIMTFILL
 70
     0
  9
$DIMTFILLCLR
 70
     0
  9
$DIMARCSYM
 70
     0
  9
$DIMLTYPE
  6

  9
$DIMLTEX1
  6

  9
$DIMLTEX2
  6

  9
$DIMTXTDIRECTION
 70
     0
  9
$LUNITS
 70
     2
  9
$LUPREC
 70
     4
  9
$SKETCHINC
 40
0.1
  9
$FILLETRAD
 40
0.5
  9
$AUNITS
 70
     0
  9
$AUPREC
 70
     0
  9
$MENU
  1
.
  9
$ELEVATION
 40
0.0
  9
$PELEVATION
 40
0.0
  9
$THICKNESS
 40
0.0
  9
$LIMCHECK
 70
     0
  9
$CHAMFERA
 40
0.5
  9
$CHAMFERB
 40
0.5
  9
$CHAMFERC
 40
1.0
  9
$CHAMFERD
 40
0.0
  9
$SKPOLY
 70
     0
  9
$TDCREATE
 40
2458113.725787037
  9
$TDUCREATE
 40
2458113.642453704
  9
$TDUPDATE
 40
2458113.725787037
  9
$TDUUPDATE
 40
2458113.642453704
  9
$TDINDWG
 40
0.0000000116
  9
$TDUSRTIMER
 40
0.0000000116
  9
$USRTIMER
 70
     1
  9
$ANGBASE
 50
0.0
  9
$ANGDIR
 70
     0
  9
$PDMODE
 70
     0
  9
$PDSIZE
 40
0.0
  9
$PLINEWID
 40
0.0
  9
$SPLFRAME
 70
     0
  9
$SPLINETYPE
 70
     6
  9
$SPLINESEGS
 70
     8
  9
$HANDSEED
  5
8C
  9
$SURFTAB1
 70
     6
  9
$SURFTAB2
 70
     6
  9
$SURFTYPE
 70
     6
  9
$SURFU
 70
     6
  9
$SURFV
 70
     6
  9
$UCSBASE
  2

  9
$UCSNAME
  2

  9
$UCSORG
 10
0.0
 20
0.0
 30
0.0
  9
$UCSXDIR
 10
1.0
 20
0.0
 30
0.0
  9
$UCSYDIR
 10
0.0
 20
1.0
 30
0.0
  9
$UCSORTHOREF
  2

  9
$UCSORTHOVIEW
 70
     0
  9
$UCSORGTOP
 10
0.0
 20
0.0
 30
0.0
  9
$UCSORGBOTTOM
 10
0.0
 20
0.0
 30
0.0
  9
$UCSORGLEFT
 10
0.0
 20
0.0
 30
0.0
  9
$UCSORGRIGHT
 10
0.0
 20
0.0
 30
0.0
  9
$UCSORGFRONT
 10
0.0
 20
0.0
 30
0.0
  9
$UCSORGBACK
 10
0.0
 20
0.0
 30
0.0
  9
$PUCSBASE
  2

  9
$PUCSNAME
  2

  9
$PUCSORG
 10
0.0
 20
0.0
 30
0.0
  9
$PUCSXDIR
 10
1.0
 20
0.0
 30
0.0
  9
$PUCSYDIR
 10
0.0
 20
1.0
 30
0.0
  9
$PUCSORTHOREF
  2

  9
$PUCSORTHOVIEW
 70
     0
  9
$PUCSORGTOP
 10
0.0
 20
0.0
 30
0.0
  9
$PUCSORGBOTTOM
 10
0.0
 20
0.0
 30
0.0
  9
$PUCSORGLEFT
 10
0.0
 20
0.0
 30
0.0
  9
$PUCSORGRIGHT
 10
0.0
 20
0.0
 30
0.0
  9
$PUCSORGFRONT
 10
0.0
 20
0.0
 30
0.0
  9
$PUCSORGBACK
 10
0.0
 20
0.0
 30
0.0
  9
$USERI1
 70
     0
  9
$USERI2
 70
     0
  9
$USERI3
 70
     0
  9
$USERI4
 70
     0
  9
$USERI5
 70
     0
  9
$USERR1
 40
0.0
  9
$USERR2
 40
0.0
  9
$USERR3
 40
0.0
  9
$USERR4
 40
0.0
  9
$USERR5
 40
0.0
  9
$WORLDVIEW
 70
     1
  9
$SHADEDGE
 70
     3
  9
$SHADEDIF
 70
    70
  9
$TILEMODE
 70
     1
  9
$MAXACTVP
 70
    64
  9
$PINSBASE
 10
0.0
 20
0.0
 30
0.0
  9
$PLIMCHECK
 70
     0
  9
$PEXTMIN
 10
1.000000000000000E+20
 20
1.000000000000000E+20
 30
1.000000000000000E+20
  9
$PEXTMAX
 10
-1.000000000000000E+20
 20
-1.000000000000000E+20
 30
-1.000000000000000E+20
  9
$PLIMMIN
 10
0.0
 20
0.0
  9
$PLIMMAX
 10
12.0
 20
9.0
  9
$UNITMODE
 70
     0
  9
$VISRETAIN
 70
     1
  9
$PLINEGEN
 70
     0
  9
$PSLTSCALE
 70
     1
  9
$TREEDEPTH
 70
  3020
  9
$CMLSTYLE
  2
Standard
  9
$CMLJUST
 70
     0
  9
$CMLSCALE
 40
1.0
  9
$PROXYGRAPHICS
 70
     1
  9
$MEASUREMENT
 70
     0
  9
$CELWEIGHT
370
    -1
  9
$ENDCAPS
280
     0
  9
$JOINSTYLE
280
     0
  9
$LWDISPLAY
290
     1
  9
$INSUNITS
 70
     1
  9
$HYPERLINKBASE
  1

  9
$STYLESHEET
  1

  9
$XEDIT
290
     1
  9
$CEPSNTYPE
380
     0
  9
$PSTYLEMODE
290
     1
  9
$FINGERPRINTGUID
  2
{BF5DF5B2-295A-BA4C-5B47-598DD0C869AC}
  9
$VERSIONGUID
  2
{FAEB1C32-E019-11D5-929B-00C0DF256EC4}
  9
$EXTNAMES
290
     1
  9
$PSVPSCALE
 40
0.0
  9
$OLESTARTUP
290
     0
  9
$SORTENTS
280
   127
  9
$INDEXCTL
280
     0
  9
$HIDETEXT
280
     1
  9
$XCLIPFRAME
280
     2
  9
$HALOGAP
280
     0
  9
$OBSCOLOR
 70
   257
  9
$OBSLTYPE
280
     0
  9
$INTERSECTIONDISPLAY
280
     0
  9
$INTERSECTIONCOLOR
 70
   257
  9
$DIMASSOC
280
     2
  9
$PROJECTNAME
  1

  9
$CAMERADISPLAY
290
     0
  9
$LENSLENGTH
 40
50.0
  9
$CAMERAHEIGHT
 40
0.0
  9
$STEPSPERSEC
 40
2.0
  9
$STEPSIZE
 40
6.0
  9
$3DDWFPREC
 40
2.0
  9
$PSOLWIDTH
 40
0.25
  9
$PSOLHEIGHT
 40
4.0
  9
$LOFTANG1
 40
1.570796326794897
  9
$LOFTANG2
 40
1.570796326794897
  9
$LOFTMAG1
 40
0.0
  9
$LOFTMAG2
 40
0.0
  9
$LOFTPARAM
 70
     7
  9
$LOFTNORMALS
280
     1
  9
$LATITUDE
 40
37.795
  9
$LONGITUDE
 40
-122.394
  9
$NORTHDIRECTION
 40
0.0
  9
$TIMEZONE
 70
 -8000
  9
$LIGHTGLYPHDISPLAY
280
     1
  9
$TILEMODELIGHTSYNCH
280
     1
  9
$CMATERIAL
347
3C
  9
$SOLIDHIST
280
     1
  9
$SHOWHIST
280
     1
  9
$DWFFRAME
280
     2
  9
$DGNFRAME
280
     2
  9
$REALWORLDSCALE
290
     1
  9
$INTERFERECOLOR
 62
   256
  9
$CSHADOW
280
     0
  9
$SHADOWPLANELOCATION
 40
0.0
  0
ENDSEC
  0
SECTION
  2
CLASSES
  0
CLASS
  1
ACDBDICTIONARYWDFLT
  2
AcDbDictionaryWithDefault
  3
ObjectDBX Classes
 90
        0
 91
        4
280
     0
281
     0
  0
CLASS
  1
VISUALSTYLE
  2
AcDbVisualStyle
  3
ObjectDBX Classes
 90
     4095
 91
        4
280
     0
281
     0
  0
CLASS
  1
MATERIAL
  2
AcDbMaterial
  3
ObjectDBX Classes
 90
     1153
 91
        4
280
     0
281
     0
  0
CLASS
  1
SUN
  2
AcDbSun
  3
SCENEOE
 90
     1024
 91
        4
280
     0
281
     0
  0
ENDSEC
  0
SECTION
  2
TABLES
  0
TABLE
  2
VPORT
  5
8
330
0
100
AcDbSymbolTable
 70
     1
  0
VPORT
  5
29
330
8
100
AcDbSymbolTableRecord
100
AcDbViewportTableRecord
  2
*Active
 70
     0
 10
0.0
 20
0.0
 11
1.0
 21
1.0
 12
0.0
 22
0.0
 13
0.0
 23
0.0
 14
0.5
 24
0.5
 15
0.5
 25
0.5
 16
0.0
 26
0.0
 36
1.0
 17
297.6379999999999
 27
-420.9449999999997
 37
0.0
 40
841.8899999999994
 41
0.7070709950231031
 42
50.0
 43
0.0
 44
0.0
 50
0.0
 51
0.0
 71
     0
 72
   100
 73
     1
 74
     3
 75
     0
 76
     0
 77
     0
 78
     0
281
     0
 65
     1
110
0.0
120
0.0
130
0.0
111
1.0
121
0.0
131
0.0
112
0.0
122
1.0
132
0.0
 79
     0
146
0.0
 60
     3
 61
     5
292
     1
282
     1
141
0.0
142
0.0
 63
   250
361
3F
  0
ENDTAB
  0
TABLE
  2
LTYPE
  5
5
330
0
100
AcDbSymbolTable
 70
     1
  0
LTYPE
  5
14
330
5
100
AcDbSymbolTableRecord
100
AcDbLinetypeTableRecord
  2
ByBlock
 70
     0
  3

 72
    65
 73
     0
 40
0.0
  0
LTYPE
  5
15
330
5
100
AcDbSymbolTableRecord
100
AcDbLinetypeTableRecord
  2
ByLayer
 70
     0
  3

 72
    65
 73
     0
 40
0.0
  0
LTYPE
  5
16
330
5
100
AcDbSymbolTableRecord
100
AcDbLinetypeTableRecord
  2
Continuous
 70
     0
  3
Solid line
 72
    65
 73
     0
 40
0.0
  0
ENDTAB
  0
TABLE
  2
LAYER
  5
2
330
0
100
AcDbSymbolTable
 70
     2
  0
LAYER
  5
10
330
2
100
AcDbSymbolTableRecord
100
AcDbLayerTableRecord
  2
0
 70
     0
 62
     7
  6
Continuous
370
    -3
390
F
347
3E
  0
LAYER
  5
40
330
2
100
AcDbSymbolTableRecord
100
AcDbLayerTableRecord
  2
Layer 1
 70
     0
 62
     7
  6
Continuous
370
    -3
390
F
347
3E
  0
ENDTAB
  0
TABLE
  2
STYLE
  5
3
330
0
100
AcDbSymbolTable
 70
     1
  0
STYLE
  5
11
330
3
100
AcDbSymbolTableRecord
100
AcDbTextStyleTableRecord
  2
Standard
 70
     0
 40
0.0
 41
1.0
 50
0.0
 71
     0
 42
0.2
  3
txt
  4

  0
ENDTAB
  0
TABLE
  2
VIEW
  5
6
330
0
100
AcDbSymbolTable
 70
     0
  0
ENDTAB
  0
TABLE
  2
UCS
  5
7
330
0
100
AcDbSymbolTable
 70
     0
  0
ENDTAB
  0
TABLE
  2
APPID
  5
9
330
0
100
AcDbSymbolTable
 70
     1
  0
APPID
  5
12
330
9
100
AcDbSymbolTableRecord
100
AcDbRegAppTableRecord
  2
ACAD
 70
     0
  0
ENDTAB
  0
TABLE
  2
DIMSTYLE
  5
A
330
0
100
AcDbSymbolTable
 70
     1
100
AcDbDimStyleTable
  0
DIMSTYLE
105
27
330
A
100
AcDbSymbolTableRecord
100
AcDbDimStyleTableRecord
  2
Standard
 70
     0
178
     0
340
11
  0
ENDTAB
  0
TABLE
  2
BLOCK_RECORD
  5
1
330
0
100
AcDbSymbolTable
 70
     2
  0
BLOCK_RECORD
  5
1F
330
1
100
AcDbSymbolTableRecord
100
AcDbBlockTableRecord
  2
*Model_Space
340
22
 70
     0
280
     1
281
     0
  0
BLOCK_RECORD
  5
1B
330
1
100
AcDbSymbolTableRecord
100
AcDbBlockTableRecord
  2
*Paper_Space
340
1E
 70
     0
280
     1
281
     0
  0
BLOCK_RECORD
  5
23
330
1
100
AcDbSymbolTableRecord
100
AcDbBlockTableRecord
  2
*Paper_Space0
340
26
 70
     0
280
     1
281
     0
  0
BLOCK_RECORD
  5
41
330
1
100
AcDbSymbolTableRecord
100
AcDbBlockTableRecord
  2
block 2
340
0
102
{BLKREFS
331
42
102
}
 70
     0
280
     1
281
     0
  0
ENDTAB
  0
ENDSEC
  0
SECTION
  2
BLOCKS
  0
BLOCK
  5
20
330
1F
100
AcDbEntity
  8
0
100
AcDbBlockBegin
  2
*Model_Space
 70
     0
 10
0.0
 20
0.0
 30
0.0
  3
*Model_Space
  1

  0
ENDBLK
  5
21
330
1F
100
AcDbEntity
  8
0
100
AcDbBlockEnd
  0
BLOCK
  5
1C
330
1B
100
AcDbEntity
 67
     1
  8
0
100
AcDbBlockBegin
  2
*Paper_Space
 70
     0
 10
0.0
 20
0.0
 30
0.0
  3
*Paper_Space
  1

  0
ENDBLK
  5
1D
330
1B
100
AcDbEntity
 67
     1
  8
0
100
AcDbBlockEnd
  0
BLOCK
  5
24
330
23
100
AcDbEntity
  8
0
100
AcDbBlockBegin
  2
*Paper_Space0
 70
     0
 10
0.0
 20
0.0
 30
0.0
  3
*Paper_Space0
  1

  0
ENDBLK
  5
25
330
23
100
AcDbEntity
  8
0
100
AcDbBlockEnd
  0
BLOCK
  5
43
330
41
100
AcDbEntity
  8
0
100
AcDbBlockBegin
  2
block 2
 70
     0
 10
0.0
 20
0.0
 30
0.0
  3
block 2
  1

  0
SPLINE
  5
45
330
41
100
AcDbEntity
  8
Layer 1
 62
   156
420
  1785491
370
    18
100
AcDbSpline
210
0.0
220
0.0
230
1.0
 70
     8
 71
     3
 72
     8
 73
     4
 74
     0
 42
0.0000000001
 43
0.0000000001
 12
1.0
 22
0.0
 32
0.0
 13
1.0
 23
0.0
 33
0.0
 40
0.0
 40
0.0
 40
0.0
 40
0.0
 40
1.0
 40
1.0
 40
1.0
 40
1.0
 10
107.2318868047278
 20
-351.1285030461959
 30
0.0
 10
107.2318868047278
 20
-351.1285030461959
 30
0.0
 10
139.1368078050018
 20
-398.3631628801986
 30
0.0
 10
150.5309146217805
 20
-454.2341439712454
 30
0.0
  0
SPLINE
  5
46
330
41
100
AcDbEntity
  8
Layer 1
 62
   156
420
  1785491
370
    18
100
AcDbSpline
210
0.0
220
0.0
230
1.0
 70
     8
 71
     3
 72
     8
 73
     4
 74
     0
 42
0.0000000001
 43
0.0000000001
 12
1.0
 22
0.0
 32
0.0
 13
1.0
 23
0.0
 33
0.0
 40
0.0
 40
0.0
 40
0.0
 40
0.0
 40
1.0
 40
1.0
 40
1.0
 40
1.0
 10
124.5507873142624
 20
-366.518735976234
 30
0.0
 10
124.5507873142624
 20
-366.518735976234
 30
0.0
 10
151.4881371482707
 20
-443.743878544703
 30
0.0
 10
151.1714339594573
 20
-454.2768488802503
 30
0.0
  0
SPLINE
  5
47
330
41
100
AcDbEntity
  8
Layer 1
 62
   156
420
  1785491
370
    18
100
AcDbSpline
210
0.0
220
0.0
230
1.0
 70
     8
 71
     3
 72
     8
 73
     4
 74
     0
 42
0.0000000001
 43
0.0000000001
 12
1.0
 22
0.0
 32
0.0
 13
1.0
 23
0.0
 33
0.0
 40
0.0
 40
0.0
 40
0.0
 40
0.0
 40
1.0
 40
1.0
 40
1.0
 40
1.0
 10
137.7419074714326
 20
-352.9041639320858
 30
0.0
 10
137.7419074714326
 20
-352.9041639320858
 30
0.0
 10
149.4455977297994
 20
-447.5691985962912
 30
0.0
 10
152.0859515769425
 20
-454.1024863385555
 30
0.0
  0
SPLINE
  5
48
330
41
100
AcDbEntity
  8
Layer 1
 62
   156
420
  1785491
370
    18
100
AcDbSpline
210
0.0
220
0.0
230
1.0
 70
     8
 71
     3
 72
     8
 73
     4
 74
     0
 42
0.0000000001
 43
0.0000000001
 12
1.0
 22
0.0
 32
0.0
 13
1.0
 23
0.0
 33
0.0
 40
0.0
 40
0.0
 40
0.0
 40
0.0
 40
1.0
 40
1.0
 40
1.0
 40
1.0
 10
147.200223567902
 20
-349.5450006764804
 30
0.0
 10
147.200223567902
 20
-349.5450006764804
 30
0.0
 10
143.527920390683
 20
-414.7960179739748
 30
0.0
 10
152.6695400855142
 20
-453.7039433861082
 30
0.0
  0
SPLINE
  5
49
330
41
100
AcDbEntity
  8
Layer 1
 62
   156
420
  1785491
370
    18
100
AcDbSpline
210
0.0
220
0.0
230
1.0
 70
     8
 71
     3
 72
     8
 73
     4
 74
     0
 42
0.0000000001
 43
0.0000000001
 12
1.0
 22
0.0
 32
0.0
 13
1.0
 23
0.0
 33
0.0
 40
0.0
 40
0.0
 40
0.0
 40
0.0
 40
1.0
 40
1.0
 40
1.0
 40
1.0
 10
75.28070441542513
 20
-365.7856938604937
 30
0.0
 10
75.28070441542513
 20
-365.7856938604937
 30
0.0
 10
132.4256010410154
 20
-383.3928287507006
 30
0.0
 10
148.3780632379439
 20
-454.2234745311707
 30
0.0
  0
SPLINE
  5
4A
330
41
100
AcDbEntity
  8
Layer 1
 62
   156
420
  1785491
370
    18
100
AcDbSpline
210
0.0
220
0.0
230
1.0
 70
     8
 71
     3
 72
     8
 73
     4
 74
     0
 42
0.0000000001
 43
0.0000000001
 12
1.0
 22
0.0
 32
0.0
 13
1.0
 23
0.0
 33
0.0
 40
0.0
 40
0.0
 40
0.0
 40
0.0
 40
1.0
 40
1.0
 40
1.0
 40
1.0
 10
75.88207532412252
 20
-372.1802042228428
 30
0.0
 10
75.88207532412252
 20
-372.1802042228428
 30
0.0
 10
126.9456150833266
 20
-379.2935104193039
 30
0.0
 10
147.7268744601906
 20
-454.0170833077209
 30
0.0
  0
SPLINE
  5
4B
330
41
100
AcDbEntity
  8
Layer 1
 62
   156
420
  1785491
370
    18
100
AcDbSpline
210
0.0
220
0.0
230
1.0
 70
     8
 71
     3
 72
     8
 73
     4
 74
     0
 42
0.0000000001
 43
0.0000000001
 12
1.0
 22
0.0
 32
0.0
 13
1.0
 23
0.0
 33
0.0
 40
0.0
 40
0.0
 40
0.0
 40
0.0
 40
1.0
 40
1.0
 40
1.0
 40
1.0
 10
99.49941033150662
 20
-372.5894234025427
 30
0.0
 10
99.49941033150662
 20
-372.5894234025427
 30
0.0
 10
138.9090709142238
 20
-397.9646199277513
 30
0.0
 10
149.2036213445699
 20
-454.3231102692826
 30
0.0
  0
SPLINE
  5
4C
330
41
100
AcDbEntity
  8
Layer 1
 62
   156
420
  1785491
370
    18
100
AcDbSpline
210
0.0
220
0.0
230
1.0
 70
     8
 71
     3
 72
     8
 73
     4
 74
     0
 42
0.0000000001
 43
0.0000000001
 12
1.0
 22
0.0
 32
0.0
 13
1.0
 23
0.0
 33
0.0
 40
0.0
 40
0.0
 40
0.0
 40
0.0
 40
1.0
 40
1.0
 40
1.0
 40
1.0
 10
100.3783427872131
 20
-357.5336896357958
 30
0.0
 10
100.3783427872131
 20
-357.5336896357958
 30
0.0
 10
139.2079781285602
 20
-397.7653450579392
 30
0.0
 10
149.9580091276366
 20
-454.3942738056649
 30
0.0
  0
SPLINE
  5
4D
330
41
100
AcDbEntity
  8
Layer 1
 62
   156
420
  1785491
370
    18
100
AcDbSpline
210
0.0
220
0.0
230
1.0
 70
     8
 71
     3
 72
     8
 73
     4
 74
     0
 42
0.0000000001
 43
0.0000000001
 12
1.0
 22
0.0
 32
0.0
 13
1.0
 23
0.0
 33
0.0
 40
0.0
 40
0.0
 40
0.0
 40
0.0
 40
1.0
 40
1.0
 40
1.0
 40
1.0
 10
131.5786972670621
 20
-366.6148084471442
 30
0.0
 10
131.5786972670621
 20
-366.6148084471442
 30
0.0
 10
148.5097276578117
 20
-439.1321488154699
 30
0.0
 10
149.5487899479367
 20
-443.54817033568
 30
0.0
  0
SPLINE
  5
4E
330
41
100
AcDbEntity
  8
Layer 1
 62
   156
420
  1785491
370
    18
100
AcDbSpline
210
0.0
220
0.0
230
1.0
 70
     8
 71
     3
 72
     8
 73
     4
 74
     0
 42
0.0000000001
 43
0.0000000001
 12
1.0
 22
0.0
 32
0.0
 13
1.0
 23
0.0
 33
0.0
 40
0.0
 40
0.0
 40
0.0
 40
0.0
 40
1.0
 40
1.0
 40
1.0
 40
1.0
 10
69.71887190692723
 20
-368.7214052291247
 30
0.0
 10
71.81122919445625
 20
-369.0416648979626
 30
0.0
 10
72.59052591204909
 20
-370.1981521135031
 30
0.0
 10
74.54766229968664
 20
-370.7568316875468
 30
0.0
  0
SPLINE
  5
4F
330
41
100
AcDbEntity
  8
Layer 1
 62
   156
420
  1785491
370
    18
100
AcDbSpline
210
0.0
220
0.0
230
1.0
 70
     8
 71
     3
 72
    29
 73
    25
 74
     0
 42
0.0000000001
 43
0.0000000001
 12
1.0
 22
0.0
 32
0.0
 13
1.0
 23
0.0
 33
0.0
 40
0.0
 40
0.0
 40
0.0
 40
0.0
 40
1.0
 40
1.0
 40
1.0
 40
2.0
 40
2.0
 40
2.0
 40
3.0
 40
3.0
 40
3.0
 40
4.0
 40
4.0
 40
4.0
 40
5.0
 40
5.0
 40
5.0
 40
6.0
 40
6.0
 40
6.0
 40
7.0
 40
7.0
 40
7.0
 40
8.0
 40
8.0
 40
8.0
 40
8.0
 10
79.86040546290405
 20
-385.7093732361554
 30
0.0
 10
79.86040546290405
 20
-385.7093732361554
 30
0.0
 10
80.2838641370563
 20
-385.9299971668825
 30
0.0
 10
80.2838641370563
 20
-385.9299971668825
 30
0.0
 10
80.8033952821188
 20
-385.8552635761216
 30
0.0
 10
80.67885060947901
 20
-385.3997897945683
 30
0.0
 10
80.60056053869357
 20
-385.0475014439753
 30
0.0
 10
80.50448128060634
 20
-384.592020875245
 30
0.0
 10
80.44755045150032
 20
-384.3358117827393
 30
0.0
 10
80.34791471338849
 20
-383.8803380011841
 30
0.0
 10
79.93157578646333
 20
-381.9054056390705
 30
0.0
 10
81.19126200731534
 20
-380.4108627802152
 30
0.0
 10
83.49001051829327
 20
-379.7383147607834
 30
0.0
 10
84.60024313197846
 20
-379.4038223846674
 30
0.0
 10
84.28353994316421
 20
-381.1581308160539
 30
0.0
 10
84.48993116661495
 20
-382.1260295697975
 30
0.0
 10
85.05572370070877
 20
-384.8090883259474
 30
0.0
 10
87.4220792680444
 20
-385.9513428342098
 30
0.0
 10
90.41472825295659
 20
-387.079371422371
 30
0.0
 10
91.50004514493685
 20
-387.4672381475684
 30
0.0
 10
92.08007038630694
 20
-388.296352734219
 30
0.0
 10
93.26502980357691
 20
-388.1219901925233
 30
0.0
 10
94.86988462779573
 20
-387.8906900345446
 30
0.0
 10
93.74186282680967
 20
-385.6524356198734
 30
0.0
 10
95.09050855852274
 20
-384.9265132513601
 30
0.0
  0
SPLINE
  5
50
330
41
100
AcDbEntity
  8
Layer 1
 62
   156
420
  1785491
370
    18
100
AcDbSpline
210
0.0
220
0.0
230
1.0
 70
     8
 71
     3
 72
    14
 73
    10
 74
     0
 42
0.0000000001
 43
0.0000000001
 12
1.0
 22
0.0
 32
0.0
 13
1.0
 23
0.0
 33
0.0
 40
0.0
 40
0.0
 40
0.0
 40
0.0
 40
1.0
 40
1.0
 40
1.0
 40
2.0
 40
2.0
 40
2.0
 40
3.0
 40
3.0
 40
3.0
 40
3.0
 10
78.76441234367212
 20
-376.8168428866047
 30
0.0
 10
78.76441234367212
 20
-376.8168428866047
 30
0.0
 10
130.5253954824848
 20
-394.4133015495581
 30
0.0
 10
147.0080650517284
 20
-453.5473700317125
 30
0.0
 10
148.5986871686709
 20
-455.3586092922087
 30
0.0
 10
152.7762887836761
 20
-453.7644306952388
 30
0.0
 10
152.7762887836761
 20
-453.7644306952388
 30
0.0
 10
152.7762887836761
 20
-453.7644306952388
 30
0.0
 10
152.8794877889904
 20
-452.8677090522324
 30
0.0
 10
152.8403393600092
 20
-452.4762790598343
 30
0.0
  0
SPLINE
  5
51
330
41
100
AcDbEntity
  8
Layer 1
 62
   156
420
  1785491
370
    18
100
AcDbSpline
210
0.0
220
0.0
230
1.0
 70
     8
 71
     3
 72
    14
 73
    10
 74
     0
 42
0.0000000001
 43
0.0000000001
 12
1.0
 22
0.0
 32
0.0
 13
1.0
 23
0.0
 33
0.0
 40
0.0
 40
0.0
 40
0.0
 40
0.0
 40
1.0
 40
1.0
 40
1.0
 40
2.0
 40
2.0
 40
2.0
 40
3.0
 40
3.0
 40
3.0
 40
3.0
 10
101.5668586845059
 20
-362.6115693738348
 30
0.0
 10
99.87660422303907
 20
-362.8926874008694
 30
0.0
 10
98.4710208750439
 20
-363.173805427904
 30
0.0
 10
96.77009018632543
 20
-363.4228947731845
 30
0.0
 10
92.24020022072818
 20
-364.0883230453892
 30
0.0
 10
89.27958670474436
 20
-363.8997277964163
 30
0.0
 10
84.99878608442668
 20
-362.4016216703594
 30
0.0
 10
82.74985544250376
 20
-361.6152119927156
 30
0.0
 10
81.88515569407446
 20
-360.4907466717541
 30
0.0
 10
79.61843586485065
 20
-359.8502273340764
 30
0.0
  0
SPLINE
  5
52
330
41
100
AcDbEntity
  8
Layer 1
 62
   156
420
  1785491
370
    18
100
AcDbSpline
210
0.0
220
0.0
230
1.0
 70
     8
 71
     3
 72
    11
 73
     7
 74
     0
 42
0.0000000001
 43
0.0000000001
 12
1.0
 22
0.0
 32
0.0
 13
1.0
 23
0.0
 33
0.0
 40
0.0
 40
0.0
 40
0.0
 40
0.0
 40
1.0
 40
1.0
 40
1.0
 40
2.0
 40
2.0
 40
2.0
 40
2.0
 10
135.848814872953
 20
-357.4233776704332
 30
0.0
 10
134.343602574022
 20
-358.4126220915032
 30
0.0
 10
132.5216802991008
 20
-358.4731161878099
 30
0.0
 10
130.621474740572
 20
-358.7506709476429
 30
0.0
 10
125.6005258316391
 20
-359.4872695434078
 30
0.0
 10
122.7075193720138
 20
-358.0283118463312
 30
0.0
 10
117.7363883321377
 20
-357.0248279308098
 30
0.0
  0
SPLINE
  5
53
330
41
100
AcDbEntity
  8
Layer 1
 62
   156
420
  1785491
370
    18
100
AcDbSpline
210
0.0
220
0.0
230
1.0
 70
     8
 71
     3
 72
    29
 73
    25
 74
     0
 42
0.0000000001
 43
0.0000000001
 12
1.0
 22
0.0
 32
0.0
 13
1.0
 23
0.0
 33
0.0
 40
0.0
 40
0.0
 40
0.0
 40
0.0
 40
1.0
 40
1.0
 40
1.0
 40
2.0
 40
2.0
 40
2.0
 40
3.0
 40
3.0
 40
3.0
 40
4.0
 40
4.0
 40
4.0
 40
5.0
 40
5.0
 40
5.0
 40
6.0
 40
6.0
 40
6.0
 40
7.0
 40
7.0
 40
7.0
 40
8.0
 40
8.0
 40
8.0
 40
8.0
 10
74.76117327036263
 20
-371.0130339928764
 30
0.0
 10
76.73966211250172
 20
-373.0911653603034
 30
0.0
 10
78.29113580046396
 20
-374.8952916607468
 30
0.0
 10
78.84625210730701
 20
-377.5285325478408
 30
0.0
 10
78.97436004714837
 20
-378.1334667237388
 30
0.0
 10
78.31960800219349
 20
-378.581827545243
 30
0.0
 10
77.59012915365474
 20
-378.6885830305819
 30
0.0
 10
73.33779394788962
 20
-379.3113063937817
 30
0.0
 10
70.18858518293473
 20
-376.0482223962617
 30
0.0
 10
69.43419061269287
 20
-372.5004638916835
 30
0.0
 10
69.09614175655224
 20
-370.8778130929859
 30
0.0
 10
70.34515175015258
 20
-369.586104977554
 30
0.0
 10
69.55517880530715
 20
-368.3015098221749
 30
0.0
 10
69.359463809109
 20
-367.9883699005613
 30
0.0
 10
68.52323626240741
 20
-368.1698454023081
 30
0.0
 10
68.52323626240741
 20
-368.1698454023081
 30
0.0
 10
67.69412167575683
 20
-369.8850121918904
 30
0.0
 10
67.3098114305867
 20
-371.1055567709382
 30
0.0
 10
67.70123463580785
 20
-372.9630574204621
 30
0.0
 10
68.55525815698547
 20
-376.987648948274
 30
0.0
 10
70.2846576538459
 20
-379.2757212320012
 30
0.0
 10
73.81462697112238
 20
-382.1687276916273
 30
0.0
 10
75.8891950713487
 20
-383.8874509612342
 30
0.0
 10
78.16303464779867
 20
-383.7629062885944
 30
0.0
 10
79.91022333196088
 20
-385.7342821706834
 30
0.0
  0
SPLINE
  5
54
330
41
100
AcDbEntity
  8
Layer 1
 62
   156
420
  1785491
370
    18
100
AcDbSpline
210
0.0
220
0.0
230
1.0
 70
     8
 71
     3
 72
    47
 73
    43
 74
     0
 42
0.0000000001
 43
0.0000000001
 12
1.0
 22
0.0
 32
0.0
 13
1.0
 23
0.0
 33
0.0
 40
0.0
 40
0.0
 40
0.0
 40
0.0
 40
1.0
 40
1.0
 40
1.0
 40
2.0
 40
2.0
 40
2.0
 40
3.0
 40
3.0
 40
3.0
 40
4.0
 40
4.0
 40
4.0
 40
5.0
 40
5.0
 40
5.0
 40
6.0
 40
6.0
 40
6.0
 40
7.0
 40
7.0
 40
7.0
 40
8.0
 40
8.0
 40
8.0
 40
9.0
 40
9.0
 40
9.0
 40
10.0
 40
10.0
 40
10.0
 40
11.0
 40
11.0
 40
11.0
 40
12.0
 40
12.0
 40
12.0
 40
13.0
 40
13.0
 40
13.0
 40
14.0
 40
14.0
 40
14.0
 40
14.0
 10
152.0574861623891
 20
-350.7833344428291
 30
0.0
 10
150.0754408402254
 20
-348.9116010860289
 30
0.0
 10
147.3994950441274
 20
-349.3065875584507
 30
0.0
 10
144.492255877225
 20
-349.7371591926531
 30
0.0
 10
140.6064417293292
 20
-350.310064686797
 30
0.0
 10
137.5141637934794
 20
-351.6693866457608
 30
0.0
 10
136.3896984725197
 20
-354.8328349051699
 30
0.0
 10
134.6638554556848
 20
-359.690097499657
 30
0.0
 10
136.5284758524358
 20
-365.9636196693909
 30
0.0
 10
130.5787766187414
 20
-366.8389956450719
 30
0.0
 10
126.5328326364261
 20
-367.4332535937192
 30
0.0
 10
122.8569729791816
 20
-366.6183717143449
 30
0.0
 10
120.7361468835124
 20
-363.6897800929419
 30
0.0
 10
118.1313748045604
 20
-360.0672947847779
 30
0.0
 10
118.3626715689506
 20
-357.1742815379785
 30
0.0
 10
115.7614559700232
 20
-353.548239749789
 30
0.0
 10
114.163717499443
 20
-351.3455704968983
 30
0.0
 10
111.6016469359083
 20
-350.260246817742
 30
0.0
 10
108.5698597027786
 20
-350.7086076392452
 30
0.0
 10
103.3887775658386
 20
-351.4701151695381
 30
0.0
 10
99.80899377309288
 20
-355.274082766623
 30
0.0
 10
100.3569903327088
 20
-359.6509558578528
 30
0.0
 10
100.3569903327088
 20
-359.6509558578528
 30
0.0
 10
103.7802041646482
 20
-368.7641033509535
 30
0.0
 10
103.7802041646482
 20
-368.7641033509535
 30
0.0
 10
104.1538415761561
 20
-370.4899463677893
 30
0.0
 10
102.7126764599698
 20
-372.1979934101464
 30
0.0
 10
100.6487845869951
 20
-372.5040203717072
 30
0.0
 10
95.26843097383153
 20
-373.2939933165526
 30
0.0
 10
91.4537905430825
 20
-371.4186966925508
 30
0.0
 10
87.49680607162827
 20
-368.3050663022004
 30
0.0
 10
85.397329036874
 20
-366.6326044216221
 30
0.0
 10
84.1661150177506
 20
-365.554400489691
 30
0.0
 10
82.63954347714025
 20
-363.4478037077124
 30
0.0
 10
81.51864142337945
 20
-361.9069994598258
 30
0.0
 10
80.95640536931205
 20
-359.6509558578528
 30
0.0
 10
78.81423021272803
 20
-359.96765225949
 30
0.0
 10
74.36262353073835
 20
-360.6224043044449
 30
0.0
 10
73.42676024592583
 20
-364.8747395102091
 30
0.0
 10
73.72566746026314
 20
-368.6609111328171
 30
0.0
 10
73.72566746026314
 20
-368.6609111328171
 30
0.0
 10
74.725588108583
 20
-371.0237102201281
 30
0.0
 10
74.725588108583
 20
-371.0237102201281
 30
0.0
  0
SPLINE
  5
55
330
41
100
AcDbEntity
  8
Layer 1
 62
   156
420
  1785491
370
    18
100
AcDbSpline
210
0.0
220
0.0
230
1.0
 70
     8
 71
     3
 72
     8
 73
     4
 74
     0
 42
0.0000000001
 43
0.0000000001
 12
1.0
 22
0.0
 32
0.0
 13
1.0
 23
0.0
 33
0.0
 40
0.0
 40
0.0
 40
0.0
 40
0.0
 40
1.0
 40
1.0
 40
1.0
 40
1.0
 10
152.1001910713958
 20
-350.8117998573834
 30
0.0
 10
152.1001910713958
 20
-350.8117998573834
 30
0.0
 10
146.9048728335911
 20
-426.1225109472198
 30
0.0
 10
152.7976412381804
 20
-452.5403296361674
 30
0.0
  0
SPLINE
  5
56
330
41
100
AcDbEntity
  8
Layer 1
 62
   156
420
  1785491
370
    18
100
AcDbSpline
210
0.0
220
0.0
230
1.0
 70
     8
 71
     3
 72
    11
 73
     7
 74
     0
 42
0.0000000001
 43
0.0000000001
 12
1.0
 22
0.0
 32
0.0
 13
1.0
 23
0.0
 33
0.0
 40
0.0
 40
0.0
 40
0.0
 40
0.0
 40
1.0
 40
1.0
 40
1.0
 40
2.0
 40
2.0
 40
2.0
 40
2.0
 10
492.4673224273156
 20
-363.613634769652
 30
0.0
 10
492.4673224273156
 20
-363.613634769652
 30
0.0
 10
469.6719686850047
 20
-403.1905415404281
 30
0.0
 10
465.775478309859
 20
-409.2042947440441
 30
0.0
 10
461.8754586033901
 20
-415.2180513412468
 30
0.0
 10
436.4255318810101
 20
-454.3466006841063
 30
0.0
 10
436.4255318810101
 20
-454.3466006841063
 30
0.0
  0
SPLINE
  5
57
330
41
100
AcDbEntity
  8
Layer 1
 62
   156
420
  1785491
370
    18
100
AcDbSpline
210
0.0
220
0.0
230
1.0
 70
     8
 71
     3
 72
     8
 73
     4
 74
     0
 42
0.0000000001
 43
0.0000000001
 12
1.0
 22
0.0
 32
0.0
 13
1.0
 23
0.0
 33
0.0
 40
0.0
 40
0.0
 40
0.0
 40
0.0
 40
1.0
 40
1.0
 40
1.0
 40
1.0
 10
433.7033314830569
 20
-364.8911101778067
 30
0.0
 10
433.7033314830569
 20
-364.8911101778067
 30
0.0
 10
463.6155275403235
 20
-413.6131965170262
 30
0.0
 10
434.1232133156536
 20
-453.7203140537058
 30
0.0
  0
SPLINE
  5
58
330
41
100
AcDbEntity
  8
Layer 1
 62
   156
420
  1785491
370
    18
100
AcDbSpline
210
0.0
220
0.0
230
1.0
 70
     8
 71
     3
 72
    11
 73
     7
 74
     0
 42
0.0000000001
 43
0.0000000001
 12
1.0
 22
0.0
 32
0.0
 13
1.0
 23
0.0
 33
0.0
 40
0.0
 40
0.0
 40
0.0
 40
0.0
 40
1.0
 40
1.0
 40
1.0
 40
2.0
 40
2.0
 40
2.0
 40
2.0
 10
512.9923659244978
 20
-358.4112035717981
 30
0.0
 10
512.9923659244978
 20
-358.4112035717981
 30
0.0
 10
474.8210458953054
 20
-395.6964781852339
 30
0.0
 10
467.0814394940917
 20
-410.9835121099586
 30
0.0
 10
459.3418330928798
 20
-426.2741093018831
 30
0.0
 10
441.2044908303596
 20
-452.795120208968
 30
0.0
 10
437.2155048258555
 20
-454.4106512604376
 30
0.0
  0
SPLINE
  5
59
330
41
100
AcDbEntity
  8
Layer 1
 62
   156
420
  1785491
370
    18
100
AcDbSpline
210
0.0
220
0.0
230
1.0
 70
     8
 71
     3
 72
     8
 73
     4
 74
     0
 42
0.0000000001
 43
0.0000000001
 12
1.0
 22
0.0
 32
0.0
 13
1.0
 23
0.0
 33
0.0
 40
0.0
 40
0.0
 40
0.0
 40
0.0
 40
1.0
 40
1.0
 40
1.0
 40
1.0
 10
481.6923824937112
 20
-366.6205096746662
 30
0.0
 10
481.6923824937112
 20
-366.6205096746662
 30
0.0
 10
451.7090025385332
 20
-437.6326309568831
 30
0.0
 10
436.9308235316203
 20
-454.3074590423021
 30
0.0
  0
SPLINE
  5
5A
330
41
100
AcDbEntity
  8
Layer 1
 62
   156
420
  1785491
370
    18
100
AcDbSpline
210
0.0
220
0.0
230
1.0
 70
     8
 71
     3
 72
     8
 73
     4
 74
     0
 42
0.0000000001
 43
0.0000000001
 12
1.0
 22
0.0
 32
0.0
 13
1.0
 23
0.0
 33
0.0
 40
0.0
 40
0.0
 40
0.0
 40
0.0
 40
1.0
 40
1.0
 40
1.0
 40
1.0
 10
474.1200120997928
 20
-353.4578617192237
 30
0.0
 10
474.1200120997928
 20
-353.4578617192237
 30
0.0
 10
449.3248577838949
 20
-443.5538647760241
 30
0.0
 10
435.8419433724375
 20
-454.2042600369878
 30
0.0
  0
SPLINE
  5
5B
330
41
100
AcDbEntity
  8
Layer 1
 62
   156
420
  1785491
370
    18
100
AcDbSpline
210
0.0
220
0.0
230
1.0
 70
     8
 71
     3
 72
     8
 73
     4
 74
     0
 42
0.0000000001
 43
0.0000000001
 12
1.0
 22
0.0
 32
0.0
 13
1.0
 23
0.0
 33
0.0
 40
0.0
 40
0.0
 40
0.0
 40
0.0
 40
1.0
 40
1.0
 40
1.0
 40
1.0
 10
465.3911884262143
 20
-349.5364624095491
 30
0.0
 10
465.3911884262143
 20
-349.5364624095491
 30
0.0
 10
455.5912398448763
 20
-430.0282590299139
 30
0.0
 10
435.3402082018529
 20
-454.0903915915987
 30
0.0
  0
SPLINE
  5
5C
330
41
100
AcDbEntity
  8
Layer 1
 62
   156
420
  1785491
370
    18
100
AcDbSpline
210
0.0
220
0.0
230
1.0
 70
     8
 71
     3
 72
    11
 73
     7
 74
     0
 42
0.0000000001
 43
0.0000000001
 12
1.0
 22
0.0
 32
0.0
 13
1.0
 23
0.0
 33
0.0
 40
0.0
 40
0.0
 40
0.0
 40
0.0
 40
1.0
 40
1.0
 40
1.0
 40
2.0
 40
2.0
 40
2.0
 40
2.0
 10
514.1524028328895
 20
-373.4705006057457
 30
0.0
 10
514.1524028328895
 20
-373.4705006057457
 30
0.0
 10
479.3402460593006
 20
-397.3511508785105
 30
0.0
 10
470.6078387569942
 20
-411.1080567825984
 30
0.0
 10
461.8754586033901
 20
-424.8685259538888
 30
0.0
 10
451.7801592877404
 20
-441.664335444746
 30
0.0
 10
437.8702500836334
 20
-454.3074590423021
 30
0.0
  0
SPLINE
  5
5D
330
41
100
AcDbEntity
  8
Layer 1
 62
   156
420
  1785491
370
    18
100
AcDbSpline
210
0.0
220
0.0
230
1.0
 70
     8
 71
     3
 72
     8
 73
     4
 74
     0
 42
0.0000000001
 43
0.0000000001
 12
1.0
 22
0.0
 32
0.0
 13
1.0
 23
0.0
 33
0.0
 40
0.0
 40
0.0
 40
0.0
 40
0.0
 40
1.0
 40
1.0
 40
1.0
 40
1.0
 10
447.4531176399178
 20
-361.4251982240385
 30
0.0
 10
447.4531176399178
 20
-361.4251982240385
 30
0.0
 10
456.797565290999
 20
-424.5553860322761
 30
0.0
 10
434.5324257081775
 20
-453.7985973373143
 30
0.0
  0
SPLINE
  5
5E
330
41
100
AcDbEntity
  8
Layer 1
 62
   156
420
  1785491
370
    18
100
AcDbSpline
210
0.0
220
0.0
230
1.0
 70
     8
 71
     3
 72
     8
 73
     4
 74
     0
 42
0.0000000001
 43
0.0000000001
 12
1.0
 22
0.0
 32
0.0
 13
1.0
 23
0.0
 33
0.0
 40
0.0
 40
0.0
 40
0.0
 40
0.0
 40
1.0
 40
1.0
 40
1.0
 40
1.0
 10
407.0328533944521
 20
-356.7209457167437
 30
0.0
 10
407.0328533944521
 20
-356.7209457167437
 30
0.0
 10
467.5226873555457
 20
-407.909026755
 30
0.0
 10
433.7388962833065
 20
-453.4783376684754
 30
0.0
  0
SPLINE
  5
5F
330
41
100
AcDbEntity
  8
Layer 1
 62
   156
420
  1785491
370
    18
100
AcDbSpline
210
0.0
220
0.0
230
1.0
 70
     8
 71
     3
 72
     8
 73
     4
 74
     0
 42
0.0000000001
 43
0.0000000001
 12
1.0
 22
0.0
 32
0.0
 13
1.0
 23
0.0
 33
0.0
 40
0.0
 40
0.0
 40
0.0
 40
0.0
 40
1.0
 40
1.0
 40
1.0
 40
1.0
 10
384.0667071648204
 20
-362.9161778156922
 30
0.0
 10
384.0667071648204
 20
-362.9161778156922
 30
0.0
 10
472.4973884497977
 20
-404.2224874769154
 30
0.0
 10
432.3831443787185
 20
-452.9018756943042
 30
0.0
  0
SPLINE
  5
60
330
41
100
AcDbEntity
  8
Layer 1
 62
   156
420
  1785491
370
    18
100
AcDbSpline
210
0.0
220
0.0
230
1.0
 70
     8
 71
     3
 72
     8
 73
     4
 74
     0
 42
0.0000000001
 43
0.0000000001
 12
1.0
 22
0.0
 32
0.0
 13
1.0
 23
0.0
 33
0.0
 40
0.0
 40
0.0
 40
0.0
 40
0.0
 40
1.0
 40
1.0
 40
1.0
 40
1.0
 10
385.7000274035945
 20
-373.2890183168238
 30
0.0
 10
385.7000274035945
 20
-373.2890183168238
 30
0.0
 10
467.4870954065918
 20
-405.1903828370714
 30
0.0
 10
430.8459033980325
 20
-452.2044187403462
 30
0.0
  0
SPLINE
  5
61
330
41
100
AcDbEntity
  8
Layer 1
 62
   156
420
  1785491
370
    18
100
AcDbSpline
210
0.0
220
0.0
230
1.0
 70
     8
 71
     3
 72
    17
 73
    13
 74
     0
 42
0.0000000001
 43
0.0000000001
 12
1.0
 22
0.0
 32
0.0
 13
1.0
 23
0.0
 33
0.0
 40
0.0
 40
0.0
 40
0.0
 40
0.0
 40
1.0
 40
1.0
 40
1.0
 40
2.0
 40
2.0
 40
2.0
 40
3.0
 40
3.0
 40
3.0
 40
4.0
 40
4.0
 40
4.0
 40
4.0
 10
430.6430754417852
 20
-450.9340630794195
 30
0.0
 10
430.5790045039248
 20
-451.1084256211143
 30
0.0
 10
430.4686993257383
 20
-451.3397189919178
 30
0.0
 10
430.4686993257383
 20
-451.528321028065
 30
0.0
 10
430.4686993257383
 20
-452.4677475800781
 30
0.0
 10
431.7995558701496
 20
-452.7310696326349
 30
0.0
 10
432.9026619494307
 20
-453.2185720959442
 30
0.0
 10
434.5395386682303
 20
-453.9373815044073
 30
0.0
 10
435.599966987209
 20
-454.4070947804139
 30
0.0
 10
437.5144120401892
 20
-454.4070947804139
 30
0.0
 10
438.3363933052642
 20
-454.4070947804139
 30
0.0
 10
439.1406193189141
 20
-454.1579986479592
 30
0.0
 10
439.599649580492
 20
-453.6847288919253
 30
0.0
  0
SPLINE
  5
62
330
41
100
AcDbEntity
  8
Layer 1
 62
   156
420
  1785491
370
    18
100
AcDbSpline
210
0.0
220
0.0
230
1.0
 70
     8
 71
     3
 72
    14
 73
    10
 74
     0
 42
0.0000000001
 43
0.0000000001
 12
1.0
 22
0.0
 32
0.0
 13
1.0
 23
0.0
 33
0.0
 40
0.0
 40
0.0
 40
0.0
 40
0.0
 40
1.0
 40
1.0
 40
1.0
 40
2.0
 40
2.0
 40
2.0
 40
3.0
 40
3.0
 40
3.0
 40
3.0
 10
539.9474710099312
 20
-376.206933710976
 30
0.0
 10
539.0756718758021
 20
-376.0503603565821
 30
0.0
 10
538.5810768139709
 20
-375.9578443656956
 30
0.0
 10
537.6878845022857
 20
-375.9578443656956
 30
0.0
 10
535.9442319366208
 20
-375.9578443656956
 30
0.0
 10
535.0582068823933
 20
-376.6446183052294
 30
0.0
 10
533.3216672767794
 20
-376.6446183052294
 30
0.0
 10
533.3216672767794
 20
-376.6446183052294
 30
0.0
 10
531.5994078886724
 20
-376.6446183052294
 30
0.0
 10
531.5994078886724
 20
-376.6446183052294
 30
0.0
  0
SPLINE
  5
63
330
41
100
AcDbEntity
  8
Layer 1
 62
   156
420
  1785491
370
    18
100
AcDbSpline
210
0.0
220
0.0
230
1.0
 70
     8
 71
     3
 72
    11
 73
     7
 74
     0
 42
0.0000000001
 43
0.0000000001
 12
1.0
 22
0.0
 32
0.0
 13
1.0
 23
0.0
 33
0.0
 40
0.0
 40
0.0
 40
0.0
 40
0.0
 40
1.0
 40
1.0
 40
1.0
 40
2.0
 40
2.0
 40
2.0
 40
2.0
 10
532.2968580554589
 20
-382.5978808061236
 30
0.0
 10
532.2968580554589
 20
-382.5978808061236
 30
0.0
 10
492.1257103039734
 20
-385.857408323619
 30
0.0
 10
465.3413705571566
 20
-421.7015178208694
 30
0.0
 10
465.3413705571566
 20
-421.7015178208694
 30
0.0
 10
448.211055115833
 20
-446.9521696734355
 30
0.0
 10
439.5177962425059
 20
-453.7203140537058
 30
0.0
  0
SPLINE
  5
64
330
41
100
AcDbEntity
  8
Layer 1
 62
   156
420
  1785491
370
    18
100
AcDbSpline
210
0.0
220
0.0
230
1.0
 70
     8
 71
     3
 72
    11
 73
     7
 74
     0
 42
0.0000000001
 43
0.0000000001
 12
1.0
 22
0.0
 32
0.0
 13
1.0
 23
0.0
 33
0.0
 40
0.0
 40
0.0
 40
0.0
 40
0.0
 40
1.0
 40
1.0
 40
1.0
 40
2.0
 40
2.0
 40
2.0
 40
2.0
 10
378.1205711983275
 20
-374.8262592975098
 30
0.0
 10
376.0139676291728
 20
-374.9543672373493
 30
0.0
 10
373.0355649258872
 20
-375.7229877276932
 30
0.0
 10
373.7792764817041
 20
-377.1463602629892
 30
0.0
 10
374.5336574775938
 20
-378.619550667343
 30
0.0
 10
377.451572871747
 20
-377.989707556917
 30
0.0
 10
379.3411225645505
 20
-377.2068543592968
 30
0.0
  0
SPLINE
  5
65
330
41
100
AcDbEntity
  8
Layer 1
 62
   156
420
  1785491
370
    18
100
AcDbSpline
210
0.0
220
0.0
230
1.0
 70
     8
 71
     3
 72
     8
 73
     4
 74
     0
 42
0.0000000001
 43
0.0000000001
 12
1.0
 22
0.0
 32
0.0
 13
1.0
 23
0.0
 33
0.0
 40
0.0
 40
0.0
 40
0.0
 40
0.0
 40
1.0
 40
1.0
 40
1.0
 40
1.0
 10
376.0353336580283
 20
-378.0252927186957
 30
0.0
 10
376.0353336580283
 20
-378.0252927186957
 30
0.0
 10
465.3769353574098
 20
-399.2655891443155
 30
0.0
 10
430.6430754417852
 20
-450.9625284939721
 30
0.0
  0
SPLINE
  5
66
330
41
100
AcDbEntity
  8
Layer 1
 62
   156
420
  1785491
370
    18
100
AcDbSpline
210
0.0
220
0.0
230
1.0
 70
     8
 71
     3
 72
     8
 73
     4
 74
     0
 42
0.0000000001
 43
0.0000000001
 12
1.0
 22
0.0
 32
0.0
 13
1.0
 23
0.0
 33
0.0
 40
0.0
 40
0.0
 40
0.0
 40
0.0
 40
1.0
 40
1.0
 40
1.0
 40
1.0
 10
529.5995801663812
 20
-365.4924878736801
 30
0.0
 10
523.8669144475098
 20
-365.1473192703124
 30
0.0
 10
519.4260111414769
 20
-370.4066880844493
 30
0.0
 10
515.1665697628378
 20
-367.6204303229879
 30
0.0
  0
SPLINE
  5
67
330
41
100
AcDbEntity
  8
Layer 1
 62
   156
420
  1785491
370
    18
100
AcDbSpline
210
0.0
220
0.0
230
1.0
 70
     8
 71
     3
 72
    38
 73
    34
 74
     0
 42
0.0000000001
 43
0.0000000001
 12
1.0
 22
0.0
 32
0.0
 13
1.0
 23
0.0
 33
0.0
 40
0.0
 40
0.0
 40
0.0
 40
0.0
 40
1.0
 40
1.0
 40
1.0
 40
2.0
 40
2.0
 40
2.0
 40
3.0
 40
3.0
 40
3.0
 40
4.0
 40
4.0
 40
4.0
 40
5.0
 40
5.0
 40
5.0
 40
6.0
 40
6.0
 40
6.0
 40
7.0
 40
7.0
 40
7.0
 40
8.0
 40
8.0
 40
8.0
 40
9.0
 40
9.0
 40
9.0
 40
10.0
 40
10.0
 40
10.0
 40
11.0
 40
11.0
 40
11.0
 40
11.0
 10
516.3835646490352
 20
-363.9872687875722
 30
0.0
 10
515.9031683586018
 20
-368.1541941753267
 30
0.0
 10
512.2522108487101
 20
-370.9724738313671
 30
0.0
 10
514.992193646789
 20
-374.6376640485369
 30
0.0
 10
517.3870349902045
 20
-377.8331409896982
 30
0.0
 10
524.906003886339
 20
-374.6376640485369
 30
0.0
 10
527.1655903939882
 20
-371.3816930110661
 30
0.0
 10
528.5604907275538
 20
-369.346273339821
 30
0.0
 10
528.4288195205136
 20
-367.7165095810742
 30
0.0
 10
529.5995801663812
 20
-365.6170325463199
 30
0.0
 10
530.0372715478097
 20
-364.8341793487007
 30
0.0
 10
530.2970303331676
 20
-364.0192974693264
 30
0.0
 10
531.5139980706626
 20
-363.9872687875722
 30
0.0
 10
533.2967990653051
 20
-363.9552401058181
 30
0.0
 10
534.5600281918323
 20
-365.4924878736801
 30
0.0
 10
534.8162576458653
 20
-366.745054347306
 30
0.0
 10
535.7307345402969
 20
-370.7233844860875
 30
0.0
 10
533.2967990653051
 20
-373.1644736441822
 30
0.0
 10
531.1653001359737
 20
-376.893714437685
 30
0.0
 10
529.9482781010738
 20
-378.6871645108758
 30
0.0
 10
528.2972026108746
 20
-380.3774155787551
 30
0.0
 10
529.9482781010738
 20
-381.9075435993909
 30
0.0
 10
530.9553320709692
 20
-382.8505334186048
 30
0.0
 10
532.4640940627523
 20
-382.6904035841853
 30
0.0
 10
534.1259204391317
 20
-382.6583749024312
 30
0.0
 10
538.7340869011623
 20
-382.5302737497668
 30
0.0
 10
540.2108134240152
 20
-378.8366181180454
 30
0.0
 10
540.2108134240152
 20
-375.5165965042434
 30
0.0
 10
540.2108134240152
 20
-374.014940685337
 30
0.0
 10
544.3884014646701
 20
-377.4310347700484
 30
0.0
 10
543.5130729992179
 20
-378.7725675417123
 30
0.0
 10
542.6020711387046
 20
-380.1852638497576
 30
0.0
 10
540.9972570375376
 20
-380.1532351680034
 30
0.0
 10
538.8194967191757
 20
-380.2777798406432
 30
0.0
  0
SPLINE
  5
68
330
41
100
AcDbEntity
  8
Layer 1
 62
   156
420
  1785491
370
    18
100
AcDbSpline
210
0.0
220
0.0
230
1.0
 70
     8
 71
     3
 72
     8
 73
     4
 74
     0
 42
0.0000000001
 43
0.0000000001
 12
1.0
 22
0.0
 32
0.0
 13
1.0
 23
0.0
 33
0.0
 40
0.0
 40
0.0
 40
0.0
 40
0.0
 40
1.0
 40
1.0
 40
1.0
 40
1.0
 10
475.6857320693853
 20
-357.9735121903686
 30
0.0
 10
479.9949913170785
 20
-362.1084156835459
 30
0.0
 10
487.8626852966081
 20
-361.4785725731181
 30
0.0
 10
494.1219815462391
 20
-358.8488881660505
 30
0.0
  0
SPLINE
  5
69
330
41
100
AcDbEntity
  8
Layer 1
 62
   156
420
  1785491
370
    18
100
AcDbSpline
210
0.0
220
0.0
230
1.0
 70
     8
 71
     3
 72
    20
 73
    16
 74
     0
 42
0.0000000001
 43
0.0000000001
 12
1.0
 22
0.0
 32
0.0
 13
1.0
 23
0.0
 33
0.0
 40
0.0
 40
0.0
 40
0.0
 40
0.0
 40
1.0
 40
1.0
 40
1.0
 40
2.0
 40
2.0
 40
2.0
 40
3.0
 40
3.0
 40
3.0
 40
4.0
 40
4.0
 40
4.0
 40
5.0
 40
5.0
 40
5.0
 40
5.0
 10
470.9921557893413
 20
-351.329919269916
 30
0.0
 10
477.6001771223655
 20
-353.585962871889
 30
0.0
 10
474.0346294304836
 20
-359.3826520183902
 30
0.0
 10
476.7319073195595
 20
-364.111813460212
 30
0.0
 10
479.1694535719816
 20
-368.3748181060537
 30
0.0
 10
490.8161926397133
 20
-366.9621217980084
 30
0.0
 10
493.0793627760886
 20
-362.606594374105
 30
0.0
 10
494.5561164476439
 20
-359.695798727179
 30
0.0
 10
493.1683290741239
 20
-356.7814398130504
 30
0.0
 10
496.7338767660058
 20
-355.091181957996
 30
0.0
 10
499.2069878186794
 20
-353.8991095806778
 30
0.0
 10
501.4701579550547
 20
-354.0556761478956
 30
0.0
 10
504.3845168691823
 20
-354.4648953275946
 30
0.0
 10
511.1633306895274
 20
-355.4648159759163
 30
0.0
 10
514.6861734724025
 20
-359.0979775113301
 30
0.0
 10
516.3835646490352
 20
-363.9872687875722
 30
0.0
  0
SPLINE
  5
6A
330
41
100
AcDbEntity
  8
Layer 1
 62
   156
420
  1785491
370
    18
100
AcDbSpline
210
0.0
220
0.0
230
1.0
 70
     8
 71
     3
 72
    11
 73
     7
 74
     0
 42
0.0000000001
 43
0.0000000001
 12
1.0
 22
0.0
 32
0.0
 13
1.0
 23
0.0
 33
0.0
 40
0.0
 40
0.0
 40
0.0
 40
0.0
 40
1.0
 40
1.0
 40
1.0
 40
2.0
 40
2.0
 40
2.0
 40
2.0
 10
453.2569129592939
 20
-353.7140708117304
 30
0.0
 10
450.253587747131
 20
-354.9630808053316
 30
0.0
 10
449.6486603584071
 20
-356.8099052276038
 30
0.0
 10
446.4709861788979
 20
-357.8489675177298
 30
0.0
 10
438.8167895956976
 20
-360.3505507721329
 30
0.0
 10
432.4721106767556
 20
-359.8167801326172
 30
0.0
 10
424.9068803915889
 20
-357.0945797346631
 30
0.0
  0
SPLINE
  5
6B
330
41
100
AcDbEntity
  8
Layer 1
 62
   156
420
  1785491
370
    18
100
AcDbSpline
210
0.0
220
0.0
230
1.0
 70
     8
 71
     3
 72
    14
 73
    10
 74
     0
 42
0.0000000001
 43
0.0000000001
 12
1.0
 22
0.0
 32
0.0
 13
1.0
 23
0.0
 33
0.0
 40
0.0
 40
0.0
 40
0.0
 40
0.0
 40
1.0
 40
1.0
 40
1.0
 40
2.0
 40
2.0
 40
2.0
 40
3.0
 40
3.0
 40
3.0
 40
3.0
 10
470.8178068219968
 20
-351.329919269916
 30
0.0
 10
466.9924731960564
 20
-349.4510593787136
 30
0.0
 10
463.4696304131812
 20
-348.8888301118204
 30
0.0
 10
458.9895515294629
 20
-349.8282566638354
 30
0.0
 10
455.4275603176065
 20
-350.5506157651462
 30
0.0
 10
454.5166127544981
 20
-352.6785650016291
 30
0.0
 10
452.5594627925111
 20
-354.9630808053316
 30
0.0
 10
448.2929084538191
 20
-359.9164226579051
 30
0.0
 10
446.0937821066036
 20
-365.3679432010395
 30
0.0
 10
438.005477770701
 20
-365.3679432010395
 30
0.0
  0
SPLINE
  5
6C
330
41
100
AcDbEntity
  8
Layer 1
 62
   156
420
  1785491
370
    18
100
AcDbSpline
210
0.0
220
0.0
230
1.0
 70
     8
 71
     3
 72
    11
 73
     7
 74
     0
 42
0.0000000001
 43
0.0000000001
 12
1.0
 22
0.0
 32
0.0
 13
1.0
 23
0.0
 33
0.0
 40
0.0
 40
0.0
 40
0.0
 40
0.0
 40
1.0
 40
1.0
 40
1.0
 40
2.0
 40
2.0
 40
2.0
 40
2.0
 10
408.3814923389891
 20
-361.4785725731181
 30
0.0
 10
405.6450660209339
 20
-362.4535842869127
 30
0.0
 10
403.5135670916006
 20
-363.5816060878988
 30
0.0
 10
400.7344358645405
 20
-362.7347023139464
 30
0.0
 10
398.1652455537787
 20
-361.9518423291511
 30
0.0
 10
398.2968896121201
 20
-359.9448880724594
 30
0.0
 10
396.0372759557704
 20
-358.7243434934107
 30
0.0
  0
SPLINE
  5
6D
330
41
100
AcDbEntity
  8
Layer 1
 62
   156
420
  1785491
370
    18
100
AcDbSpline
210
0.0
220
0.0
230
1.0
 70
     8
 71
     3
 72
    11
 73
     7
 74
     0
 42
0.0000000001
 43
0.0000000001
 12
1.0
 22
0.0
 32
0.0
 13
1.0
 23
0.0
 33
0.0
 40
0.0
 40
0.0
 40
0.0
 40
0.0
 40
1.0
 40
1.0
 40
1.0
 40
2.0
 40
2.0
 40
2.0
 40
2.0
 10
384.2126042919663
 20
-372.257068986748
 30
0.0
 10
381.2519839888064
 20
-372.257068986748
 30
0.0
 10
380.298331516693
 20
-369.5028399070397
 30
0.0
 10
377.3448241735841
 20
-369.8800371921598
 30
0.0
 10
376.1242999560636
 20
-371.3532275965135
 30
0.0
 10
376.7327838248111
 20
-372.7267822627546
 30
0.0
 10
377.7754025949616
 20
-374.2640300306157
 30
0.0
  0
SPLINE
  5
6E
330
41
100
AcDbEntity
  8
Layer 1
 62
   156
420
  1785491
370
    18
100
AcDbSpline
210
0.0
220
0.0
230
1.0
 70
     8
 71
     3
 72
    29
 73
    25
 74
     0
 42
0.0000000001
 43
0.0000000001
 12
1.0
 22
0.0
 32
0.0
 13
1.0
 23
0.0
 33
0.0
 40
0.0
 40
0.0
 40
0.0
 40
0.0
 40
1.0
 40
1.0
 40
1.0
 40
2.0
 40
2.0
 40
2.0
 40
3.0
 40
3.0
 40
3.0
 40
4.0
 40
4.0
 40
4.0
 40
5.0
 40
5.0
 40
5.0
 40
6.0
 40
6.0
 40
6.0
 40
7.0
 40
7.0
 40
7.0
 40
8.0
 40
8.0
 40
8.0
 40
8.0
 10
396.9055457585764
 20
-362.8592469865862
 30
0.0
 10
395.688550872379
 20
-361.0729098734446
 30
0.0
 10
397.2542708419678
 20
-357.9735121903686
 30
0.0
 10
394.4715831348822
 20
-357.9735121903686
 30
0.0
 10
391.9059493041459
 20
-357.9735121903686
 30
0.0
 10
391.6888682790923
 20
-360.1690684832101
 30
0.0
 10
389.4292817714468
 20
-360.9803938825589
 30
0.0
 10
385.7783242615551
 20
-362.2970109325179
 30
0.0
 10
381.2555404688319
 20
-362.7702874757251
 30
0.0
 10
381.2555404688319
 20
-365.7095485372056
 30
0.0
 10
381.2555404688319
 20
-365.7095485372056
 30
0.0
 10
381.2555404688319
 20
-368.2502734334139
 30
0.0
 10
381.2555404688319
 20
-368.2502734334139
 30
0.0
 10
381.2555404688319
 20
-368.2502734334139
 30
0.0
 10
383.3408051578372
 20
-371.2571483384263
 30
0.0
 10
383.3408051578372
 20
-371.2571483384263
 30
0.0
 10
385.0808740947723
 20
-372.666288166447
 30
0.0
 10
386.4686614682887
 20
-373.730266178276
 30
0.0
 10
386.4686614682887
 20
-375.6446976569077
 30
0.0
 10
386.4686614682887
 20
-376.7371410832902
 30
0.0
 10
384.5115115063018
 20
-377.0218155903494
 30
0.0
 10
382.9920800744439
 20
-377.0218155903494
 30
0.0
 10
379.7752303172529
 20
-377.0218155903494
 30
0.0
 10
377.4302339915939
 20
-374.9223385555961
 30
0.0
 10
377.4302339915939
 20
-372.6022375901148
 30
0.0
  0
SPLINE
  5
6F
330
41
100
AcDbEntity
  8
Layer 1
 62
   156
420
  1785491
370
    18
100
AcDbSpline
210
0.0
220
0.0
230
1.0
 70
     8
 71
     3
 72
    29
 73
    25
 74
     0
 42
0.0000000001
 43
0.0000000001
 12
1.0
 22
0.0
 32
0.0
 13
1.0
 23
0.0
 33
0.0
 40
0.0
 40
0.0
 40
0.0
 40
0.0
 40
1.0
 40
1.0
 40
1.0
 40
2.0
 40
2.0
 40
2.0
 40
3.0
 40
3.0
 40
3.0
 40
4.0
 40
4.0
 40
4.0
 40
5.0
 40
5.0
 40
5.0
 40
6.0
 40
6.0
 40
6.0
 40
7.0
 40
7.0
 40
7.0
 40
8.0
 40
8.0
 40
8.0
 40
8.0
 10
437.9521034216195
 20
-365.3643799338388
 30
0.0
 10
433.9061594393024
 20
-365.1473192703124
 30
0.0
 10
431.1270010635399
 20
-364.5815267362195
 30
0.0
 10
428.3870182654609
 20
-362.4784932214397
 30
0.0
 10
424.3873356721761
 20
-359.4467093818994
 30
0.0
 10
425.9067942527363
 20
-355.6854399066433
 30
0.0
 10
421.4302718490435
 20
-352.9561197614621
 30
0.0
 10
419.5514187450153
 20
-351.828097960476
 30
0.0
 10
417.6476702808104
 20
-351.9561991131413
 30
0.0
 10
415.1710027481131
 20
-351.9561991131413
 30
0.0
 10
410.907977740746
 20
-351.9561991131413
 30
0.0
 10
406.9901484854472
 20
-354.1517554059828
 30
0.0
 10
406.9901484854472
 20
-357.2191244073038
 30
0.0
 10
406.9901484854472
 20
-359.2225221839708
 30
0.0
 10
408.7302174223805
 20
-360.193977417739
 30
0.0
 10
408.7302174223805
 20
-362.2009316744316
 30
0.0
 10
408.7302174223805
 20
-362.2009316744316
 30
0.0
 10
408.7302174223805
 20
-364.7736852523931
 30
0.0
 10
408.7302174223805
 20
-364.7736852523931
 30
0.0
 10
408.7302174223805
 20
-366.0867458223274
 30
0.0
 10
406.5595700640679
 20
-366.4959650020264
 30
0.0
 10
404.7376749378491
 20
-366.4959650020264
 30
0.0
 10
400.9906381698729
 20
-366.4959650020264
 30
0.0
 10
398.2506282230879
 20
-365.0512400122261
 30
0.0
 10
396.7311967912301
 20
-362.606594374105
 30
0.0
  0
SPLINE
  5
70
330
41
100
AcDbEntity
  8
Layer 1
 62
   156
420
  1785491
370
    18
100
AcDbSpline
210
0.0
220
0.0
230
1.0
 70
     8
 71
     3
 72
    11
 73
     7
 74
     0
 42
0.0000000001
 43
0.0000000001
 12
1.0
 22
0.0
 32
0.0
 13
1.0
 23
0.0
 33
0.0
 40
0.0
 40
0.0
 40
0.0
 40
0.0
 40
1.0
 40
1.0
 40
1.0
 40
2.0
 40
2.0
 40
2.0
 40
2.0
 10
239.4775502102684
 20
-361.0917714344941
 30
0.0
 10
239.4775502102684
 20
-361.0917714344941
 30
0.0
 10
262.272876803876
 20
-400.6651183316581
 30
0.0
 10
266.1693671790217
 20
-406.6824314088863
 30
0.0
 10
270.0694004598445
 20
-412.6961880060881
 30
0.0
 10
295.5193136078724
 20
-451.828293828974
 30
0.0
 10
295.5193136078724
 20
-451.828293828974
 30
0.0
  0
SPLINE
  5
71
330
41
100
AcDbEntity
  8
Layer 1
 62
   156
420
  1785491
370
    18
100
AcDbSpline
210
0.0
220
0.0
230
1.0
 70
     8
 71
     3
 72
     8
 73
     4
 74
     0
 42
0.0000000001
 43
0.0000000001
 12
1.0
 22
0.0
 32
0.0
 13
1.0
 23
0.0
 33
0.0
 40
0.0
 40
0.0
 40
0.0
 40
0.0
 40
1.0
 40
1.0
 40
1.0
 40
1.0
 10
298.2415140058274
 20
-362.3692468426489
 30
0.0
 10
298.2415140058274
 20
-362.3692468426489
 30
0.0
 10
268.3293315229075
 20
-411.0913331818692
 30
0.0
 10
297.8216321732261
 20
-451.198450718548
 30
0.0
  0
SPLINE
  5
72
330
41
100
AcDbEntity
  8
Layer 1
 62
   156
420
  1785491
370
    18
100
AcDbSpline
210
0.0
220
0.0
230
1.0
 70
     8
 71
     3
 72
    11
 73
     7
 74
     0
 42
0.0000000001
 43
0.0000000001
 12
1.0
 22
0.0
 32
0.0
 13
1.0
 23
0.0
 33
0.0
 40
0.0
 40
0.0
 40
0.0
 40
0.0
 40
1.0
 40
1.0
 40
1.0
 40
2.0
 40
2.0
 40
2.0
 40
2.0
 10
218.9524931387332
 20
-355.8893402366402
 30
0.0
 10
218.9524931387332
 20
-355.8893402366402
 30
0.0
 10
257.1238267422777
 20
-393.174614850077
 30
0.0
 10
264.8634195691384
 20
-408.4616487748008
 30
0.0
 10
272.6030123959999
 20
-423.7522459667271
 30
0.0
 10
290.7403546585192
 20
-450.2732568738102
 30
0.0
 10
294.7364807717804
 20
-451.8887879252816
 30
0.0
  0
SPLINE
  5
73
330
41
100
AcDbEntity
  8
Layer 1
 62
   156
420
  1785491
370
    18
100
AcDbSpline
210
0.0
220
0.0
230
1.0
 70
     8
 71
     3
 72
     8
 73
     4
 74
     0
 42
0.0000000001
 43
0.0000000001
 12
1.0
 22
0.0
 32
0.0
 13
1.0
 23
0.0
 33
0.0
 40
0.0
 40
0.0
 40
0.0
 40
0.0
 40
1.0
 40
1.0
 40
1.0
 40
1.0
 10
250.2524901438719
 20
-364.0986463395084
 30
0.0
 10
250.2524901438719
 20
-364.0986463395084
 30
0.0
 10
280.2358565246986
 20
-435.1107676217252
 30
0.0
 10
295.0211349173114
 20
-451.7855957071442
 30
0.0
  0
SPLINE
  5
74
330
41
100
AcDbEntity
  8
Layer 1
 62
   156
420
  1785491
370
    18
100
AcDbSpline
210
0.0
220
0.0
230
1.0
 70
     8
 71
     3
 72
     8
 73
     4
 74
     0
 42
0.0000000001
 43
0.0000000001
 12
1.0
 22
0.0
 32
0.0
 13
1.0
 23
0.0
 33
0.0
 40
0.0
 40
0.0
 40
0.0
 40
0.0
 40
1.0
 40
1.0
 40
1.0
 40
1.0
 10
257.824833389087
 20
-350.9359983840659
 30
0.0
 10
257.824833389087
 20
-350.9359983840659
 30
0.0
 10
282.6235577593634
 20
-441.032001440868
 30
0.0
 10
296.1029021164431
 20
-451.6823967018317
 30
0.0
  0
SPLINE
  5
75
330
41
100
AcDbEntity
  8
Layer 1
 62
   156
420
  1785491
370
    18
100
AcDbSpline
210
0.0
220
0.0
230
1.0
 70
     8
 71
     3
 72
     8
 73
     4
 74
     0
 42
0.0000000001
 43
0.0000000001
 12
1.0
 22
0.0
 32
0.0
 13
1.0
 23
0.0
 33
0.0
 40
0.0
 40
0.0
 40
0.0
 40
0.0
 40
1.0
 40
1.0
 40
1.0
 40
1.0
 10
266.5536706370194
 20
-347.0145990743904
 30
0.0
 10
266.5536706370194
 20
-347.0145990743904
 30
0.0
 10
276.3500491639797
 20
-427.5063956947561
 30
0.0
 10
296.6046372870278
 20
-451.5685282564427
 30
0.0
  0
SPLINE
  5
76
330
41
100
AcDbEntity
  8
Layer 1
 62
   156
420
  1785491
370
    18
100
AcDbSpline
210
0.0
220
0.0
230
1.0
 70
     8
 71
     3
 72
    11
 73
     7
 74
     0
 42
0.0000000001
 43
0.0000000001
 12
1.0
 22
0.0
 32
0.0
 13
1.0
 23
0.0
 33
0.0
 40
0.0
 40
0.0
 40
0.0
 40
0.0
 40
1.0
 40
1.0
 40
1.0
 40
2.0
 40
2.0
 40
2.0
 40
2.0
 10
217.7924426559939
 20
-370.9486372705878
 30
0.0
 10
217.7924426559939
 20
-370.9486372705878
 30
0.0
 10
252.6046130039313
 20
-394.8292875433517
 30
0.0
 10
261.3370067318874
 20
-408.5861934474424
 30
0.0
 10
270.0694004598445
 20
-422.346662618731
 30
0.0
 10
280.1646862011403
 20
-439.1424721095882
 30
0.0
 10
294.0710524995729
 20
-451.7855957071442
 30
0.0
  0
SPLINE
  5
77
330
41
100
AcDbEntity
  8
Layer 1
 62
   156
420
  1785491
370
    18
100
AcDbSpline
210
0.0
220
0.0
230
1.0
 70
     8
 71
     3
 72
     8
 73
     4
 74
     0
 42
0.0000000001
 43
0.0000000001
 12
1.0
 22
0.0
 32
0.0
 13
1.0
 23
0.0
 33
0.0
 40
0.0
 40
0.0
 40
0.0
 40
0.0
 40
1.0
 40
1.0
 40
1.0
 40
1.0
 10
284.4881849432886
 20
-358.9033348888797
 30
0.0
 10
284.4881849432886
 20
-358.9033348888797
 30
0.0
 10
275.1472937722338
 20
-422.0335226971183
 30
0.0
 10
297.4088633006777
 20
-451.2767340021583
 30
0.0
  0
SPLINE
  5
78
330
41
100
AcDbEntity
  8
Layer 1
 62
   156
420
  1785491
370
    18
100
AcDbSpline
210
0.0
220
0.0
230
1.0
 70
     8
 71
     3
 72
     8
 73
     4
 74
     0
 42
0.0000000001
 43
0.0000000001
 12
1.0
 22
0.0
 32
0.0
 13
1.0
 23
0.0
 33
0.0
 40
0.0
 40
0.0
 40
0.0
 40
0.0
 40
1.0
 40
1.0
 40
1.0
 40
1.0
 10
324.9119920944286
 20
-354.1990823815859
 30
0.0
 10
324.9119920944286
 20
-354.1990823815859
 30
0.0
 10
264.4328411477618
 20
-405.3871634198422
 30
0.0
 10
298.2059492055732
 20
-450.9564743333176
 30
0.0
  0
SPLINE
  5
79
330
41
100
AcDbEntity
  8
Layer 1
 62
   156
420
  1785491
370
    18
100
AcDbSpline
210
0.0
220
0.0
230
1.0
 70
     8
 71
     3
 72
     8
 73
     4
 74
     0
 42
0.0000000001
 43
0.0000000001
 12
1.0
 22
0.0
 32
0.0
 13
1.0
 23
0.0
 33
0.0
 40
0.0
 40
0.0
 40
0.0
 40
0.0
 40
1.0
 40
1.0
 40
1.0
 40
1.0
 10
347.8781383240585
 20
-360.3943144805344
 30
0.0
 10
347.8781383240585
 20
-360.3943144805344
 30
0.0
 10
259.443927707759
 20
-401.7006241417585
 30
0.0
 10
299.5617011101604
 20
-450.3800123591482
 30
0.0
  0
SPLINE
  5
7A
330
41
100
AcDbEntity
  8
Layer 1
 62
   156
420
  1785491
370
    18
100
AcDbSpline
210
0.0
220
0.0
230
1.0
 70
     8
 71
     3
 72
     8
 73
     4
 74
     0
 42
0.0000000001
 43
0.0000000001
 12
1.0
 22
0.0
 32
0.0
 13
1.0
 23
0.0
 33
0.0
 40
0.0
 40
0.0
 40
0.0
 40
0.0
 40
1.0
 40
1.0
 40
1.0
 40
1.0
 10
346.2448180852862
 20
-370.7707114616915
 30
0.0
 10
346.2448180852862
 20
-370.7707114616915
 30
0.0
 10
264.4613201366665
 20
-402.6756358555504
 30
0.0
 10
301.0989420908463
 20
-449.6825554051884
 30
0.0
  0
SPLINE
  5
7B
330
41
100
AcDbEntity
  8
Layer 1
 62
   156
420
  1785491
370
    18
100
AcDbSpline
210
0.0
220
0.0
230
1.0
 70
     8
 71
     3
 72
    17
 73
    13
 74
     0
 42
0.0000000001
 43
0.0000000001
 12
1.0
 22
0.0
 32
0.0
 13
1.0
 23
0.0
 33
0.0
 40
0.0
 40
0.0
 40
0.0
 40
0.0
 40
1.0
 40
1.0
 40
1.0
 40
2.0
 40
2.0
 40
2.0
 40
3.0
 40
3.0
 40
3.0
 40
4.0
 40
4.0
 40
4.0
 40
4.0
 10
301.3017700470955
 20
-448.4121997442599
 30
0.0
 10
301.3658409849559
 20
-448.5865622859565
 30
0.0
 10
301.4761461631424
 20
-448.8178556567582
 30
0.0
 10
301.4761461631424
 20
-449.006457692909
 30
0.0
 10
301.4761461631424
 20
-449.9458842449221
 30
0.0
 10
300.1452896187329
 20
-450.2092062974771
 30
0.0
 10
299.035070579399
 20
-450.6967087607864
 30
0.0
 10
297.4053068206513
 20
-451.4155181692477
 30
0.0
 10
296.3448785016717
 20
-451.8852314452542
 30
0.0
 10
294.4304470230418
 20
-451.8852314452542
 30
0.0
 10
293.6084521836174
 20
-451.8852314452542
 30
0.0
 10
292.8006832642941
 20
-451.6361353127995
 30
0.0
 10
292.3452094827398
 20
-451.1628655567674
 30
0.0
  0
SPLINE
  5
7C
330
41
100
AcDbEntity
  8
Layer 1
 62
   156
420
  1785491
370
    18
100
AcDbSpline
210
0.0
220
0.0
230
1.0
 70
     8
 71
     3
 72
    14
 73
    10
 74
     0
 42
0.0000000001
 43
0.0000000001
 12
1.0
 22
0.0
 32
0.0
 13
1.0
 23
0.0
 33
0.0
 40
0.0
 40
0.0
 40
0.0
 40
0.0
 40
1.0
 40
1.0
 40
1.0
 40
2.0
 40
2.0
 40
2.0
 40
3.0
 40
3.0
 40
3.0
 40
3.0
 10
191.9973473302462
 20
-373.6850703758182
 30
0.0
 10
192.8620470786764
 20
-373.5284970214252
 30
0.0
 10
193.3673523036387
 20
-373.4359810305377
 30
0.0
 10
194.2569609865968
 20
-373.4359810305377
 30
0.0
 10
196.0005864035556
 20
-373.4359810305377
 30
0.0
 10
196.8901950865138
 20
-374.1227549700707
 30
0.0
 10
198.6231510633979
 20
-374.1227549700707
 30
0.0
 10
198.6231510633979
 20
-374.1227549700707
 30
0.0
 10
200.3454376002073
 20
-374.1227549700707
 30
0.0
 10
200.3454376002073
 20
-374.1227549700707
 30
0.0
  0
SPLINE
  5
7D
330
41
100
AcDbEntity
  8
Layer 1
 62
   156
420
  1785491
370
    18
100
AcDbSpline
210
0.0
220
0.0
230
1.0
 70
     8
 71
     3
 72
    11
 73
     7
 74
     0
 42
0.0000000001
 43
0.0000000001
 12
1.0
 22
0.0
 32
0.0
 13
1.0
 23
0.0
 33
0.0
 40
0.0
 40
0.0
 40
0.0
 40
0.0
 40
1.0
 40
1.0
 40
1.0
 40
2.0
 40
2.0
 40
2.0
 40
2.0
 10
199.6479874334227
 20
-380.0760174709658
 30
0.0
 10
199.6479874334227
 20
-380.0760174709658
 30
0.0
 10
239.8227188136352
 20
-383.3355449884612
 30
0.0
 10
266.6034885060744
 20
-419.1796544857107
 30
0.0
 10
266.6034885060744
 20
-419.1796544857107
 30
0.0
 10
283.7302338930212
 20
-444.4303063382777
 30
0.0
 10
292.4270492463738
 20
-451.198450718548
 30
0.0
  0
SPLINE
  5
7E
330
41
100
AcDbEntity
  8
Layer 1
 62
   156
420
  1785491
370
    18
100
AcDbSpline
210
0.0
220
0.0
230
1.0
 70
     8
 71
     3
 72
    11
 73
     7
 74
     0
 42
0.0000000001
 43
0.0000000001
 12
1.0
 22
0.0
 32
0.0
 13
1.0
 23
0.0
 33
0.0
 40
0.0
 40
0.0
 40
0.0
 40
0.0
 40
1.0
 40
1.0
 40
1.0
 40
2.0
 40
2.0
 40
2.0
 40
2.0
 10
353.8242742905531
 20
-372.3043959623519
 30
0.0
 10
355.9308778597078
 20
-372.4325039021915
 30
0.0
 10
358.9092805629916
 20
-373.2011243925335
 30
0.0
 10
358.1691254872021
 20
-374.6244969278323
 30
0.0
 10
357.4111880112869
 20
-376.0976873321852
 30
0.0
 10
353.6712642033581
 20
-374.9162911821168
 30
0.0
 10
351.7817416592552
 20
-374.1298747172978
 30
0.0
  0
SPLINE
  5
7F
330
41
100
AcDbEntity
  8
Layer 1
 62
   156
420
  1785491
370
    18
100
AcDbSpline
210
0.0
220
0.0
230
1.0
 70
     8
 71
     3
 72
     8
 73
     4
 74
     0
 42
0.0000000001
 43
0.0000000001
 12
1.0
 22
0.0
 32
0.0
 13
1.0
 23
0.0
 33
0.0
 40
0.0
 40
0.0
 40
0.0
 40
0.0
 40
1.0
 40
1.0
 40
1.0
 40
1.0
 10
355.9130683108797
 20
-375.5034293835379
 30
0.0
 10
355.9130683108797
 20
-375.5034293835379
 30
0.0
 10
266.5714666114945
 20
-396.7437258091586
 30
0.0
 10
301.3017700470955
 20
-448.4406651588142
 30
0.0
  0
SPLINE
  5
80
330
41
100
AcDbEntity
  8
Layer 1
 62
   156
420
  1785491
370
    18
100
AcDbSpline
210
0.0
220
0.0
230
1.0
 70
     8
 71
     3
 72
     8
 73
     4
 74
     0
 42
0.0000000001
 43
0.0000000001
 12
1.0
 22
0.0
 32
0.0
 13
1.0
 23
0.0
 33
0.0
 40
0.0
 40
0.0
 40
0.0
 40
0.0
 40
1.0
 40
1.0
 40
1.0
 40
1.0
 10
202.3452788968498
 20
-362.9706245385223
 30
0.0
 10
208.0885869070944
 20
-362.6254559351564
 30
0.0
 10
212.5152914417304
 20
-367.8848247492924
 30
0.0
 10
216.778289300396
 20
-365.0985669878301
 30
0.0
  0
SPLINE
  5
81
330
41
100
AcDbEntity
  8
Layer 1
 62
   156
420
  1785491
370
    18
100
AcDbSpline
210
0.0
220
0.0
230
1.0
 70
     8
 71
     3
 72
    38
 73
    34
 74
     0
 42
0.0000000001
 43
0.0000000001
 12
1.0
 22
0.0
 32
0.0
 13
1.0
 23
0.0
 33
0.0
 40
0.0
 40
0.0
 40
0.0
 40
0.0
 40
1.0
 40
1.0
 40
1.0
 40
2.0
 40
2.0
 40
2.0
 40
3.0
 40
3.0
 40
3.0
 40
4.0
 40
4.0
 40
4.0
 40
5.0
 40
5.0
 40
5.0
 40
6.0
 40
6.0
 40
6.0
 40
7.0
 40
7.0
 40
7.0
 40
8.0
 40
8.0
 40
8.0
 40
9.0
 40
9.0
 40
9.0
 40
10.0
 40
10.0
 40
10.0
 40
11.0
 40
11.0
 40
11.0
 40
11.0
 10
215.5613079885488
 20
-361.4654054524144
 30
0.0
 10
216.0381342246064
 20
-365.6323308401688
 30
0.0
 10
219.6926482145227
 20
-368.4506104962093
 30
0.0
 10
216.9526518420917
 20
-372.1158007133781
 30
0.0
 10
214.5649506074278
 20
-375.3112776545404
 30
0.0
 10
207.0388551768929
 20
-372.1158007133781
 30
0.0
 10
204.7792550948943
 20
-368.8598296759092
 30
0.0
 10
203.3843411869748
 20
-366.8244100046632
 30
0.0
 10
203.5159988196656
 20
-365.1946462459164
 30
0.0
 10
202.3452788968498
 20
-363.0951692111621
 30
0.0
 10
201.9075875154203
 20
-362.3123160135428
 30
0.0
 10
201.6513852100907
 20
-361.4974341341695
 30
0.0
 10
200.430847418218
 20
-361.4654054524144
 30
0.0
 10
198.6480599979268
 20
-361.4333767706612
 30
0.0
 10
197.3848172970484
 20
-362.9706245385223
 30
0.0
 10
197.1286149917187
 20
-364.2231910121482
 30
0.0
 10
196.2140973742316
 20
-368.2015211509297
 30
0.0
 10
198.6480599979268
 20
-370.6426103090262
 30
0.0
 10
200.7795725016103
 20
-374.3718511025272
 30
0.0
 10
201.9965538134566
 20
-376.1653011757189
 30
0.0
 10
203.6476700267076
 20
-377.8555522435972
 30
0.0
 10
201.9965538134566
 20
-379.3856802642322
 30
0.0
 10
201.0001964323374
 20
-380.3286700834469
 30
0.0
 10
199.4700684117024
 20
-380.1685402490284
 30
0.0
 10
197.8260651585006
 20
-380.1365115672734
 30
0.0
 10
193.2143422164454
 20
-380.008410414609
 30
0.0
 10
191.7340320648664
 20
-376.3147547828867
 30
0.0
 10
191.7340320648664
 20
-372.9947331690846
 30
0.0
 10
191.7340320648664
 20
-371.4930773501792
 30
0.0
 10
187.5635434099113
 20
-374.9091714348924
 30
0.0
 10
188.4317996383661
 20
-376.2507042065536
 30
0.0
 10
189.3427607758267
 20
-377.6634005146007
 30
0.0
 10
190.9547285600966
 20
-377.6313718328456
 30
0.0
 10
193.1253759184092
 20
-377.7559165054863
 30
0.0
  0
SPLINE
  5
82
330
41
100
AcDbEntity
  8
Layer 1
 62
   156
420
  1785491
370
    18
100
AcDbSpline
210
0.0
220
0.0
230
1.0
 70
     8
 71
     3
 72
     8
 73
     4
 74
     0
 42
0.0000000001
 43
0.0000000001
 12
1.0
 22
0.0
 32
0.0
 13
1.0
 23
0.0
 33
0.0
 40
0.0
 40
0.0
 40
0.0
 40
0.0
 40
1.0
 40
1.0
 40
1.0
 40
1.0
 10
256.2591269938475
 20
-355.4516488552126
 30
0.0
 10
251.9498541718012
 20
-359.5865523483881
 30
0.0
 10
244.0786037122489
 20
-358.9567092379621
 30
0.0
 10
237.8228775169928
 20
-356.3270248308927
 30
0.0
  0
SPLINE
  5
83
330
41
100
AcDbEntity
  8
Layer 1
 62
   156
420
  1785491
370
    18
100
AcDbSpline
210
0.0
220
0.0
230
1.0
 70
     8
 71
     3
 72
    20
 73
    16
 74
     0
 42
0.0000000001
 43
0.0000000001
 12
1.0
 22
0.0
 32
0.0
 13
1.0
 23
0.0
 33
0.0
 40
0.0
 40
0.0
 40
0.0
 40
0.0
 40
1.0
 40
1.0
 40
1.0
 40
2.0
 40
2.0
 40
2.0
 40
3.0
 40
3.0
 40
3.0
 40
4.0
 40
4.0
 40
4.0
 40
5.0
 40
5.0
 40
5.0
 40
5.0
 10
260.9527032738906
 20
-348.8080559347582
 30
0.0
 10
254.3411254608409
 20
-351.0640995367312
 30
0.0
 10
257.9102296327455
 20
-356.8607886832324
 30
0.0
 10
255.2129381693212
 20
-361.5899501250542
 30
0.0
 10
252.778975545627
 20
-365.8529547708958
 30
0.0
 10
241.1286528491664
 20
-364.4402584628506
 30
0.0
 10
238.8654962871433
 20
-360.0847310389481
 30
0.0
 10
237.3887426155889
 20
-357.1739353920211
 30
0.0
 10
238.7765299891071
 20
-354.2595764778926
 30
0.0
 10
235.210982297227
 20
-352.5693186228382
 30
0.0
 10
232.7378712445516
 20
-351.3772462455199
 30
0.0
 10
230.4747011081772
 20
-351.5338128127378
 30
0.0
 10
227.5639122484263
 20
-351.9430319924377
 30
0.0
 10
220.7744154136544
 20
-352.9429526407584
 30
0.0
 10
217.2586855908294
 20
-356.5761141761732
 30
0.0
 10
215.5577515085233
 20
-361.4654054524144
 30
0.0
  0
SPLINE
  5
84
330
41
100
AcDbEntity
  8
Layer 1
 62
   156
420
  1785491
370
    18
100
AcDbSpline
210
0.0
220
0.0
230
1.0
 70
     8
 71
     3
 72
    11
 73
     7
 74
     0
 42
0.0000000001
 43
0.0000000001
 12
1.0
 22
0.0
 32
0.0
 13
1.0
 23
0.0
 33
0.0
 40
0.0
 40
0.0
 40
0.0
 40
0.0
 40
1.0
 40
1.0
 40
1.0
 40
2.0
 40
2.0
 40
2.0
 40
2.0
 10
278.6914890096123
 20
-351.1922074765735
 30
0.0
 10
281.6948142217752
 20
-352.4412174701729
 30
0.0
 10
282.2961851304726
 20
-354.288041892446
 30
0.0
 10
285.4703164043094
 20
-355.3271041825728
 30
0.0
 10
293.1280694675343
 20
-357.8286874369751
 30
0.0
 10
299.4727348121251
 20
-357.2949167974602
 30
0.0
 10
307.03796509729
 20
-354.5727163995061
 30
0.0
  0
SPLINE
  5
85
330
41
100
AcDbEntity
  8
Layer 1
 62
   156
420
  1785491
370
    18
100
AcDbSpline
210
0.0
220
0.0
230
1.0
 70
     8
 71
     3
 72
    14
 73
    10
 74
     0
 42
0.0000000001
 43
0.0000000001
 12
1.0
 22
0.0
 32
0.0
 13
1.0
 23
0.0
 33
0.0
 40
0.0
 40
0.0
 40
0.0
 40
0.0
 40
1.0
 40
1.0
 40
1.0
 40
2.0
 40
2.0
 40
2.0
 40
3.0
 40
3.0
 40
3.0
 40
3.0
 10
261.1270658155863
 20
-348.8080559347582
 30
0.0
 10
264.9559423472001
 20
-346.9291960435557
 30
0.0
 10
268.4752286500516
 20
-346.3669667766626
 30
0.0
 10
272.9552939594178
 20
-347.3063933286767
 30
0.0
 10
276.520855225649
 20
-348.0287524299883
 30
0.0
 10
277.4282463087338
 20
-350.1567016664712
 30
0.0
 10
279.3853826963696
 20
-352.4412174701729
 30
0.0
 10
283.6519506094119
 20
-357.3945593227481
 30
0.0
 10
285.8546198623044
 20
-362.8460798658816
 30
0.0
 10
293.9393812925318
 20
-362.8460798658816
 30
0.0
  0
SPLINE
  5
86
330
41
100
AcDbEntity
  8
Layer 1
 62
   156
420
  1785491
370
    18
100
AcDbSpline
210
0.0
220
0.0
230
1.0
 70
     8
 71
     3
 72
    11
 73
     7
 74
     0
 42
0.0000000001
 43
0.0000000001
 12
1.0
 22
0.0
 32
0.0
 13
1.0
 23
0.0
 33
0.0
 40
0.0
 40
0.0
 40
0.0
 40
0.0
 40
1.0
 40
1.0
 40
1.0
 40
2.0
 40
2.0
 40
2.0
 40
2.0
 10
323.3320462047377
 20
-358.8463972725976
 30
0.0
 10
326.0720561515209
 20
-359.8178525063659
 30
0.0
 10
328.43127839728
 20
-361.05974275274
 30
0.0
 10
331.2104367730426
 20
-360.2163954588141
 30
0.0
 10
333.7760706037789
 20
-359.4299789939932
 30
0.0
 10
333.6479558767624
 20
-357.4265812173262
 30
0.0
 10
335.9146824931613
 20
-356.1989236782283
 30
0.0
  0
SPLINE
  5
87
330
41
100
AcDbEntity
  8
Layer 1
 62
   156
420
  1785491
370
    18
100
AcDbSpline
210
0.0
220
0.0
230
1.0
 70
     8
 71
     3
 72
    11
 73
     7
 74
     0
 42
0.0000000001
 43
0.0000000001
 12
1.0
 22
0.0
 32
0.0
 13
1.0
 23
0.0
 33
0.0
 40
0.0
 40
0.0
 40
0.0
 40
0.0
 40
1.0
 40
1.0
 40
1.0
 40
2.0
 40
2.0
 40
2.0
 40
2.0
 10
347.3016627755387
 20
-369.6498026207564
 30
0.0
 10
350.2551701186458
 20
-369.6498026207564
 30
0.0
 10
351.6465139721895
 20
-366.9809765718819
 30
0.0
 10
354.6071342753476
 20
-367.3510541097767
 30
0.0
 10
355.824129161545
 20
-368.8242513013056
 30
0.0
 10
355.2120616640696
 20
-370.2049189275967
 30
0.0
 10
354.1729993739445
 20
-371.7457231754843
 30
0.0
  0
SPLINE
  5
88
330
41
100
AcDbEntity
  8
Layer 1
 62
   156
420
  1785491
370
    18
100
AcDbSpline
210
0.0
220
0.0
230
1.0
 70
     8
 71
     3
 72
    29
 73
    25
 74
     0
 42
0.0000000001
 43
0.0000000001
 12
1.0
 22
0.0
 32
0.0
 13
1.0
 23
0.0
 33
0.0
 40
0.0
 40
0.0
 40
0.0
 40
0.0
 40
1.0
 40
1.0
 40
1.0
 40
2.0
 40
2.0
 40
2.0
 40
3.0
 40
3.0
 40
3.0
 40
4.0
 40
4.0
 40
4.0
 40
5.0
 40
5.0
 40
5.0
 40
6.0
 40
6.0
 40
6.0
 40
7.0
 40
7.0
 40
7.0
 40
8.0
 40
8.0
 40
8.0
 40
8.0
 10
335.0392997303043
 20
-360.3373836514284
 30
0.0
 10
336.252738136478
 20
-358.5510465382877
 30
0.0
 10
334.6905746469129
 20
-355.4516488552126
 30
0.0
 10
337.4732623539985
 20
-355.4516488552126
 30
0.0
 10
340.0388961847329
 20
-355.4516488552126
 30
0.0
 10
340.2595336898121
 20
-357.6472051480523
 30
0.0
 10
342.5155637174321
 20
-358.458530547402
 30
0.0
 10
346.1665212273256
 20
-359.77514759736
 30
0.0
 10
350.6893050200488
 20
-360.2484241405682
 30
0.0
 10
350.6893050200488
 20
-363.1876852020478
 30
0.0
 10
350.6893050200488
 20
-363.1876852020478
 30
0.0
 10
350.6893050200488
 20
-365.7284100982561
 30
0.0
 10
350.6893050200488
 20
-365.7284100982561
 30
0.0
 10
350.6893050200488
 20
-365.7284100982561
 30
0.0
 10
348.6040674797478
 20
-368.7352850032694
 30
0.0
 10
348.6040674797478
 20
-368.7352850032694
 30
0.0
 10
346.8639713941102
 20
-370.1444248312891
 30
0.0
 10
345.4726275405665
 20
-371.2084028431182
 30
0.0
 10
345.4726275405665
 20
-373.1228343217499
 30
0.0
 10
345.4726275405665
 20
-374.2152777481324
 30
0.0
 10
347.4333339825789
 20
-374.503508735218
 30
0.0
 10
348.9456524543857
 20
-374.503508735218
 30
0.0
 10
352.1660586916023
 20
-374.503508735218
 30
0.0
 10
353.4292878181295
 20
-373.1904481652837
 30
0.0
 10
354.2370703118031
 20
-371.8702678481241
 30
0.0
  0
SPLINE
  5
89
330
41
100
AcDbEntity
  8
Layer 1
 62
   156
420
  1785491
370
    18
100
AcDbSpline
210
0.0
220
0.0
230
1.0
 70
     8
 71
     3
 72
    29
 73
    25
 74
     0
 42
0.0000000001
 43
0.0000000001
 12
1.0
 22
0.0
 32
0.0
 13
1.0
 23
0.0
 33
0.0
 40
0.0
 40
0.0
 40
0.0
 40
0.0
 40
1.0
 40
1.0
 40
1.0
 40
2.0
 40
2.0
 40
2.0
 40
3.0
 40
3.0
 40
3.0
 40
4.0
 40
4.0
 40
4.0
 40
5.0
 40
5.0
 40
5.0
 40
6.0
 40
6.0
 40
6.0
 40
7.0
 40
7.0
 40
7.0
 40
8.0
 40
8.0
 40
8.0
 40
8.0
 10
293.9927692159654
 20
-362.842516598681
 30
0.0
 10
298.0386860495773
 20
-362.6254559351564
 30
0.0
 10
300.82495738539
 20
-362.0596634010617
 30
0.0
 10
303.5649401834708
 20
-359.9566298862819
 30
0.0
 10
307.5610662967301
 20
-356.9248460467406
 30
0.0
 10
306.0416077161699
 20
-353.1635765714855
 30
0.0
 10
310.5181301198627
 20
-350.4342564263052
 30
0.0
 10
312.3863137838143
 20
-349.3062346253182
 30
0.0
 10
314.2971752080684
 20
-349.4343357779844
 30
0.0
 10
316.780982849521
 20
-349.4343357779844
 30
0.0
 10
321.0368677481347
 20
-349.4343357779844
 30
0.0
 10
324.9511405234098
 20
-351.629892070825
 30
0.0
 10
324.9511405234098
 20
-354.697261072145
 30
0.0
 10
324.9511405234098
 20
-356.700658848813
 30
0.0
 10
323.2146280664983
 20
-357.6721140825812
 30
0.0
 10
323.2146280664983
 20
-359.6790683392737
 30
0.0
 10
323.2146280664983
 20
-359.6790683392737
 30
0.0
 10
323.2146280664983
 20
-362.2518219172352
 30
0.0
 10
323.2146280664983
 20
-362.2518219172352
 30
0.0
 10
323.2146280664983
 20
-363.5648824871687
 30
0.0
 10
325.3888319048383
 20
-363.9741016668686
 30
0.0
 10
327.2178671398087
 20
-363.9741016668686
 30
0.0
 10
330.9470943589586
 20
-363.9741016668686
 30
0.0
 10
333.6906607857672
 20
-362.5293766770683
 30
0.0
 10
335.2136758463512
 20
-360.0847310389481
 30
0.0
  0
ENDBLK
  5
44
330
41
100
AcDbEntity
  8
0
100
AcDbBlockEnd
  0
ENDSEC
  0
SECTION
  2
ENTITIES
  0
INSERT
  5
42
330
1F
100
AcDbEntity
  8
Layer 1
100
AcDbBlockReference
  2
block 2
 10
0.0
 20
0.0
 30
0.0
  0
ENDSEC
  0
SECTION
  2
OBJECTS
  0
DICTIONARY
  5
C
330
0
100
AcDbDictionary
281
     1
  3
ACAD_GROUP
350
D
  3
ACAD_LAYOUT
350
1A
  3
ACAD_MATERIAL
350
3B
  3
ACAD_MLEADERSTYLE
350
8B
  3
ACAD_MLINESTYLE
350
17
  3
ACAD_PLOTSETTINGS
350
19
  3
ACAD_PLOTSTYLENAME
350
E
  3
ACAD_TABLESTYLE
350
8A
  3
ACAD_VISUALSTYLE
350
2A
  0
SUN
  5
3F
330
29
100
AcDbSun
 90
        1
290
     0
 63
     7
421
 16777215
 40
1.0
291
     1
 91
  2455826
 92
 54000000
292
     0
 70
     2
 71
   256
280
     1
  0
DICTIONARY
  5
D
102
{ACAD_REACTORS
330
C
102
}
330
C
100
AcDbDictionary
281
     1
  0
DICTIONARY
  5
1A
102
{ACAD_REACTORS
330
C
102
}
330
C
100
AcDbDictionary
281
     1
  3
Layout1
350
1E
  3
Layout2
350
26
  3
Model
350
22
  0
DICTIONARY
  5
3B
102
{ACAD_REACTORS
330
C
102
}
330
C
100
AcDbDictionary
281
     1
  3
ByBlock
350
3D
  3
ByLayer
350
3C
  3
Global
350
3E
  0
DICTIONARY
  5
8B
102
{ACAD_REACTORS
330
C
102
}
330
C
100
AcDbDictionary
281
     1
  0
DICTIONARY
  5
17
102
{ACAD_REACTORS
330
C
102
}
330
C
100
AcDbDictionary
281
     1
  3
Standard
350
18
  0
DICTIONARY
  5
19
102
{ACAD_REACTORS
330
C
102
}
330
C
100
AcDbDictionary
281
     1
  0
ACDBDICTIONARYWDFLT
  5
E
102
{ACAD_REACTORS
330
C
102
}
330
C
100
AcDbDictionary
281
     1
  3
Normal
350
F
100
AcDbDictionaryWithDefault
340
F
  0
DICTIONARY
  5
8A
102
{ACAD_REACTORS
330
C
102
}
330
C
100
AcDbDictionary
281
     1
  0
DICTIONARY
  5
2A
102
{ACAD_REACTORS
330
C
102
}
330
C
100
AcDbDictionary
281
     1
  3
2dWireframe
350
2F
  3
3D Hidden
350
31
  3
3dWireframe
350
30
  3
Basic
350
32
  3
Brighten
350
36
  3
ColorChange
350
3A
  3
Conceptual
350
34
  3
Dim
350
35
  3
Facepattern
350
39
  3
Flat
350
2B
  3
FlatWithEdges
350
2C
  3
Gouraud
350
2D
  3
GouraudWithEdges
350
2E
  3
Linepattern
350
38
  3
Realistic
350
33
  3
Thicken
350
37
  0
LAYOUT
  5
1E
102
{ACAD_REACTORS
330
1A
102
}
330
1A
100
AcDbPlotSettings
  1

  2
none_device
  4

  6

 40
0.0
 41
0.0
 42
0.0
 43
0.0
 44
0.0
 45
0.0
 46
0.0
 47
0.0
 48
0.0
 49
0.0
140
0.0
141
0.0
142
1.0
143
1.0
 70
   688
 72
     0
 73
     0
 74
     5
  7

 75
    16
 76
     0
 77
     2
 78
   300
147
1.0
148
0.0
149
0.0
100
AcDbLayout
  1
Layout1
 70
     1
 71
     1
 10
0.0
 20
0.0
 11
12.0
 21
9.0
 12
0.0
 22
0.0
 32
0.0
 14
1.000000000000000E+20
 24
1.000000000000000E+20
 34
1.000000000000000E+20
 15
-1.000000000000000E+20
 25
-1.000000000000000E+20
 35
-1.000000000000000E+20
146
0.0
 13
0.0
 23
0.0
 33
0.0
 16
1.0
 26
0.0
 36
0.0
 17
0.0
 27
1.0
 37
0.0
 76
     0
330
1B
  0
LAYOUT
  5
26
102
{ACAD_REACTORS
330
1A
102
}
330
1A
100
AcDbPlotSettings
  1

  2
none_device
  4

  6

 40
0.0
 41
0.0
 42
0.0
 43
0.0
 44
0.0
 45
0.0
 46
0.0
 47
0.0
 48
0.0
 49
0.0
140
0.0
141
0.0
142
1.0
143
1.0
 70
   688
 72
     0
 73
     0
 74
     5
  7

 75
    16
 76
     0
 77
     2
 78
   300
147
1.0
148
0.0
149
0.0
100
AcDbLayout
  1
Layout2
 70
     1
 71
     2
 10
0.0
 20
0.0
 11
0.0
 21
0.0
 12
0.0
 22
0.0
 32
0.0
 14
0.0
 24
0.0
 34
0.0
 15
0.0
 25
0.0
 35
0.0
146
0.0
 13
0.0
 23
0.0
 33
0.0
 16
1.0
 26
0.0
 36
0.0
 17
0.0
 27
1.0
 37
0.0
 76
     0
330
23
  0
LAYOUT
  5
22
102
{ACAD_REACTORS
330
1A
102
}
330
1A
100
AcDbPlotSettings
  1

  2
none_device
  4

  6

 40
0.0
 41
0.0
 42
0.0
 43
0.0
 44
0.0
 45
0.0
 46
0.0
 47
0.0
 48
0.0
 49
0.0
140
0.0
141
0.0
142
1.0
143
1.0
 70
  1712
 72
     0
 73
     0
 74
     0
  7

 75
     0
 76
     0
 77
     2
 78
   300
147
1.0
148
0.0
149
0.0
100
AcDbLayout
  1
Model
 70
     1
 71
     0
 10
0.0
 20
0.0
 11
12.0
 21
9.0
 12
0.0
 22
0.0
 32
0.0
 14
1.000000000000000E+20
 24
1.000000000000000E+20
 34
1.000000000000000E+20
 15
-1.000000000000000E+20
 25
-1.000000000000000E+20
 35
-1.000000000000000E+20
146
0.0
 13
0.0
 23
0.0
 33
0.0
 16
1.0
 26
0.0
 36
0.0
 17
0.0
 27
1.0
 37
0.0
 76
     0
330
1F
331
29
  0
MATERIAL
  5
3D
102
{ACAD_REACTORS
330
3B
102
}
330
3B
100
AcDbMaterial
  1
ByBlock
 72
     1
 94
      127
  0
MATERIAL
  5
3C
102
{ACAD_REACTORS
330
3B
102
}
330
3B
100
AcDbMaterial
  1
ByLayer
 72
     1
 94
      127
  0
MATERIAL
  5
3E
102
{ACAD_REACTORS
330
3B
102
}
330
3B
100
AcDbMaterial
  1
Global
 72
     1
 94
      127
  0
MLINESTYLE
  5
18
102
{ACAD_REACTORS
330
17
102
}
330
17
100
AcDbMlineStyle
  2
Standard
 70
     0
  3

 62
   256
 51
90.0
 52
90.0
 71
     2
 49
0.5
 62
   256
  6
BYLAYER
 49
-0.5
 62
   256
  6
BYLAYER
  0
ACDBPLACEHOLDER
  5
F
102
{ACAD_REACTORS
330
E
102
}
330
E
  0
VISUALSTYLE
  5
2F
102
{ACAD_REACTORS
330
2A
102
}
330
2A
100
AcDbVisualStyle
  2
2dWireframe
 70
     4
177
     2
291
     0
 71
     0
176
     1
 72
     2
176
     1
 73
     0
176
     1
 90
        0
176
     1
 40
-0.6
176
     1
 41
-30.0
176
     1
 62
     5
 63
     7
421
 16777215
176
     1
 74
     1
176
     1
 91
        4
176
     1
 64
     7
176
     1
 65
   257
176
     1
 75
     1
176
     1
175
     1
176
     1
 42
1.0
176
     1
 92
        0
176
     1
 66
   257
176
     1
 43
1.0
176
     1
 76
     1
176
     1
 77
     6
176
     1
 78
     2
176
     1
 67
     7
176
     1
 79
     5
176
     1
170
     0
176
     1
171
     0
176
     1
290
     0
176
     1
 93
        1
176
     1
 44
0.0
176
     1
173
     0
176
     1
  0
VISUALSTYLE
  5
31
102
{ACAD_REACTORS
330
2A
102
}
330
2A
100
AcDbVisualStyle
  2
3D Hidden
 70
     6
177
     2
291
     0
 71
     1
176
     1
 72
     2
176
     1
 73
     2
176
     1
 90
        0
176
     1
 40
-0.6
176
     1
 41
-30.0
176
     1
 62
     5
 63
     7
421
 16777215
176
     1
 74
     2
176
     1
 91
        2
176
     1
 64
     7
176
     1
 65
   257
176
     1
 75
     2
176
     1
175
     1
176
     1
 42
40.0
176
     1
 92
        0
176
     1
 66
   257
176
     1
 43
1.0
176
     1
 76
     1
176
     1
 77
     6
176
     1
 78
     2
176
     1
 67
     7
176
     1
 79
     3
176
     1
170
     0
176
     1
171
     0
176
     1
290
     0
176
     1
 93
        1
176
     1
 44
0.0
176
     1
173
     0
176
     1
  0
VISUALSTYLE
  5
30
102
{ACAD_REACTORS
330
2A
102
}
330
2A
100
AcDbVisualStyle
  2
3dWireframe
 70
     5
177
     2
291
     0
 71
     0
176
     1
 72
     2
176
     1
 73
     0
176
     1
 90
        0
176
     1
 40
-0.6
176
     1
 41
-30.0
176
     1
 62
     5
 63
     7
421
 16777215
176
     1
 74
     1
176
     1
 91
        4
176
     1
 64
     7
176
     1
 65
   257
176
     1
 75
     1
176
     1
175
     1
176
     1
 42
1.0
176
     1
 92
        0
176
     1
 66
   257
176
     1
 43
1.0
176
     1
 76
     1
176
     1
 77
     6
176
     1
 78
     2
176
     1
 67
     7
176
     1
 79
     5
176
     1
170
     0
176
     1
171
     0
176
     1
290
     0
176
     1
 93
        1
176
     1
 44
0.0
176
     1
173
     0
176
     1
  0
VISUALSTYLE
  5
32
102
{ACAD_REACTORS
330
2A
102
}
330
2A
100
AcDbVisualStyle
  2
Basic
 70
     7
177
     2
291
     1
 71
     1
176
     1
 72
     0
176
     1
 73
     1
176
     1
 90
        0
176
     1
 40
-0.6
176
     1
 41
-30.0
176
     1
 62
     5
 63
     7
421
 16777215
176
     1
 74
     0
176
     1
 91
        4
176
     1
 64
     7
176
     1
 65
   257
176
     1
 75
     1
176
     1
175
     1
176
     1
 42
1.0
176
     1
 92
        8
176
     1
 66
     7
176
     1
 43
1.0
176
     1
 76
     1
176
     1
 77
     6
176
     1
 78
     2
176
     1
 67
     7
176
     1
 79
     5
176
     1
170
     0
176
     1
171
     0
176
     1
290
     0
176
     1
 93
        1
176
     1
 44
0.0
176
     1
173
     0
176
     1
  0
VISUALSTYLE
  5
36
102
{ACAD_REACTORS
330
2A
102
}
330
2A
100
AcDbVisualStyle
  2
Brighten
 70
    12
177
     2
291
     1
 71
     2
176
     1
 72
     2
176
     1
 73
     0
176
     1
 90
        0
176
     1
 40
-0.6
176
     1
 41
-30.0
176
     1
 62
     5
 63
     7
421
 16777215
176
     1
 74
     1
176
     1
 91
        4
176
     1
 64
     7
176
     1
 65
   257
176
     1
 75
     1
176
     1
175
     1
176
     1
 42
1.0
176
     1
 92
        8
176
     1
 66
     7
176
     1
 43
1.0
176
     1
 76
     1
176
     1
 77
     6
176
     1
 78
     2
176
     1
 67
     7
176
     1
 79
     5
176
     1
170
     0
176
     1
171
     0
176
     1
290
     0
176
     1
 93
        1
176
     1
 44
50.0
176
     1
173
     0
176
     1
  0
VISUALSTYLE
  5
3A
102
{ACAD_REACTORS
330
2A
102
}
330
2A
100
AcDbVisualStyle
  2
ColorChange
 70
    16
177
     2
291
     1
 71
     2
176
     1
 72
     2
176
     1
 73
     3
176
     1
 90
        0
176
     1
 40
-0.6
176
     1
 41
-30.0
176
     1
 62
     5
 63
     8
421
  8421504
176
     1
 74
     1
176
     1
 91
        4
176
     1
 64
     7
176
     1
 65
   257
176
     1
 75
     1
176
     1
175
     1
176
     1
 42
1.0
176
     1
 92
        8
176
     1
 66
     8
424
  8421504
176
     1
 43
1.0
176
     1
 76
     1
176
     1
 77
     6
176
     1
 78
     2
176
     1
 67
     7
176
     1
 79
     5
176
     1
170
     0
176
     1
171
     0
176
     1
290
     0
176
     1
 93
        1
176
     1
 44
0.0
176
     1
173
     0
176
     1
  0
VISUALSTYLE
  5
34
102
{ACAD_REACTORS
330
2A
102
}
330
2A
100
AcDbVisualStyle
  2
Conceptual
 70
     9
177
     2
291
     0
 71
     3
176
     1
 72
     2
176
     1
 73
     0
176
     1
 90
        0
176
     1
 40
-0.6
176
     1
 41
-30.0
176
     1
 62
     5
 63
     7
421
 16777215
176
     1
 74
     2
176
     1
 91
        2
176
     1
 64
     7
176
     1
 65
   257
176
     1
 75
     1
176
     1
175
     1
176
     1
 42
40.0
176
     1
 92
        8
176
     1
 66
     7
176
     1
 43
1.0
176
     1
 76
     1
176
     1
 77
     6
176
     1
 78
     2
176
     1
 67
     7
176
     1
 79
     3
176
     1
170
     0
176
     1
171
     0
176
     1
290
     0
176
     1
 93
        1
176
     1
 44
0.0
176
     1
173
     0
176
     1
  0
VISUALSTYLE
  5
35
102
{ACAD_REACTORS
330
2A
102
}
330
2A
100
AcDbVisualStyle
  2
Dim
 70
    11
177
     2
291
     1
 71
     2
176
     1
 72
     2
176
     1
 73
     0
176
     1
 90
        0
176
     1
 40
-0.6
176
     1
 41
-30.0
176
     1
 62
     5
 63
     7
421
 16777215
176
     1
 74
     1
176
     1
 91
        4
176
     1
 64
     7
176
     1
 65
   257
176
     1
 75
     1
176
     1
175
     1
176
     1
 42
1.0
176
     1
 92
        8
176
     1
 66
     7
176
     1
 43
1.0
176
     1
 76
     1
176
     1
 77
     6
176
     1
 78
     2
176
     1
 67
     7
176
     1
 79
     5
176
     1
170
     0
176
     1
171
     0
176
     1
290
     0
176
     1
 93
        1
176
     1
 44
-50.0
176
     1
173
     0
176
     1
  0
VISUALSTYLE
  5
39
102
{ACAD_REACTORS
330
2A
102
}
330
2A
100
AcDbVisualStyle
  2
Facepattern
 70
    15
177
     2
291
     1
 71
     2
176
     1
 72
     2
176
     1
 73
     0
176
     1
 90
        0
176
     1
 40
-0.6
176
     1
 41
-30.0
176
     1
 62
     5
 63
     7
421
 16777215
176
     1
 74
     1
176
     1
 91
        4
176
     1
 64
     7
176
     1
 65
   257
176
     1
 75
     1
176
     1
175
     1
176
     1
 42
1.0
176
     1
 92
        8
176
     1
 66
     7
176
     1
 43
1.0
176
     1
 76
     1
176
     1
 77
     6
176
     1
 78
     2
176
     1
 67
     7
176
     1
 79
     5
176
     1
170
     0
176
     1
171
     0
176
     1
290
     0
176
     1
 93
        1
176
     1
 44
0.0
176
     1
173
     0
176
     1
  0
VISUALSTYLE
  5
2B
102
{ACAD_REACTORS
330
2A
102
}
330
2A
100
AcDbVisualStyle
  2
Flat
 70
     0
177
     2
291
     1
 71
     2
176
     1
 72
     1
176
     1
 73
     1
176
     1
 90
        2
176
     1
 40
-0.6
176
     1
 41
30.0
176
     1
 62
     5
 63
     7
421
 16777215
176
     1
 74
     0
176
     1
 91
        4
176
     1
 64
     7
176
     1
 65
   257
176
     1
 75
     1
176
     1
175
     1
176
     1
 42
1.0
176
     1
 92
        8
176
     1
 66
     7
176
     1
 43
1.0
176
     1
 76
     1
176
     1
 77
     6
176
     1
 78
     2
176
     1
 67
     7
176
     1
 79
     5
176
     1
170
     0
176
     1
171
     0
176
     1
290
     0
176
     1
 93
       13
176
     1
 44
0.0
176
     1
173
     0
176
     1
  0
VISUALSTYLE
  5
2C
102
{ACAD_REACTORS
330
2A
102
}
330
2A
100
AcDbVisualStyle
  2
FlatWithEdges
 70
     1
177
     2
291
     1
 71
     2
176
     1
 72
     1
176
     1
 73
     1
176
     1
 90
        2
176
     1
 40
-0.6
176
     1
 41
30.0
176
     1
 62
     5
 63
     7
421
 16777215
176
     1
 74
     1
176
     1
 91
        4
176
     1
 64
     7
176
     1
 65
   257
176
     1
 75
     1
176
     1
175
     1
176
     1
 42
1.0
176
     1
 92
        0
176
     1
 66
   257
176
     1
 43
1.0
176
     1
 76
     1
176
     1
 77
     6
176
     1
 78
     2
176
     1
 67
     7
176
     1
 79
     5
176
     1
170
     0
176
     1
171
     0
176
     1
290
     0
176
     1
 93
       13
176
     1
 44
0.0
176
     1
173
     0
176
     1
  0
VISUALSTYLE
  5
2D
102
{ACAD_REACTORS
330
2A
102
}
330
2A
100
AcDbVisualStyle
  2
Gouraud
 70
     2
177
     2
291
     1
 71
     2
176
     1
 72
     2
176
     1
 73
     1
176
     1
 90
        2
176
     1
 40
-0.6
176
     1
 41
30.0
176
     1
 62
     5
 63
     7
421
 16777215
176
     1
 74
     0
176
     1
 91
        4
176
     1
 64
     7
176
     1
 65
   257
176
     1
 75
     1
176
     1
175
     1
176
     1
 42
1.0
176
     1
 92
        0
176
     1
 66
     7
176
     1
 43
1.0
176
     1
 76
     1
176
     1
 77
     6
176
     1
 78
     2
176
     1
 67
     7
176
     1
 79
     5
176
     1
170
     0
176
     1
171
     0
176
     1
290
     0
176
     1
 93
       13
176
     1
 44
0.0
176
     1
173
     0
176
     1
  0
VISUALSTYLE
  5
2E
102
{ACAD_REACTORS
330
2A
102
}
330
2A
100
AcDbVisualStyle
  2
GouraudWithEdges
 70
     3
177
     2
291
     1
 71
     2
176
     1
 72
     2
176
     1
 73
     1
176
     1
 90
        2
176
     1
 40
-0.6
176
     1
 41
30.0
176
     1
 62
     5
 63
     7
421
 16777215
176
     1
 74
     1
176
     1
 91
        4
176
     1
 64
     7
176
     1
 65
   257
176
     1
 75
     1
176
     1
175
     1
176
     1
 42
1.0
176
     1
 92
        0
176
     1
 66
   257
176
     1
 43
1.0
176
     1
 76
     1
176
     1
 77
     6
176
     1
 78
     2
176
     1
 67
     7
176
     1
 79
     5
176
     1
170
     0
176
     1
171
     0
176
     1
290
     0
176
     1
 93
       13
176
     1
 44
0.0
176
     1
173
     0
176
     1
  0
VISUALSTYLE
  5
38
102
{ACAD_REACTORS
330
2A
102
}
330
2A
100
AcDbVisualStyle
  2
Linepattern
 70
    14
177
     2
291
     1
 71
     2
176
     1
 72
     2
176
     1
 73
     0
176
     1
 90
        0
176
     1
 40
-0.6
176
     1
 41
-30.0
176
     1
 62
     5
 63
     7
421
 16777215
176
     1
 74
     1
176
     1
 91
        4
176
     1
 64
     7
176
     1
 65
   257
176
     1
 75
     7
176
     1
175
     7
176
     1
 42
1.0
176
     1
 92
        8
176
     1
 66
     7
176
     1
 43
1.0
176
     1
 76
     1
176
     1
 77
     6
176
     1
 78
     2
176
     1
 67
     7
176
     1
 79
     5
176
     1
170
     0
176
     1
171
     0
176
     1
290
     0
176
     1
 93
        1
176
     1
 44
0.0
176
     1
173
     0
176
     1
  0
VISUALSTYLE
  5
33
102
{ACAD_REACTORS
330
2A
102
}
330
2A
100
AcDbVisualStyle
  2
Realistic
 70
     8
177
     2
291
     0
 71
     2
176
     1
 72
     2
176
     1
 73
     0
176
     1
 90
        0
176
     1
 40
-0.6
176
     1
 41
-30.0
176
     1
 62
     5
 63
     7
421
 16777215
176
     1
 74
     1
176
     1
 91
        0
176
     1
 64
     7
176
     1
 65
   257
176
     1
 75
     1
176
     1
175
     1
176
     1
 42
1.0
176
     1
 92
        8
176
     1
 66
     8
424
  7895160
176
     1
 43
1.0
176
     1
 76
     1
176
     1
 77
     6
176
     1
 78
     2
176
     1
 67
     7
176
     1
 79
     5
176
     1
170
     0
176
     1
171
     0
176
     1
290
     0
176
     1
 93
       13
176
     1
 44
0.0
176
     1
173
     0
176
     1
  0
VISUALSTYLE
  5
37
102
{ACAD_REACTORS
330
2A
102
}
330
2A
100
AcDbVisualStyle
  2
Thicken
 70
    13
177
     2
291
     1
 71
     2
176
     1
 72
     2
176
     1
 73
     0
176
     1
 90
        0
176
     1
 40
-0.6
176
     1
 41
-30.0
176
     1
 62
     5
 63
     7
421
 16777215
176
     1
 74
     1
176
     1
 91
        4
176
     1
 64
     7
176
     1
 65
   257
176
     1
 75
     1
176
     1
175
     1
176
     1
 42
1.0
176
     1
 92
       12
176
     1
 66
     7
176
     1
 43
1.0
176
     1
 76
     1
176
     1
 77
     6
176
     1
 78
     2
176
     1
 67
     7
176
     1
 79
     5
176
     1
170
     0
176
     1
171
     0
176
     1
290
     0
176
     1
 93
        1
176
     1
 44
0.0
176
     1
173
     0
176
     1
  0
ENDSEC
  0
EOF
