  0
SECTION
  2
HEADER
  9
$ACADVER
  1
AC1024
  9
$ACADMAINTVER
 70
     6
  9
$DWGCODEPAGE
  3
UNDEFINED
  9
$INSBASE
 10
0.0
 20
0.0
 30
0.0
  9
$EXTMIN
 10
1.000000000000000E+20
 20
1.000000000000000E+20
 30
1.000000000000000E+20
  9
$EXTMAX
 10
-1.000000000000000E+20
 20
-1.000000000000000E+20
 30
-1.000000000000000E+20
  9
$LIMMIN
 10
0.0
 20
0.0
  9
$LIMMAX
 10
12.0
 20
9.0
  9
$ORTHOMODE
 70
     0
  9
$REGENMODE
 70
     1
  9
$FILLMODE
 70
     1
  9
$QTEXTMODE
 70
     0
  9
$MIRRTEXT
 70
     1
  9
$LTSCALE
 40
1.0
  9
$ATTMODE
 70
     1
  9
$TEXTSIZE
 40
0.2
  9
$TRACEWID
 40
0.05
  9
$TEXTSTYLE
  7
Standard
  9
$CLAYER
  8
0
  9
$CELTYPE
  6
ByLayer
  9
$CECOLOR
 62
   256
  9
$CELTSCALE
 40
1.0
  9
$DISPSILH
 70
     0
  9
$DIMSCALE
 40
1.0
  9
$DIMASZ
 40
0.18
  9
$DIMEXO
 40
0.0625
  9
$DIMDLI
 40
0.38
  9
$DIMRND
 40
0.0
  9
$DIMDLE
 40
0.0
  9
$DIMEXE
 40
0.18
  9
$DIMTP
 40
0.0
  9
$DIMTM
 40
0.0
  9
$DIMTXT
 40
0.18
  9
$DIMCEN
 40
0.09
  9
$DIMTSZ
 40
0.0
  9
$DIMTOL
 70
     0
  9
$DIMLIM
 70
     0
  9
$DIMTIH
 70
     1
  9
$DIMTOH
 70
     1
  9
$DIMSE1
 70
     0
  9
$DIMSE2
 70
     0
  9
$DIMTAD
 70
     0
  9
$DIMZIN
 70
     0
  9
$DIMBLK
  1

  9
$DIMASO
 70
     1
  9
$DIMSHO
 70
     1
  9
$DIMPOST
  1

  9
$DIMAPOST
  1

  9
$DIMALT
 70
     0
  9
$DIMALTD
 70
     2
  9
$DIMALTF
 40
25.4
  9
$DIMLFAC
 40
1.0
  9
$DIMTOFL
 70
     0
  9
$DIMTVP
 40
0.0
  9
$DIMTIX
 70
     0
  9
$DIMSOXD
 70
     0
  9
$DIMSAH
 70
     0
  9
$DIMBLK1
  1

  9
$DIMBLK2
  1

  9
$DIMSTYLE
  2
Standard
  9
$DIMCLRD
 70
     0
  9
$DIMCLRE
 70
     0
  9
$DIMCLRT
 70
     0
  9
$DIMTFAC
 40
1.0
  9
$DIMGAP
 40
0.09
  9
$DIMJUST
 70
     0
  9
$DIMSD1
 70
     0
  9
$DIMSD2
 70
     0
  9
$DIMTOLJ
 70
     1
  9
$DIMTZIN
 70
     0
  9
$DIMALTZ
 70
     0
  9
$DIMALTTZ
 70
     0
  9
$DIMUPT
 70
     0
  9
$DIMDEC
 70
     4
  9
$DIMTDEC
 70
     4
  9
$DIMALTU
 70
     2
  9
$DIMALTTD
 70
     2
  9
$DIMTXSTY
  7
Standard
  9
$DIMAUNIT
 70
     0
  9
$DIMADEC
 70
     0
  9
$DIMALTRND
 40
0.0
  9
$DIMAZIN
 70
     0
  9
$DIMDSEP
 70
    46
  9
$DIMATFIT
 70
     3
  9
$DIMFRAC
 70
     0
  9
$DIMLDRBLK
  1

  9
$DIMLUNIT
 70
     2
  9
$DIMLWD
 70
    -2
  9
$DIMLWE
 70
    -2
  9
$DIMTMOVE
 70
     0
  9
$DIMFXL
 40
1.0
  9
$DIMFXLON
 70
     0
  9
$DIMJOGANG
 40
0.7853981633974483
  9
$DIMTFILL
 70
     0
  9
$DIMTFILLCLR
 70
     0
  9
$DIMARCSYM
 70
     0
  9
$DIMLTYPE
  6

  9
$DIMLTEX1
  6

  9
$DIMLTEX2
  6

  9
$DIMTXTDIRECTION
 70
     0
  9
$LUNITS
 70
     2
  9
$LUPREC
 70
     4
  9
$SKETCHINC
 40
0.1
  9
$FILLETRAD
 40
0.5
  9
$AUNITS
 70
     0
  9
$AUPREC
 70
     0
  9
$MENU
  1
.
  9
$ELEVATION
 40
0.0
  9
$PELEVATION
 40
0.0
  9
$THICKNESS
 40
0.0
  9
$LIMCHECK
 70
     0
  9
$CHAMFERA
 40
0.5
  9
$CHAMFERB
 40
0.5
  9
$CHAMFERC
 40
1.0
  9
$CHAMFERD
 40
0.0
  9
$SKPOLY
 70
     0
  9
$TDCREATE
 40
2458113.716828704
  9
$TDUCREATE
 40
2458113.63349537
  9
$TDUPDATE
 40
2458113.716828704
  9
$TDUUPDATE
 40
2458113.63349537
  9
$TDINDWG
 40
0.0000000116
  9
$TDUSRTIMER
 40
0.0000000116
  9
$USRTIMER
 70
     1
  9
$ANGBASE
 50
0.0
  9
$ANGDIR
 70
     0
  9
$PDMODE
 70
     0
  9
$PDSIZE
 40
0.0
  9
$PLINEWID
 40
0.0
  9
$SPLFRAME
 70
     0
  9
$SPLINETYPE
 70
     6
  9
$SPLINESEGS
 70
     8
  9
$HANDSEED
  5
D9
  9
$SURFTAB1
 70
     6
  9
$SURFTAB2
 70
     6
  9
$SURFTYPE
 70
     6
  9
$SURFU
 70
     6
  9
$SURFV
 70
     6
  9
$UCSBASE
  2

  9
$UCSNAME
  2

  9
$UCSORG
 10
0.0
 20
0.0
 30
0.0
  9
$UCSXDIR
 10
1.0
 20
0.0
 30
0.0
  9
$UCSYDIR
 10
0.0
 20
1.0
 30
0.0
  9
$UCSORTHOREF
  2

  9
$UCSORTHOVIEW
 70
     0
  9
$UCSORGTOP
 10
0.0
 20
0.0
 30
0.0
  9
$UCSORGBOTTOM
 10
0.0
 20
0.0
 30
0.0
  9
$UCSORGLEFT
 10
0.0
 20
0.0
 30
0.0
  9
$UCSORGRIGHT
 10
0.0
 20
0.0
 30
0.0
  9
$UCSORGFRONT
 10
0.0
 20
0.0
 30
0.0
  9
$UCSORGBACK
 10
0.0
 20
0.0
 30
0.0
  9
$PUCSBASE
  2

  9
$PUCSNAME
  2

  9
$PUCSORG
 10
0.0
 20
0.0
 30
0.0
  9
$PUCSXDIR
 10
1.0
 20
0.0
 30
0.0
  9
$PUCSYDIR
 10
0.0
 20
1.0
 30
0.0
  9
$PUCSORTHOREF
  2

  9
$PUCSORTHOVIEW
 70
     0
  9
$PUCSORGTOP
 10
0.0
 20
0.0
 30
0.0
  9
$PUCSORGBOTTOM
 10
0.0
 20
0.0
 30
0.0
  9
$PUCSORGLEFT
 10
0.0
 20
0.0
 30
0.0
  9
$PUCSORGRIGHT
 10
0.0
 20
0.0
 30
0.0
  9
$PUCSORGFRONT
 10
0.0
 20
0.0
 30
0.0
  9
$PUCSORGBACK
 10
0.0
 20
0.0
 30
0.0
  9
$USERI1
 70
     0
  9
$USERI2
 70
     0
  9
$USERI3
 70
     0
  9
$USERI4
 70
     0
  9
$USERI5
 70
     0
  9
$USERR1
 40
0.0
  9
$USERR2
 40
0.0
  9
$USERR3
 40
0.0
  9
$USERR4
 40
0.0
  9
$USERR5
 40
0.0
  9
$WORLDVIEW
 70
     1
  9
$SHADEDGE
 70
     3
  9
$SHADEDIF
 70
    70
  9
$TILEMODE
 70
     1
  9
$MAXACTVP
 70
    64
  9
$PINSBASE
 10
0.0
 20
0.0
 30
0.0
  9
$PLIMCHECK
 70
     0
  9
$PEXTMIN
 10
1.000000000000000E+20
 20
1.000000000000000E+20
 30
1.000000000000000E+20
  9
$PEXTMAX
 10
-1.000000000000000E+20
 20
-1.000000000000000E+20
 30
-1.000000000000000E+20
  9
$PLIMMIN
 10
0.0
 20
0.0
  9
$PLIMMAX
 10
12.0
 20
9.0
  9
$UNITMODE
 70
     0
  9
$VISRETAIN
 70
     1
  9
$PLINEGEN
 70
     0
  9
$PSLTSCALE
 70
     1
  9
$TREEDEPTH
 70
  3020
  9
$CMLSTYLE
  2
Standard
  9
$CMLJUST
 70
     0
  9
$CMLSCALE
 40
1.0
  9
$PROXYGRAPHICS
 70
     1
  9
$MEASUREMENT
 70
     0
  9
$CELWEIGHT
370
    -1
  9
$ENDCAPS
280
     0
  9
$JOINSTYLE
280
     0
  9
$LWDISPLAY
290
     1
  9
$INSUNITS
 70
     1
  9
$HYPERLINKBASE
  1

  9
$STYLESHEET
  1

  9
$XEDIT
290
     1
  9
$CEPSNTYPE
380
     0
  9
$PSTYLEMODE
290
     1
  9
$FINGERPRINTGUID
  2
{7D774654-080B-96D2-CA35-443F03BC4B23}
  9
$VERSIONGUID
  2
{FAEB1C32-E019-11D5-929B-00C0DF256EC4}
  9
$EXTNAMES
290
     1
  9
$PSVPSCALE
 40
0.0
  9
$OLESTARTUP
290
     0
  9
$SORTENTS
280
   127
  9
$INDEXCTL
280
     0
  9
$HIDETEXT
280
     1
  9
$XCLIPFRAME
280
     2
  9
$HALOGAP
280
     0
  9
$OBSCOLOR
 70
   257
  9
$OBSLTYPE
280
     0
  9
$INTERSECTIONDISPLAY
280
     0
  9
$INTERSECTIONCOLOR
 70
   257
  9
$DIMASSOC
280
     2
  9
$PROJECTNAME
  1

  9
$CAMERADISPLAY
290
     0
  9
$LENSLENGTH
 40
50.0
  9
$CAMERAHEIGHT
 40
0.0
  9
$STEPSPERSEC
 40
2.0
  9
$STEPSIZE
 40
6.0
  9
$3DDWFPREC
 40
2.0
  9
$PSOLWIDTH
 40
0.25
  9
$PSOLHEIGHT
 40
4.0
  9
$LOFTANG1
 40
1.570796326794897
  9
$LOFTANG2
 40
1.570796326794897
  9
$LOFTMAG1
 40
0.0
  9
$LOFTMAG2
 40
0.0
  9
$LOFTPARAM
 70
     7
  9
$LOFTNORMALS
280
     1
  9
$LATITUDE
 40
37.795
  9
$LONGITUDE
 40
-122.394
  9
$NORTHDIRECTION
 40
0.0
  9
$TIMEZONE
 70
 -8000
  9
$LIGHTGLYPHDISPLAY
280
     1
  9
$TILEMODELIGHTSYNCH
280
     1
  9
$CMATERIAL
347
3C
  9
$SOLIDHIST
280
     1
  9
$SHOWHIST
280
     1
  9
$DWFFRAME
280
     2
  9
$DGNFRAME
280
     2
  9
$REALWORLDSCALE
290
     1
  9
$INTERFERECOLOR
 62
   256
  9
$CSHADOW
280
     0
  9
$SHADOWPLANELOCATION
 40
0.0
  0
ENDSEC
  0
SECTION
  2
CLASSES
  0
CLASS
  1
ACDBDICTIONARYWDFLT
  2
AcDbDictionaryWithDefault
  3
ObjectDBX Classes
 90
        0
 91
        4
280
     0
281
     0
  0
CLASS
  1
VISUALSTYLE
  2
AcDbVisualStyle
  3
ObjectDBX Classes
 90
     4095
 91
        4
280
     0
281
     0
  0
CLASS
  1
MATERIAL
  2
AcDbMaterial
  3
ObjectDBX Classes
 90
     1153
 91
        4
280
     0
281
     0
  0
CLASS
  1
SUN
  2
AcDbSun
  3
SCENEOE
 90
     1024
 91
        4
280
     0
281
     0
  0
ENDSEC
  0
SECTION
  2
TABLES
  0
TABLE
  2
VPORT
  5
8
330
0
100
AcDbSymbolTable
 70
     1
  0
VPORT
  5
29
330
8
100
AcDbSymbolTableRecord
100
AcDbViewportTableRecord
  2
*Active
 70
     0
 10
0.0
 20
0.0
 11
1.0
 21
1.0
 12
0.0
 22
0.0
 13
0.0
 23
0.0
 14
0.5
 24
0.5
 15
0.5
 25
0.5
 16
0.0
 26
0.0
 36
1.0
 17
297.6379999999999
 27
-420.9449999999997
 37
0.0
 40
841.8899999999994
 41
0.7070709950231031
 42
50.0
 43
0.0
 44
0.0
 50
0.0
 51
0.0
 71
     0
 72
   100
 73
     1
 74
     3
 75
     0
 76
     0
 77
     0
 78
     0
281
     0
 65
     1
110
0.0
120
0.0
130
0.0
111
1.0
121
0.0
131
0.0
112
0.0
122
1.0
132
0.0
 79
     0
146
0.0
 60
     3
 61
     5
292
     1
282
     1
141
0.0
142
0.0
 63
   250
361
3F
  0
ENDTAB
  0
TABLE
  2
LTYPE
  5
5
330
0
100
AcDbSymbolTable
 70
     1
  0
LTYPE
  5
14
330
5
100
AcDbSymbolTableRecord
100
AcDbLinetypeTableRecord
  2
ByBlock
 70
     0
  3

 72
    65
 73
     0
 40
0.0
  0
LTYPE
  5
15
330
5
100
AcDbSymbolTableRecord
100
AcDbLinetypeTableRecord
  2
ByLayer
 70
     0
  3

 72
    65
 73
     0
 40
0.0
  0
LTYPE
  5
16
330
5
100
AcDbSymbolTableRecord
100
AcDbLinetypeTableRecord
  2
Continuous
 70
     0
  3
Solid line
 72
    65
 73
     0
 40
0.0
  0
ENDTAB
  0
TABLE
  2
LAYER
  5
2
330
0
100
AcDbSymbolTable
 70
     2
  0
LAYER
  5
10
330
2
100
AcDbSymbolTableRecord
100
AcDbLayerTableRecord
  2
0
 70
     0
 62
     7
  6
Continuous
370
    -3
390
F
347
3E
  0
LAYER
  5
40
330
2
100
AcDbSymbolTableRecord
100
AcDbLayerTableRecord
  2
Layer 1
 70
     0
 62
     7
  6
Continuous
370
    -3
390
F
347
3E
  0
ENDTAB
  0
TABLE
  2
STYLE
  5
3
330
0
100
AcDbSymbolTable
 70
     1
  0
STYLE
  5
11
330
3
100
AcDbSymbolTableRecord
100
AcDbTextStyleTableRecord
  2
Standard
 70
     0
 40
0.0
 41
1.0
 50
0.0
 71
     0
 42
0.2
  3
txt
  4

  0
ENDTAB
  0
TABLE
  2
VIEW
  5
6
330
0
100
AcDbSymbolTable
 70
     0
  0
ENDTAB
  0
TABLE
  2
UCS
  5
7
330
0
100
AcDbSymbolTable
 70
     0
  0
ENDTAB
  0
TABLE
  2
APPID
  5
9
330
0
100
AcDbSymbolTable
 70
     1
  0
APPID
  5
12
330
9
100
AcDbSymbolTableRecord
100
AcDbRegAppTableRecord
  2
ACAD
 70
     0
  0
ENDTAB
  0
TABLE
  2
DIMSTYLE
  5
A
330
0
100
AcDbSymbolTable
 70
     1
100
AcDbDimStyleTable
  0
DIMSTYLE
105
27
330
A
100
AcDbSymbolTableRecord
100
AcDbDimStyleTableRecord
  2
Standard
 70
     0
178
     0
340
11
  0
ENDTAB
  0
TABLE
  2
BLOCK_RECORD
  5
1
330
0
100
AcDbSymbolTable
 70
     2
  0
BLOCK_RECORD
  5
1F
330
1
100
AcDbSymbolTableRecord
100
AcDbBlockTableRecord
  2
*Model_Space
340
22
 70
     0
280
     1
281
     0
  0
BLOCK_RECORD
  5
1B
330
1
100
AcDbSymbolTableRecord
100
AcDbBlockTableRecord
  2
*Paper_Space
340
1E
 70
     0
280
     1
281
     0
  0
BLOCK_RECORD
  5
23
330
1
100
AcDbSymbolTableRecord
100
AcDbBlockTableRecord
  2
*Paper_Space0
340
26
 70
     0
280
     1
281
     0
  0
BLOCK_RECORD
  5
41
330
1
100
AcDbSymbolTableRecord
100
AcDbBlockTableRecord
  2
block 2
340
0
102
{BLKREFS
331
42
102
}
 70
     0
280
     1
281
     0
  0
ENDTAB
  0
ENDSEC
  0
SECTION
  2
BLOCKS
  0
BLOCK
  5
20
330
1F
100
AcDbEntity
  8
0
100
AcDbBlockBegin
  2
*Model_Space
 70
     0
 10
0.0
 20
0.0
 30
0.0
  3
*Model_Space
  1

  0
ENDBLK
  5
21
330
1F
100
AcDbEntity
  8
0
100
AcDbBlockEnd
  0
BLOCK
  5
1C
330
1B
100
AcDbEntity
 67
     1
  8
0
100
AcDbBlockBegin
  2
*Paper_Space
 70
     0
 10
0.0
 20
0.0
 30
0.0
  3
*Paper_Space
  1

  0
ENDBLK
  5
1D
330
1B
100
AcDbEntity
 67
     1
  8
0
100
AcDbBlockEnd
  0
BLOCK
  5
24
330
23
100
AcDbEntity
  8
0
100
AcDbBlockBegin
  2
*Paper_Space0
 70
     0
 10
0.0
 20
0.0
 30
0.0
  3
*Paper_Space0
  1

  0
ENDBLK
  5
25
330
23
100
AcDbEntity
  8
0
100
AcDbBlockEnd
  0
BLOCK
  5
43
330
41
100
AcDbEntity
  8
0
100
AcDbBlockBegin
  2
block 2
 70
     0
 10
0.0
 20
0.0
 30
0.0
  3
block 2
  1

  0
SPLINE
  5
45
330
41
100
AcDbEntity
  8
Layer 1
 62
   156
420
  1785491
370
    18
100
AcDbSpline
210
0.0
220
0.0
230
1.0
 70
     8
 71
     3
 72
     8
 73
     4
 74
     0
 42
0.0000000001
 43
0.0000000001
 12
1.0
 22
0.0
 32
0.0
 13
1.0
 23
0.0
 33
0.0
 40
0.0
 40
0.0
 40
0.0
 40
0.0
 40
1.0
 40
1.0
 40
1.0
 40
1.0
 10
170.4187395961126
 20
-535.489196668912
 30
0.0
 10
170.4187395961126
 20
-535.489196668912
 30
0.0
 10
171.9306505636723
 20
-561.5406677670308
 30
0.0
 10
173.1647355826262
 20
-570.5927791697814
 30
0.0
  0
SPLINE
  5
46
330
41
100
AcDbEntity
  8
Layer 1
 62
   156
420
  1785491
370
    18
100
AcDbSpline
210
0.0
220
0.0
230
1.0
 70
     8
 71
     3
 72
     8
 73
     4
 74
     0
 42
0.0000000001
 43
0.0000000001
 12
1.0
 22
0.0
 32
0.0
 13
1.0
 23
0.0
 33
0.0
 40
0.0
 40
0.0
 40
0.0
 40
0.0
 40
1.0
 40
1.0
 40
1.0
 40
1.0
 10
170.9291757638402
 20
-502.7245622971368
 30
0.0
 10
170.9291757638402
 20
-502.7245622971368
 30
0.0
 10
165.7408402569954
 20
-507.8288931651132
 30
0.0
 10
165.243331671777
 20
-517.3332850998813
 30
0.0
  0
SPLINE
  5
47
330
41
100
AcDbEntity
  8
Layer 1
 62
   156
420
  1785491
370
    18
100
AcDbSpline
210
0.0
220
0.0
230
1.0
 70
     8
 71
     3
 72
     8
 73
     4
 74
     0
 42
0.0000000001
 43
0.0000000001
 12
1.0
 22
0.0
 32
0.0
 13
1.0
 23
0.0
 33
0.0
 40
0.0
 40
0.0
 40
0.0
 40
0.0
 40
1.0
 40
1.0
 40
1.0
 40
1.0
 10
167.9311843463001
 20
-539.3659032282576
 30
0.0
 10
167.9311843463001
 20
-539.3659032282576
 30
0.0
 10
168.6289903562292
 20
-577.3382486908758
 30
0.0
 10
169.0231275762553
 20
-580.5300710460579
 30
0.0
  0
SPLINE
  5
48
330
41
100
AcDbEntity
  8
Layer 1
 62
   156
420
  1785491
370
    18
100
AcDbSpline
210
0.0
220
0.0
230
1.0
 70
     8
 71
     3
 72
     8
 73
     4
 74
     0
 42
0.0000000001
 43
0.0000000001
 12
1.0
 22
0.0
 32
0.0
 13
1.0
 23
0.0
 33
0.0
 40
0.0
 40
0.0
 40
0.0
 40
0.0
 40
1.0
 40
1.0
 40
1.0
 40
1.0
 10
169.9212310108951
 20
-510.0192310925577
 30
0.0
 10
169.9212310108951
 20
-510.0192310925577
 30
0.0
 10
158.4720143028744
 20
-560.4034995648017
 30
0.0
 10
158.1748031423649
 20
-580.4654593214182
 30
0.0
  0
SPLINE
  5
49
330
41
100
AcDbEntity
  8
Layer 1
 62
   156
420
  1785491
370
    18
100
AcDbSpline
210
0.0
220
0.0
230
1.0
 70
     8
 71
     3
 72
     8
 73
     4
 74
     0
 42
0.0000000001
 43
0.0000000001
 12
1.0
 22
0.0
 32
0.0
 13
1.0
 23
0.0
 33
0.0
 40
0.0
 40
0.0
 40
0.0
 40
0.0
 40
1.0
 40
1.0
 40
1.0
 40
1.0
 10
147.0292675479659
 20
-580.3620802539008
 30
0.0
 10
147.0292675479659
 20
-580.3620802539008
 30
0.0
 10
154.8925281468264
 20
-531.6124901095645
 30
0.0
 10
156.8308768051029
 20
-522.9609735562335
 30
0.0
  0
SPLINE
  5
4A
330
41
100
AcDbEntity
  8
Layer 1
 62
   156
420
  1785491
370
    18
100
AcDbSpline
210
0.0
220
0.0
230
1.0
 70
     8
 71
     3
 72
    11
 73
     7
 74
     0
 42
0.0000000001
 43
0.0000000001
 12
1.0
 22
0.0
 32
0.0
 13
1.0
 23
0.0
 33
0.0
 40
0.0
 40
0.0
 40
0.0
 40
0.0
 40
1.0
 40
1.0
 40
1.0
 40
2.0
 40
2.0
 40
2.0
 40
2.0
 10
168.2800935131236
 20
-502.9183959305938
 30
0.0
 10
168.2800935131236
 20
-502.9183959305938
 30
0.0
 10
161.0629532415978
 20
-504.7598308530742
 30
0.0
 10
159.6673412217406
 20
-520.9709330535006
 30
0.0
 10
158.2781868312768
 20
-537.1820260111381
 30
0.0
 10
152.1012917833896
 20
-580.3620802539008
 30
0.0
 10
152.1012917833896
 20
-580.3620802539008
 30
0.0
  0
SPLINE
  5
4B
330
41
100
AcDbEntity
  8
Layer 1
 62
   156
420
  1785491
370
    18
100
AcDbSpline
210
0.0
220
0.0
230
1.0
 70
     8
 71
     3
 72
     8
 73
     4
 74
     0
 42
0.0000000001
 43
0.0000000001
 12
1.0
 22
0.0
 32
0.0
 13
1.0
 23
0.0
 33
0.0
 40
0.0
 40
0.0
 40
0.0
 40
0.0
 40
1.0
 40
1.0
 40
1.0
 40
1.0
 10
153.0963212775459
 20
-528.1299176893153
 30
0.0
 10
153.0963212775459
 20
-528.1299176893153
 30
0.0
 10
141.0591398779015
 20
-556.0745109329746
 30
0.0
 10
137.0790588724349
 20
-565.126622335727
 30
0.0
  0
SPLINE
  5
4C
330
41
100
AcDbEntity
  8
Layer 1
 62
   156
420
  1785491
370
    18
100
AcDbSpline
210
0.0
220
0.0
230
1.0
 70
     8
 71
     3
 72
    11
 73
     7
 74
     0
 42
0.0000000001
 43
0.0000000001
 12
1.0
 22
0.0
 32
0.0
 13
1.0
 23
0.0
 33
0.0
 40
0.0
 40
0.0
 40
0.0
 40
0.0
 40
1.0
 40
1.0
 40
1.0
 40
2.0
 40
2.0
 40
2.0
 40
2.0
 10
162.5554789972539
 20
-503.2672989355578
 30
0.0
 10
162.5554789972539
 20
-503.2672989355578
 30
0.0
 10
131.3027648358266
 20
-565.4755253406911
 30
0.0
 10
129.3127243330937
 20
-573.5778430048122
 30
0.0
 10
128.3177010007967
 20
-577.454549949276
 30
0.0
 10
129.3127243330937
 20
-579.6448898023009
 30
0.0
 10
129.3127243330937
 20
-579.6448898023009
 30
0.0
  0
SPLINE
  5
4D
330
41
100
AcDbEntity
  8
Layer 1
 62
   156
420
  1785491
370
    18
100
AcDbSpline
210
0.0
220
0.0
230
1.0
 70
     8
 71
     3
 72
    11
 73
     7
 74
     0
 42
0.0000000001
 43
0.0000000001
 12
1.0
 22
0.0
 32
0.0
 13
1.0
 23
0.0
 33
0.0
 40
0.0
 40
0.0
 40
0.0
 40
0.0
 40
1.0
 40
1.0
 40
1.0
 40
2.0
 40
2.0
 40
2.0
 40
2.0
 10
113.8834266196036
 20
-578.7726307494249
 30
0.0
 10
113.8834266196036
 20
-578.7726307494249
 30
0.0
 10
112.7914895515087
 20
-577.1056461740773
 30
0.0
 10
114.5812326295318
 20
-574.643937231609
 30
0.0
 10
116.370981869416
 20
-572.1822286742572
 30
0.0
 10
133.4931089251331
 20
-543.1456929708766
 30
0.0
 10
138.5715846280909
 20
-533.9966647513957
 30
0.0
  0
SPLINE
  5
4E
330
41
100
AcDbEntity
  8
Layer 1
 62
   156
420
  1785491
370
    18
100
AcDbSpline
210
0.0
220
0.0
230
1.0
 70
     8
 71
     3
 72
    11
 73
     7
 74
     0
 42
0.0000000001
 43
0.0000000001
 12
1.0
 22
0.0
 32
0.0
 13
1.0
 23
0.0
 33
0.0
 40
0.0
 40
0.0
 40
0.0
 40
0.0
 40
1.0
 40
1.0
 40
1.0
 40
2.0
 40
2.0
 40
2.0
 40
2.0
 10
156.8308768051029
 20
-504.7598308530742
 30
0.0
 10
156.8308768051029
 20
-504.7598308530742
 30
0.0
 10
144.5610975100572
 20
-526.637385771799
 30
0.0
 10
103.4938526708447
 20
-570.1986465711507
 30
0.0
 10
97.36219183801859
 20
-576.4595285425585
 30
0.0
 10
99.61068540117412
 20
-577.5320842499113
 30
0.0
 10
100.2438781459969
 20
-577.5966959745547
 30
0.0
  0
SPLINE
  5
4F
330
41
100
AcDbEntity
  8
Layer 1
 62
   156
420
  1785491
370
    18
100
AcDbSpline
210
0.0
220
0.0
230
1.0
 70
     8
 71
     3
 72
     8
 73
     4
 74
     0
 42
0.0000000001
 43
0.0000000001
 12
1.0
 22
0.0
 32
0.0
 13
1.0
 23
0.0
 33
0.0
 40
0.0
 40
0.0
 40
0.0
 40
0.0
 40
1.0
 40
1.0
 40
1.0
 40
1.0
 10
136.5750864959618
 20
-520.9709330535006
 30
0.0
 10
136.5750864959618
 20
-520.9709330535006
 30
0.0
 10
114.4843188937348
 20
-542.7451012023866
 30
0.0
 10
100.3472556730494
 20
-553.3866613393802
 30
0.0
  0
SPLINE
  5
50
330
41
100
AcDbEntity
  8
Layer 1
 62
   156
420
  1785491
370
    18
100
AcDbSpline
210
0.0
220
0.0
230
1.0
 70
     8
 71
     3
 72
     8
 73
     4
 74
     0
 42
0.0000000001
 43
0.0000000001
 12
1.0
 22
0.0
 32
0.0
 13
1.0
 23
0.0
 33
0.0
 40
0.0
 40
0.0
 40
0.0
 40
0.0
 40
1.0
 40
1.0
 40
1.0
 40
1.0
 10
74.27640398442418
 20
-562.0381778927131
 30
0.0
 10
74.27640398442418
 20
-562.0381778927131
 30
0.0
 10
105.9232584468064
 20
-541.6531610533602
 30
0.0
 10
112.6945696538514
 20
-536.678053634665
 30
0.0
  0
SPLINE
  5
51
330
41
100
AcDbEntity
  8
Layer 1
 62
   156
420
  1785491
370
    18
100
AcDbSpline
210
0.0
220
0.0
230
1.0
 70
     8
 71
     3
 72
     8
 73
     4
 74
     0
 42
0.0000000001
 43
0.0000000001
 12
1.0
 22
0.0
 32
0.0
 13
1.0
 23
0.0
 33
0.0
 40
0.0
 40
0.0
 40
0.0
 40
0.0
 40
1.0
 40
1.0
 40
1.0
 40
1.0
 10
156.8308768051029
 20
-501.180338535165
 30
0.0
 10
156.8308768051029
 20
-501.180338535165
 30
0.0
 10
128.6149183231664
 20
-541.9503752947985
 30
0.0
 10
98.40890701477201
 20
-566.8129894271624
 30
0.0
  0
SPLINE
  5
52
330
41
100
AcDbEntity
  8
Layer 1
 62
   156
420
  1785491
370
    18
100
AcDbSpline
210
0.0
220
0.0
230
1.0
 70
     8
 71
     3
 72
     8
 73
     4
 74
     0
 42
0.0000000001
 43
0.0000000001
 12
1.0
 22
0.0
 32
0.0
 13
1.0
 23
0.0
 33
0.0
 40
0.0
 40
0.0
 40
0.0
 40
0.0
 40
1.0
 40
1.0
 40
1.0
 40
1.0
 10
63.3053229734378
 20
-563.3174909648678
 30
0.0
 10
63.3053229734378
 20
-563.3174909648678
 30
0.0
 10
121.9469784813136
 20
-525.5002144886439
 30
0.0
 10
139.2629330086256
 20
-511.6216043283803
 30
0.0
  0
SPLINE
  5
53
330
41
100
AcDbEntity
  8
Layer 1
 62
   156
420
  1785491
370
    18
100
AcDbSpline
210
0.0
220
0.0
230
1.0
 70
     8
 71
     3
 72
     8
 73
     4
 74
     0
 42
0.0000000001
 43
0.0000000001
 12
1.0
 22
0.0
 32
0.0
 13
1.0
 23
0.0
 33
0.0
 40
0.0
 40
0.0
 40
0.0
 40
0.0
 40
1.0
 40
1.0
 40
1.0
 40
1.0
 10
46.10566431289772
 20
-537.3306315913924
 30
0.0
 10
46.10566431289772
 20
-537.3306315913924
 30
0.0
 10
104.9282351145084
 20
-522.1597900192537
 30
0.0
 10
130.7083363529509
 20
-512.1191129135968
 30
0.0
  0
SPLINE
  5
54
330
41
100
AcDbEntity
  8
Layer 1
 62
   156
420
  1785491
370
    18
100
AcDbSpline
210
0.0
220
0.0
230
1.0
 70
     8
 71
     3
 72
     8
 73
     4
 74
     0
 42
0.0000000001
 43
0.0000000001
 12
1.0
 22
0.0
 32
0.0
 13
1.0
 23
0.0
 33
0.0
 40
0.0
 40
0.0
 40
0.0
 40
0.0
 40
1.0
 40
1.0
 40
1.0
 40
1.0
 10
38.31994456165285
 20
-517.2105223609251
 30
0.0
 10
38.31994456165285
 20
-517.2105223609251
 30
0.0
 10
75.66555529395737
 20
-517.6886518961019
 30
0.0
 10
108.1135963742508
 20
-510.5232034690307
 30
0.0
  0
SPLINE
  5
55
330
41
100
AcDbEntity
  8
Layer 1
 62
   156
420
  1785491
370
    18
100
AcDbSpline
210
0.0
220
0.0
230
1.0
 70
     8
 71
     3
 72
     8
 73
     4
 74
     0
 42
0.0000000001
 43
0.0000000001
 12
1.0
 22
0.0
 32
0.0
 13
1.0
 23
0.0
 33
0.0
 40
0.0
 40
0.0
 40
0.0
 40
0.0
 40
1.0
 40
1.0
 40
1.0
 40
1.0
 10
137.0790588724349
 20
-503.965104945486
 30
0.0
 10
137.0790588724349
 20
-503.965104945486
 30
0.0
 10
95.94719460625674
 20
-523.5101739859092
 30
0.0
 10
42.55847862754217
 20
-529.3510812876211
 30
0.0
  0
SPLINE
  5
56
330
41
100
AcDbEntity
  8
Layer 1
 62
   156
420
  1785491
370
    18
100
AcDbSpline
210
0.0
220
0.0
230
1.0
 70
     8
 71
     3
 72
     8
 73
     4
 74
     0
 42
0.0000000001
 43
0.0000000001
 12
1.0
 22
0.0
 32
0.0
 13
1.0
 23
0.0
 33
0.0
 40
0.0
 40
0.0
 40
0.0
 40
0.0
 40
1.0
 40
1.0
 40
1.0
 40
1.0
 10
154.1430241305798
 20
-495.1132909674452
 30
0.0
 10
154.1430241305798
 20
-495.1132909674452
 30
0.0
 10
158.8532239403894
 20
-508.7722246529538
 30
0.0
 10
52.81882912702076
 20
-549.077056378992
 30
0.0
  0
SPLINE
  5
57
330
41
100
AcDbEntity
  8
Layer 1
 62
   156
420
  1785491
370
    18
100
AcDbSpline
210
0.0
220
0.0
230
1.0
 70
     8
 71
     3
 72
     8
 73
     4
 74
     0
 42
0.0000000001
 43
0.0000000001
 12
1.0
 22
0.0
 32
0.0
 13
1.0
 23
0.0
 33
0.0
 40
0.0
 40
0.0
 40
0.0
 40
0.0
 40
1.0
 40
1.0
 40
1.0
 40
1.0
 10
153.697213551678
 20
-493.310620306911
 30
0.0
 10
153.697213551678
 20
-493.310620306911
 30
0.0
 10
156.6305793803931
 20
-508.0421120104711
 30
0.0
 10
34.83736906047216
 20
-503.6162019405219
 30
0.0
  0
SPLINE
  5
58
330
41
100
AcDbEntity
  8
Layer 1
 62
   156
420
  1785491
370
    18
100
AcDbSpline
210
0.0
220
0.0
230
1.0
 70
     8
 71
     3
 72
     8
 73
     4
 74
     0
 42
0.0000000001
 43
0.0000000001
 12
1.0
 22
0.0
 32
0.0
 13
1.0
 23
0.0
 33
0.0
 40
0.0
 40
0.0
 40
0.0
 40
0.0
 40
1.0
 40
1.0
 40
1.0
 40
1.0
 10
151.707166887084
 20
-490.9845982198622
 30
0.0
 10
151.707166887084
 20
-490.9845982198622
 30
0.0
 10
126.1855125472021
 20
-503.1703790378997
 30
0.0
 10
37.22800441262825
 20
-477.312749275563
 30
0.0
  0
SPLINE
  5
59
330
41
100
AcDbEntity
  8
Layer 1
 62
   156
420
  1785491
370
    18
100
AcDbSpline
210
0.0
220
0.0
230
1.0
 70
     8
 71
     3
 72
     8
 73
     4
 74
     0
 42
0.0000000001
 43
0.0000000001
 12
1.0
 22
0.0
 32
0.0
 13
1.0
 23
0.0
 33
0.0
 40
0.0
 40
0.0
 40
0.0
 40
0.0
 40
1.0
 40
1.0
 40
1.0
 40
1.0
 10
76.06615014337785
 20
-462.3938877297987
 30
0.0
 10
76.06615014337785
 20
-462.3938877297987
 30
0.0
 10
103.9332117822123
 20
-474.9221077615475
 30
0.0
 10
113.8834266196036
 20
-477.312749275563
 30
0.0
  0
SPLINE
  5
5A
330
41
100
AcDbEntity
  8
Layer 1
 62
   156
420
  1785491
370
    18
100
AcDbSpline
210
0.0
220
0.0
230
1.0
 70
     8
 71
     3
 72
     8
 73
     4
 74
     0
 42
0.0000000001
 43
0.0000000001
 12
1.0
 22
0.0
 32
0.0
 13
1.0
 23
0.0
 33
0.0
 40
0.0
 40
0.0
 40
0.0
 40
0.0
 40
1.0
 40
1.0
 40
1.0
 40
1.0
 10
143.7469925524274
 20
-482.3330816665293
 30
0.0
 10
143.7469925524274
 20
-482.3330816665293
 30
0.0
 10
110.6980653598621
 20
-467.9634205504426
 30
0.0
 10
95.57244875999459
 20
-456.6240574844469
 30
0.0
  0
SPLINE
  5
5B
330
41
100
AcDbEntity
  8
Layer 1
 62
   156
420
  1785491
370
    18
100
AcDbSpline
210
0.0
220
0.0
230
1.0
 70
     8
 71
     3
 72
     8
 73
     4
 74
     0
 42
0.0000000001
 43
0.0000000001
 12
1.0
 22
0.0
 32
0.0
 13
1.0
 23
0.0
 33
0.0
 40
0.0
 40
0.0
 40
0.0
 40
0.0
 40
1.0
 40
1.0
 40
1.0
 40
1.0
 10
154.5953169863169
 20
-488.1998318095393
 30
0.0
 10
154.5953169863169
 20
-488.1998318095393
 30
0.0
 10
99.92081798233176
 20
-481.6869613391973
 30
0.0
 10
44.10269930858431
 20
-456.6240574844469
 30
0.0
  0
SPLINE
  5
5C
330
41
100
AcDbEntity
  8
Layer 1
 62
   156
420
  1785491
370
    18
100
AcDbSpline
210
0.0
220
0.0
230
1.0
 70
     8
 71
     3
 72
     8
 73
     4
 74
     0
 42
0.0000000001
 43
0.0000000001
 12
1.0
 22
0.0
 32
0.0
 13
1.0
 23
0.0
 33
0.0
 40
0.0
 40
0.0
 40
0.0
 40
0.0
 40
1.0
 40
1.0
 40
1.0
 40
1.0
 10
156.733963069305
 20
-482.184476086275
 30
0.0
 10
156.733963069305
 20
-482.184476086275
 30
0.0
 10
112.4942722291398
 20
-466.7681059552942
 30
0.0
 10
72.88078888363634
 20
-434.5462113028698
 30
0.0
  0
SPLINE
  5
5D
330
41
100
AcDbEntity
  8
Layer 1
 62
   156
420
  1785491
370
    18
100
AcDbSpline
210
0.0
220
0.0
230
1.0
 70
     8
 71
     3
 72
     8
 73
     4
 74
     0
 42
0.0000000001
 43
0.0000000001
 12
1.0
 22
0.0
 32
0.0
 13
1.0
 23
0.0
 33
0.0
 40
0.0
 40
0.0
 40
0.0
 40
0.0
 40
1.0
 40
1.0
 40
1.0
 40
1.0
 10
83.39958628167551
 20
-408.6885692168125
 30
0.0
 10
83.39958628167551
 20
-408.6885692168125
 30
0.0
 10
109.3476813932057
 20
-441.2723006185715
 30
0.0
 10
127.4195975661569
 20
-454.6340108198528
 30
0.0
  0
SPLINE
  5
5E
330
41
100
AcDbEntity
  8
Layer 1
 62
   156
420
  1785491
370
    18
100
AcDbSpline
210
0.0
220
0.0
230
1.0
 70
     8
 71
     3
 72
     8
 73
     4
 74
     0
 42
0.0000000001
 43
0.0000000001
 12
1.0
 22
0.0
 32
0.0
 13
1.0
 23
0.0
 33
0.0
 40
0.0
 40
0.0
 40
0.0
 40
0.0
 40
1.0
 40
1.0
 40
1.0
 40
1.0
 10
72.0860629760491
 20
-419.3818242791958
 30
0.0
 10
72.0860629760491
 20
-419.3818242791958
 30
0.0
 10
130.9021761482672
 20
-471.9370439265167
 30
0.0
 10
158.9243071586097
 20
-479.7938345722614
 30
0.0
  0
SPLINE
  5
5F
330
41
100
AcDbEntity
  8
Layer 1
 62
   156
420
  1785491
370
    18
100
AcDbSpline
210
0.0
220
0.0
230
1.0
 70
     8
 71
     3
 72
     8
 73
     4
 74
     0
 42
0.0000000001
 43
0.0000000001
 12
1.0
 22
0.0
 32
0.0
 13
1.0
 23
0.0
 33
0.0
 40
0.0
 40
0.0
 40
0.0
 40
0.0
 40
1.0
 40
1.0
 40
1.0
 40
1.0
 10
98.40890701477201
 20
-395.9600517603558
 30
0.0
 10
98.40890701477201
 20
-395.9600517603558
 30
0.0
 10
126.2242829710094
 20
-454.2398859235473
 30
0.0
 10
153.697213551678
 20
-475.3227026109671
 30
0.0
  0
SPLINE
  5
60
330
41
100
AcDbEntity
  8
Layer 1
 62
   156
420
  1785491
370
    18
100
AcDbSpline
210
0.0
220
0.0
230
1.0
 70
     8
 71
     3
 72
     8
 73
     4
 74
     0
 42
0.0000000001
 43
0.0000000001
 12
1.0
 22
0.0
 32
0.0
 13
1.0
 23
0.0
 33
0.0
 40
0.0
 40
0.0
 40
0.0
 40
0.0
 40
1.0
 40
1.0
 40
1.0
 40
1.0
 10
166.6647988566529
 20
-475.3227026109671
 30
0.0
 10
166.6647988566529
 20
-475.3227026109671
 30
0.0
 10
130.3012838741352
 20
-427.2450725543349
 30
0.0
 10
116.4162099226178
 20
-382.165433915241
 30
0.0
  0
SPLINE
  5
61
330
41
100
AcDbEntity
  8
Layer 1
 62
   156
420
  1785491
370
    18
100
AcDbSpline
210
0.0
220
0.0
230
1.0
 70
     8
 71
     3
 72
     8
 73
     4
 74
     0
 42
0.0000000001
 43
0.0000000001
 12
1.0
 22
0.0
 32
0.0
 13
1.0
 23
0.0
 33
0.0
 40
0.0
 40
0.0
 40
0.0
 40
0.0
 40
1.0
 40
1.0
 40
1.0
 40
1.0
 10
161.7607592515269
 20
-476.6149432656348
 30
0.0
 10
161.7607592515269
 20
-476.6149432656348
 30
0.0
 10
129.6422421261541
 20
-463.4922885891501
 30
0.0
 10
110.1165582976346
 20
-387.4571407872791
 30
0.0
  0
SPLINE
  5
62
330
41
100
AcDbEntity
  8
Layer 1
 62
   156
420
  1785491
370
    18
100
AcDbSpline
210
0.0
220
0.0
230
1.0
 70
     8
 71
     3
 72
     8
 73
     4
 74
     0
 42
0.0000000001
 43
0.0000000001
 12
1.0
 22
0.0
 32
0.0
 13
1.0
 23
0.0
 33
0.0
 40
0.0
 40
0.0
 40
0.0
 40
0.0
 40
1.0
 40
1.0
 40
1.0
 40
1.0
 10
168.028098082098
 20
-473.4812676884867
 30
0.0
 10
168.028098082098
 20
-473.4812676884867
 30
0.0
 10
151.0029032477614
 20
-461.4376409831711
 30
0.0
 10
142.7972034351906
 20
-367.2401147400842
 30
0.0
  0
SPLINE
  5
63
330
41
100
AcDbEntity
  8
Layer 1
 62
   156
420
  1785491
370
    18
100
AcDbSpline
210
0.0
220
0.0
230
1.0
 70
     8
 71
     3
 72
    11
 73
     7
 74
     0
 42
0.0000000001
 43
0.0000000001
 12
1.0
 22
0.0
 32
0.0
 13
1.0
 23
0.0
 33
0.0
 40
0.0
 40
0.0
 40
0.0
 40
0.0
 40
1.0
 40
1.0
 40
1.0
 40
2.0
 40
2.0
 40
2.0
 40
2.0
 10
170.664265074025
 20
-473.2228269517873
 30
0.0
 10
170.664265074025
 20
-473.2228269517873
 30
0.0
 10
165.6374688918031
 20
-468.3575577704687
 30
0.0
 10
163.4535824318928
 20
-458.2135092996214
 30
0.0
 10
161.2632506663094
 20
-448.069460828774
 30
0.0
 10
156.5982789097006
 20
-381.2737881099965
 30
0.0
 10
156.8373467582178
 20
-359.8743750501644
 30
0.0
  0
SPLINE
  5
64
330
41
100
AcDbEntity
  8
Layer 1
 62
   156
420
  1785491
370
    18
100
AcDbSpline
210
0.0
220
0.0
230
1.0
 70
     8
 71
     3
 72
    11
 73
     7
 74
     0
 42
0.0000000001
 43
0.0000000001
 12
1.0
 22
0.0
 32
0.0
 13
1.0
 23
0.0
 33
0.0
 40
0.0
 40
0.0
 40
0.0
 40
0.0
 40
1.0
 40
1.0
 40
1.0
 40
2.0
 40
2.0
 40
2.0
 40
2.0
 10
172.4087862607084
 20
-471.4912210238945
 30
0.0
 10
172.4087862607084
 20
-471.4912210238945
 30
0.0
 10
169.4237224256758
 20
-470.7481869607636
 30
0.0
 10
168.028098082098
 20
-440.9104761929575
 30
0.0
 10
166.6324860622408
 20
-411.0792107308289
 30
0.0
 10
163.2532973309026
 20
-364.6750309663767
 30
0.0
 10
170.2184421714037
 20
-353.6651918553034
 30
0.0
  0
SPLINE
  5
65
330
41
100
AcDbEntity
  8
Layer 1
 62
   156
420
  1785491
370
    18
100
AcDbSpline
210
0.0
220
0.0
230
1.0
 70
     8
 71
     3
 72
     8
 73
     4
 74
     0
 42
0.0000000001
 43
0.0000000001
 12
1.0
 22
0.0
 32
0.0
 13
1.0
 23
0.0
 33
0.0
 40
0.0
 40
0.0
 40
0.0
 40
0.0
 40
1.0
 40
1.0
 40
1.0
 40
1.0
 10
174.0240809171792
 20
-437.9254000342062
 30
0.0
 10
174.0240809171792
 20
-437.9254000342062
 30
0.0
 10
180.2332764357598
 20
-364.3390617057821
 30
0.0
 10
184.5816394962358
 20
-347.6304385964149
 30
0.0
  0
SPLINE
  5
66
330
41
100
AcDbEntity
  8
Layer 1
 62
   156
420
  1785491
370
    18
100
AcDbSpline
210
0.0
220
0.0
230
1.0
 70
     8
 71
     3
 72
     8
 73
     4
 74
     0
 42
0.0000000001
 43
0.0000000001
 12
1.0
 22
0.0
 32
0.0
 13
1.0
 23
0.0
 33
0.0
 40
0.0
 40
0.0
 40
0.0
 40
0.0
 40
1.0
 40
1.0
 40
1.0
 40
1.0
 10
181.3639777658009
 20
-456.6240574844469
 30
0.0
 10
181.3639777658009
 20
-456.6240574844469
 30
0.0
 10
194.9259977155134
 20
-380.9442764787964
 30
0.0
 10
215.4143920819179
 20
-338.526635349207
 30
0.0
  0
SPLINE
  5
67
330
41
100
AcDbEntity
  8
Layer 1
 62
   156
420
  1785491
370
    18
100
AcDbSpline
210
0.0
220
0.0
230
1.0
 70
     8
 71
     3
 72
    11
 73
     7
 74
     0
 42
0.0000000001
 43
0.0000000001
 12
1.0
 22
0.0
 32
0.0
 13
1.0
 23
0.0
 33
0.0
 40
0.0
 40
0.0
 40
0.0
 40
0.0
 40
1.0
 40
1.0
 40
1.0
 40
2.0
 40
2.0
 40
2.0
 40
2.0
 10
177.6487951264289
 20
-471.4976909770103
 30
0.0
 10
177.6487951264289
 20
-471.4976909770103
 30
0.0
 10
165.6374688918031
 20
-459.79649116168
 30
0.0
 10
185.3440587712694
 20
-399.7333777117201
 30
0.0
 10
205.0506609744571
 20
-339.6702765854779
 30
0.0
 10
206.2912036228063
 20
-340.8656035043468
 30
0.0
 10
206.2912036228063
 20
-340.8656035043468
 30
0.0
  0
SPLINE
  5
68
330
41
100
AcDbEntity
  8
Layer 1
 62
   156
420
  1785491
370
    18
100
AcDbSpline
210
0.0
220
0.0
230
1.0
 70
     8
 71
     3
 72
     8
 73
     4
 74
     0
 42
0.0000000001
 43
0.0000000001
 12
1.0
 22
0.0
 32
0.0
 13
1.0
 23
0.0
 33
0.0
 40
0.0
 40
0.0
 40
0.0
 40
0.0
 40
1.0
 40
1.0
 40
1.0
 40
1.0
 10
190.5194666956068
 20
-445.6852769441521
 30
0.0
 10
190.5194666956068
 20
-445.6852769441521
 30
0.0
 10
199.6491127841118
 20
-408.2944443205079
 30
0.0
 10
222.0564829206114
 20
-371.691861489473
 30
0.0
  0
SPLINE
  5
69
330
41
100
AcDbEntity
  8
Layer 1
 62
   156
420
  1785491
370
    18
100
AcDbSpline
210
0.0
220
0.0
230
1.0
 70
     8
 71
     3
 72
     8
 73
     4
 74
     0
 42
0.0000000001
 43
0.0000000001
 12
1.0
 22
0.0
 32
0.0
 13
1.0
 23
0.0
 33
0.0
 40
0.0
 40
0.0
 40
0.0
 40
0.0
 40
1.0
 40
1.0
 40
1.0
 40
1.0
 10
183.6060075377027
 20
-467.3625406000319
 30
0.0
 10
183.6060075377027
 20
-467.3625406000319
 30
0.0
 10
189.3629225242657
 20
-410.8530704648192
 30
0.0
 10
230.7467637358895
 20
-334.9859319406869
 30
0.0
  0
SPLINE
  5
6A
330
41
100
AcDbEntity
  8
Layer 1
 62
   156
420
  1785491
370
    18
100
AcDbSpline
210
0.0
220
0.0
230
1.0
 70
     8
 71
     3
 72
     8
 73
     4
 74
     0
 42
0.0000000001
 43
0.0000000001
 12
1.0
 22
0.0
 32
0.0
 13
1.0
 23
0.0
 33
0.0
 40
0.0
 40
0.0
 40
0.0
 40
0.0
 40
1.0
 40
1.0
 40
1.0
 40
1.0
 10
196.8901892150898
 20
-453.4451538541016
 30
0.0
 10
196.8901892150898
 20
-453.4451538541016
 30
0.0
 10
242.5771900814289
 20
-369.1074048275823
 30
0.0
 10
270.7414505570496
 20
-330.1271080650422
 30
0.0
  0
SPLINE
  5
6B
330
41
100
AcDbEntity
  8
Layer 1
 62
   156
420
  1785491
370
    18
100
AcDbSpline
210
0.0
220
0.0
230
1.0
 70
     8
 71
     3
 72
     8
 73
     4
 74
     0
 42
0.0000000001
 43
0.0000000001
 12
1.0
 22
0.0
 32
0.0
 13
1.0
 23
0.0
 33
0.0
 40
0.0
 40
0.0
 40
0.0
 40
0.0
 40
1.0
 40
1.0
 40
1.0
 40
1.0
 10
189.2013831996428
 20
-470.4574334296485
 30
0.0
 10
189.2013831996428
 20
-470.4574334296485
 30
0.0
 10
195.4945771952316
 20
-412.3068381203884
 30
0.0
 10
252.5273864332394
 20
-331.4581191435154
 30
0.0
  0
SPLINE
  5
6C
330
41
100
AcDbEntity
  8
Layer 1
 62
   156
420
  1785491
370
    18
100
AcDbSpline
210
0.0
220
0.0
230
1.0
 70
     8
 71
     3
 72
     8
 73
     4
 74
     0
 42
0.0000000001
 43
0.0000000001
 12
1.0
 22
0.0
 32
0.0
 13
1.0
 23
0.0
 33
0.0
 40
0.0
 40
0.0
 40
0.0
 40
0.0
 40
1.0
 40
1.0
 40
1.0
 40
1.0
 10
294.8287286151271
 20
-330.2692498540418
 30
0.0
 10
294.8287286151271
 20
-330.2692498540418
 30
0.0
 10
268.7966442693778
 20
-377.7718304778427
 30
0.0
 10
248.4503793682516
 20
-395.9600517603558
 30
0.0
  0
SPLINE
  5
6D
330
41
100
AcDbEntity
  8
Layer 1
 62
   156
420
  1785491
370
    18
100
AcDbSpline
210
0.0
220
0.0
230
1.0
 70
     8
 71
     3
 72
     8
 73
     4
 74
     0
 42
0.0000000001
 43
0.0000000001
 12
1.0
 22
0.0
 32
0.0
 13
1.0
 23
0.0
 33
0.0
 40
0.0
 40
0.0
 40
0.0
 40
0.0
 40
1.0
 40
1.0
 40
1.0
 40
1.0
 10
211.2210860692303
 20
-445.6852769441521
 30
0.0
 10
211.2210860692303
 20
-445.6852769441521
 30
0.0
 10
308.1646206225505
 20
-344.3417059714811
 30
0.0
 10
313.7341534431926
 20
-331.4645767729098
 30
0.0
  0
SPLINE
  5
6E
330
41
100
AcDbEntity
  8
Layer 1
 62
   156
420
  1785491
370
    18
100
AcDbSpline
210
0.0
220
0.0
230
1.0
 70
     8
 71
     3
 72
     8
 73
     4
 74
     0
 42
0.0000000001
 43
0.0000000001
 12
1.0
 22
0.0
 32
0.0
 13
1.0
 23
0.0
 33
0.0
 40
0.0
 40
0.0
 40
0.0
 40
0.0
 40
1.0
 40
1.0
 40
1.0
 40
1.0
 10
325.9716076201057
 20
-333.1380147413711
 30
0.0
 10
325.9716076201057
 20
-333.1380147413711
 30
0.0
 10
322.6957902539616
 20
-337.8805273455946
 30
0.0
 10
313.7341534431926
 20
-347.6304385964149
 30
0.0
  0
SPLINE
  5
6F
330
41
100
AcDbEntity
  8
Layer 1
 62
   156
420
  1785491
370
    18
100
AcDbSpline
210
0.0
220
0.0
230
1.0
 70
     8
 71
     3
 72
    11
 73
     7
 74
     0
 42
0.0000000001
 43
0.0000000001
 12
1.0
 22
0.0
 32
0.0
 13
1.0
 23
0.0
 33
0.0
 40
0.0
 40
0.0
 40
0.0
 40
0.0
 40
1.0
 40
1.0
 40
1.0
 40
2.0
 40
2.0
 40
2.0
 40
2.0
 10
335.2369501919366
 20
-335.0246777170532
 30
0.0
 10
257.8061780464877
 20
-398.8029738063879
 30
0.0
 10
191.76647929707
 20
-469.4559586298183
 30
0.0
 10
191.76647929707
 20
-469.4559586298183
 30
0.0
 10
191.76647929707
 20
-469.4559586298183
 30
0.0
 10
273.7523572333812
 20
-345.6210313673582
 30
0.0
 10
281.1051816645113
 20
-330.0172790704564
 30
0.0
  0
SPLINE
  5
70
330
41
100
AcDbEntity
  8
Layer 1
 62
   156
420
  1785491
370
    18
100
AcDbSpline
210
0.0
220
0.0
230
1.0
 70
     8
 71
     3
 72
     8
 73
     4
 74
     0
 42
0.0000000001
 43
0.0000000001
 12
1.0
 22
0.0
 32
0.0
 13
1.0
 23
0.0
 33
0.0
 40
0.0
 40
0.0
 40
0.0
 40
0.0
 40
1.0
 40
1.0
 40
1.0
 40
1.0
 10
355.53796239242
 20
-369.1074048275823
 30
0.0
 10
355.53796239242
 20
-369.1074048275823
 30
0.0
 10
291.8759898982289
 20
-413.947975618159
 30
0.0
 10
269.8433471224107
 20
-426.2758982251962
 30
0.0
  0
SPLINE
  5
71
330
41
100
AcDbEntity
  8
Layer 1
 62
   156
420
  1785491
370
    18
100
AcDbSpline
210
0.0
220
0.0
230
1.0
 70
     8
 71
     3
 72
     8
 73
     4
 74
     0
 42
0.0000000001
 43
0.0000000001
 12
1.0
 22
0.0
 32
0.0
 13
1.0
 23
0.0
 33
0.0
 40
0.0
 40
0.0
 40
0.0
 40
0.0
 40
1.0
 40
1.0
 40
1.0
 40
1.0
 10
227.1478923679379
 20
-458.2135092996214
 30
0.0
 10
227.1478923679379
 20
-458.2135092996214
 30
0.0
 10
358.3227288027429
 20
-394.6678111056899
 30
0.0
 10
379.3926425550944
 20
-363.9578397445448
 30
0.0
  0
SPLINE
  5
72
330
41
100
AcDbEntity
  8
Layer 1
 62
   156
420
  1785491
370
    18
100
AcDbSpline
210
0.0
220
0.0
230
1.0
 70
     8
 71
     3
 72
     8
 73
     4
 74
     0
 42
0.0000000001
 43
0.0000000001
 12
1.0
 22
0.0
 32
0.0
 13
1.0
 23
0.0
 33
0.0
 40
0.0
 40
0.0
 40
0.0
 40
0.0
 40
1.0
 40
1.0
 40
1.0
 40
1.0
 10
196.3926806298714
 20
-472.8868453674713
 30
0.0
 10
196.3926806298714
 20
-472.8868453674713
 30
0.0
 10
255.0149540067723
 20
-434.5462113028698
 30
0.0
 10
312.3449990527297
 20
-382.9666236140829
 30
0.0
  0
SPLINE
  5
73
330
41
100
AcDbEntity
  8
Layer 1
 62
   156
420
  1785491
370
    18
100
AcDbSpline
210
0.0
220
0.0
230
1.0
 70
     8
 71
     3
 72
     8
 73
     4
 74
     0
 42
0.0000000001
 43
0.0000000001
 12
1.0
 22
0.0
 32
0.0
 13
1.0
 23
0.0
 33
0.0
 40
0.0
 40
0.0
 40
0.0
 40
0.0
 40
1.0
 40
1.0
 40
1.0
 40
1.0
 10
229.1056262381207
 20
-445.6852769441521
 30
0.0
 10
229.1056262381207
 20
-445.6852769441521
 30
0.0
 10
327.0764784325693
 20
-362.943449685924
 30
0.0
 10
358.3227288027429
 20
-343.6503699146679
 30
0.0
  0
SPLINE
  5
74
330
41
100
AcDbEntity
  8
Layer 1
 62
   156
420
  1785491
370
    18
100
AcDbSpline
210
0.0
220
0.0
230
1.0
 70
     8
 71
     3
 72
     8
 73
     4
 74
     0
 42
0.0000000001
 43
0.0000000001
 12
1.0
 22
0.0
 32
0.0
 13
1.0
 23
0.0
 33
0.0
 40
0.0
 40
0.0
 40
0.0
 40
0.0
 40
1.0
 40
1.0
 40
1.0
 40
1.0
 10
192.9488663097081
 20
-471.0260252330881
 30
0.0
 10
192.9488663097081
 20
-471.0260252330881
 30
0.0
 10
300.3982614357683
 20
-377.8622865842453
 30
0.0
 10
352.8501097178978
 20
-340.8656035043468
 30
0.0
  0
POLYLINE
  5
75
330
41
100
AcDbEntity
  8
Layer 1
 62
   156
420
  1785491
370
    18
100
AcDb2dPolyline
 66
     1
 10
0.0
 20
0.0
 30
0.0
  0
VERTEX
  5
76
330
75
100
AcDbEntity
  8
Layer 1
 62
   156
420
  1785491
370
    18
100
AcDbVertex
100
AcDb2dVertex
 10
345.5877660406095
 20
-418.8326176876608
 30
0.0
  0
VERTEX
  5
77
330
75
100
AcDbEntity
  8
Layer 1
 62
   156
420
  1785491
370
    18
100
AcDbVertex
100
AcDb2dVertex
 10
387.837397892461
 20
-401.7298820057094
 30
0.0
  0
SEQEND
  5
78
330
75
100
AcDbEntity
  8
Layer 1
 62
   156
420
  1785491
370
    18
  0
SPLINE
  5
79
330
41
100
AcDbEntity
  8
Layer 1
 62
   156
420
  1785491
370
    18
100
AcDbSpline
210
0.0
220
0.0
230
1.0
 70
     8
 71
     3
 72
     8
 73
     4
 74
     0
 42
0.0000000001
 43
0.0000000001
 12
1.0
 22
0.0
 32
0.0
 13
1.0
 23
0.0
 33
0.0
 40
0.0
 40
0.0
 40
0.0
 40
0.0
 40
1.0
 40
1.0
 40
1.0
 40
1.0
 10
282.2875933245896
 20
-440.1157441235118
 30
0.0
 10
282.2875933245896
 20
-440.1157441235118
 30
0.0
 10
360.0607923600292
 20
-405.6195069047726
 30
0.0
 10
389.6465446679667
 20
-392.5356226520962
 30
0.0
  0
SPLINE
  5
7A
330
41
100
AcDbEntity
  8
Layer 1
 62
   156
420
  1785491
370
    18
100
AcDbSpline
210
0.0
220
0.0
230
1.0
 70
     8
 71
     3
 72
     8
 73
     4
 74
     0
 42
0.0000000001
 43
0.0000000001
 12
1.0
 22
0.0
 32
0.0
 13
1.0
 23
0.0
 33
0.0
 40
0.0
 40
0.0
 40
0.0
 40
0.0
 40
1.0
 40
1.0
 40
1.0
 40
1.0
 10
257.0049883476458
 20
-449.4650728486322
 30
0.0
 10
257.0049883476458
 20
-449.4650728486322
 30
0.0
 10
362.6065032455517
 20
-397.6205744700283
 30
0.0
 10
387.837397892461
 20
-383.9616407845197
 30
0.0
  0
SPLINE
  5
7B
330
41
100
AcDbEntity
  8
Layer 1
 62
   156
420
  1785491
370
    18
100
AcDbSpline
210
0.0
220
0.0
230
1.0
 70
     8
 71
     3
 72
     8
 73
     4
 74
     0
 42
0.0000000001
 43
0.0000000001
 12
1.0
 22
0.0
 32
0.0
 13
1.0
 23
0.0
 33
0.0
 40
0.0
 40
0.0
 40
0.0
 40
0.0
 40
1.0
 40
1.0
 40
1.0
 40
1.0
 10
376.8404740401747
 20
-465.0881980337181
 30
0.0
 10
375.6451471213077
 20
-464.9783567154118
 30
0.0
 10
348.9734124013412
 20
-474.5279828652419
 30
0.0
 10
293.6334263436984
 20
-477.9071715965802
 30
0.0
  0
SPLINE
  5
7C
330
41
100
AcDbEntity
  8
Layer 1
 62
   156
420
  1785491
370
    18
100
AcDbSpline
210
0.0
220
0.0
230
1.0
 70
     8
 71
     3
 72
     8
 73
     4
 74
     0
 42
0.0000000001
 43
0.0000000001
 12
1.0
 22
0.0
 32
0.0
 13
1.0
 23
0.0
 33
0.0
 40
0.0
 40
0.0
 40
0.0
 40
0.0
 40
1.0
 40
1.0
 40
1.0
 40
1.0
 10
214.0123101089457
 20
-485.3181455015601
 30
0.0
 10
214.0123101089457
 20
-485.3181455015601
 30
0.0
 10
303.1895101229238
 20
-487.4567977464103
 30
0.0
 10
358.3227288027429
 20
-479.1024985154454
 30
0.0
  0
SPLINE
  5
7D
330
41
100
AcDbEntity
  8
Layer 1
 62
   156
420
  1785491
370
    18
100
AcDbSpline
210
0.0
220
0.0
230
1.0
 70
     8
 71
     3
 72
     8
 73
     4
 74
     0
 42
0.0000000001
 43
0.0000000001
 12
1.0
 22
0.0
 32
0.0
 13
1.0
 23
0.0
 33
0.0
 40
0.0
 40
0.0
 40
0.0
 40
0.0
 40
1.0
 40
1.0
 40
1.0
 40
1.0
 10
201.2708650699788
 20
-480.4916467440489
 30
0.0
 10
201.2708650699788
 20
-480.4916467440489
 30
0.0
 10
197.0581861691071
 20
-495.8175607686262
 30
0.0
 10
385.5824528617686
 20
-447.3845700776365
 30
0.0
  0
SPLINE
  5
7E
330
41
100
AcDbEntity
  8
Layer 1
 62
   156
420
  1785491
370
    18
100
AcDbSpline
210
0.0
220
0.0
230
1.0
 70
     8
 71
     3
 72
     8
 73
     4
 74
     0
 42
0.0000000001
 43
0.0000000001
 12
1.0
 22
0.0
 32
0.0
 13
1.0
 23
0.0
 33
0.0
 40
0.0
 40
0.0
 40
0.0
 40
0.0
 40
1.0
 40
1.0
 40
1.0
 40
1.0
 10
224.3631259576177
 20
-475.3227026109671
 30
0.0
 10
224.3631259576177
 20
-475.3227026109671
 30
0.0
 10
352.9535057305293
 20
-445.284694418453
 30
0.0
 10
378.6302232800608
 20
-437.9254000342062
 30
0.0
  0
SPLINE
  5
7F
330
41
100
AcDbEntity
  8
Layer 1
 62
   156
420
  1785491
370
    18
100
AcDbSpline
210
0.0
220
0.0
230
1.0
 70
     8
 71
     3
 72
     8
 73
     4
 74
     0
 42
0.0000000001
 43
0.0000000001
 12
1.0
 22
0.0
 32
0.0
 13
1.0
 23
0.0
 33
0.0
 40
0.0
 40
0.0
 40
0.0
 40
0.0
 40
1.0
 40
1.0
 40
1.0
 40
1.0
 10
203.861804008704
 20
-477.312749275563
 30
0.0
 10
203.861804008704
 20
-477.312749275563
 30
0.0
 10
300.7988562851897
 20
-451.623104143524
 30
0.0
 10
333.4407433226588
 20
-443.2817201713497
 30
0.0
  0
SPLINE
  5
80
330
41
100
AcDbEntity
  8
Layer 1
 62
   156
420
  1785491
370
    18
100
AcDbSpline
210
0.0
220
0.0
230
1.0
 70
     8
 71
     3
 72
     8
 73
     4
 74
     0
 42
0.0000000001
 43
0.0000000001
 12
1.0
 22
0.0
 32
0.0
 13
1.0
 23
0.0
 33
0.0
 40
0.0
 40
0.0
 40
0.0
 40
0.0
 40
1.0
 40
1.0
 40
1.0
 40
1.0
 10
200.6247570663663
 20
-476.3177321051262
 30
0.0
 10
200.6247570663663
 20
-476.3177321051262
 30
0.0
 10
205.4512558238785
 20
-462.9883223745383
 30
0.0
 10
390.8030765155891
 20
-412.2809829553707
 30
0.0
  0
SPLINE
  5
81
330
41
100
AcDbEntity
  8
Layer 1
 62
   156
420
  1785491
370
    18
100
AcDbSpline
210
0.0
220
0.0
230
1.0
 70
     8
 71
     3
 72
     8
 73
     4
 74
     0
 42
0.0000000001
 43
0.0000000001
 12
1.0
 22
0.0
 32
0.0
 13
1.0
 23
0.0
 33
0.0
 40
0.0
 40
0.0
 40
0.0
 40
0.0
 40
1.0
 40
1.0
 40
1.0
 40
1.0
 10
196.8901892150898
 20
-483.9742191642999
 30
0.0
 10
196.8901892150898
 20
-483.9742191642999
 30
0.0
 10
196.6898917903791
 20
-493.9179763722968
 30
0.0
 10
342.7965173534521
 20
-490.189872312274
 30
0.0
  0
SPLINE
  5
82
330
41
100
AcDbEntity
  8
Layer 1
 62
   156
420
  1785491
370
    18
100
AcDbSpline
210
0.0
220
0.0
230
1.0
 70
     8
 71
     3
 72
     8
 73
     4
 74
     0
 42
0.0000000001
 43
0.0000000001
 12
1.0
 22
0.0
 32
0.0
 13
1.0
 23
0.0
 33
0.0
 40
0.0
 40
0.0
 40
0.0
 40
0.0
 40
1.0
 40
1.0
 40
1.0
 40
1.0
 10
255.0149540067723
 20
-510.0192310925577
 30
0.0
 10
255.0149540067723
 20
-510.0192310925577
 30
0.0
 10
304.7789496143778
 20
-523.8526131996186
 30
0.0
 10
332.2518740331852
 20
-524.6473391072068
 30
0.0
  0
SPLINE
  5
83
330
41
100
AcDbEntity
  8
Layer 1
 62
   156
420
  1785491
370
    18
100
AcDbSpline
210
0.0
220
0.0
230
1.0
 70
     8
 71
     3
 72
     8
 73
     4
 74
     0
 42
0.0000000001
 43
0.0000000001
 12
1.0
 22
0.0
 32
0.0
 13
1.0
 23
0.0
 33
0.0
 40
0.0
 40
0.0
 40
0.0
 40
0.0
 40
1.0
 40
1.0
 40
1.0
 40
1.0
 10
240.4837597279211
 20
-501.9750644427513
 30
0.0
 10
240.4837597279211
 20
-501.9750644427513
 30
0.0
 10
327.4706156525954
 20
-522.8575960291819
 30
0.0
 10
349.167239872937
 20
-518.0827829542668
 30
0.0
  0
SPLINE
  5
84
330
41
100
AcDbEntity
  8
Layer 1
 62
   156
420
  1785491
370
    18
100
AcDbSpline
210
0.0
220
0.0
230
1.0
 70
     8
 71
     3
 72
     8
 73
     4
 74
     0
 42
0.0000000001
 43
0.0000000001
 12
1.0
 22
0.0
 32
0.0
 13
1.0
 23
0.0
 33
0.0
 40
0.0
 40
0.0
 40
0.0
 40
0.0
 40
1.0
 40
1.0
 40
1.0
 40
1.0
 10
194.2604921762768
 20
-489.0397857703283
 30
0.0
 10
194.2604921762768
 20
-489.0397857703283
 30
0.0
 10
196.6963494197726
 20
-499.9850177781573
 30
0.0
 10
363.0070980949749
 20
-497.697766114914
 30
0.0
  0
SPLINE
  5
85
330
41
100
AcDbEntity
  8
Layer 1
 62
   156
420
  1785491
370
    18
100
AcDbSpline
210
0.0
220
0.0
230
1.0
 70
     8
 71
     3
 72
     8
 73
     4
 74
     0
 42
0.0000000001
 43
0.0000000001
 12
1.0
 22
0.0
 32
0.0
 13
1.0
 23
0.0
 33
0.0
 40
0.0
 40
0.0
 40
0.0
 40
0.0
 40
1.0
 40
1.0
 40
1.0
 40
1.0
 10
211.2210860692303
 20
-510.0192310925577
 30
0.0
 10
211.2210860692303
 20
-510.0192310925577
 30
0.0
 10
261.7475009518694
 20
-532.3619879639518
 30
0.0
 10
290.648350184947
 20
-541.2525692848703
 30
0.0
  0
SPLINE
  5
86
330
41
100
AcDbEntity
  8
Layer 1
 62
   156
420
  1785491
370
    18
100
AcDbSpline
210
0.0
220
0.0
230
1.0
 70
     8
 71
     3
 72
     8
 73
     4
 74
     0
 42
0.0000000001
 43
0.0000000001
 12
1.0
 22
0.0
 32
0.0
 13
1.0
 23
0.0
 33
0.0
 40
0.0
 40
0.0
 40
0.0
 40
0.0
 40
1.0
 40
1.0
 40
1.0
 40
1.0
 10
208.8369145083298
 20
-504.7598308530742
 30
0.0
 10
208.8369145083298
 20
-504.7598308530742
 30
0.0
 10
272.3309146959455
 20
-531.4121926848566
 30
0.0
 10
318.3151267227913
 20
-539.3659032282576
 30
0.0
  0
SPLINE
  5
87
330
41
100
AcDbEntity
  8
Layer 1
 62
   156
420
  1785491
370
    18
100
AcDbSpline
210
0.0
220
0.0
230
1.0
 70
     8
 71
     3
 72
     8
 73
     4
 74
     0
 42
0.0000000001
 43
0.0000000001
 12
1.0
 22
0.0
 32
0.0
 13
1.0
 23
0.0
 33
0.0
 40
0.0
 40
0.0
 40
0.0
 40
0.0
 40
1.0
 40
1.0
 40
1.0
 40
1.0
 10
194.157108487364
 20
-490.189872312274
 30
0.0
 10
194.157108487364
 20
-490.189872312274
 30
0.0
 10
258.0000055180844
 20
-521.32629368786
 30
0.0
 10
339.8114658421437
 20
-529.8485898728395
 30
0.0
  0
SPLINE
  5
88
330
41
100
AcDbEntity
  8
Layer 1
 62
   156
420
  1785491
370
    18
100
AcDbSpline
210
0.0
220
0.0
230
1.0
 70
     8
 71
     3
 72
     8
 73
     4
 74
     0
 42
0.0000000001
 43
0.0000000001
 12
1.0
 22
0.0
 32
0.0
 13
1.0
 23
0.0
 33
0.0
 40
0.0
 40
0.0
 40
0.0
 40
0.0
 40
1.0
 40
1.0
 40
1.0
 40
1.0
 10
192.1153761401747
 20
-493.6207590499289
 30
0.0
 10
192.1153761401747
 20
-493.6207590499289
 30
0.0
 10
178.5404409316734
 20
-509.6767857169871
 30
0.0
 10
310.8330757614494
 20
-558.3359228358495
 30
0.0
  0
SPLINE
  5
89
330
41
100
AcDbEntity
  8
Layer 1
 62
   156
420
  1785491
370
    18
100
AcDbSpline
210
0.0
220
0.0
230
1.0
 70
     8
 71
     3
 72
     8
 73
     4
 74
     0
 42
0.0000000001
 43
0.0000000001
 12
1.0
 22
0.0
 32
0.0
 13
1.0
 23
0.0
 33
0.0
 40
0.0
 40
0.0
 40
0.0
 40
0.0
 40
1.0
 40
1.0
 40
1.0
 40
1.0
 10
207.6415875894618
 20
-524.6473391072068
 30
0.0
 10
207.6415875894618
 20
-524.6473391072068
 30
0.0
 10
229.5385215582337
 20
-547.3260744819854
 30
0.0
 10
270.9417603054808
 20
-568.0083071032404
 30
0.0
  0
SPLINE
  5
8A
330
41
100
AcDbEntity
  8
Layer 1
 62
   156
420
  1785491
370
    18
100
AcDbSpline
210
0.0
220
0.0
230
1.0
 70
     8
 71
     3
 72
     8
 73
     4
 74
     0
 42
0.0000000001
 43
0.0000000001
 12
1.0
 22
0.0
 32
0.0
 13
1.0
 23
0.0
 33
0.0
 40
0.0
 40
0.0
 40
0.0
 40
0.0
 40
1.0
 40
1.0
 40
1.0
 40
1.0
 10
189.5244495251682
 20
-494.6674680648212
 30
0.0
 10
189.5244495251682
 20
-494.6674680648212
 30
0.0
 10
177.6358798676392
 20
-517.3526703117841
 30
0.0
 10
297.4390404420355
 20
-569.8303598947477
 30
0.0
  0
SPLINE
  5
8B
330
41
100
AcDbEntity
  8
Layer 1
 62
   156
420
  1785491
370
    18
100
AcDbSpline
210
0.0
220
0.0
230
1.0
 70
     8
 71
     3
 72
     8
 73
     4
 74
     0
 42
0.0000000001
 43
0.0000000001
 12
1.0
 22
0.0
 32
0.0
 13
1.0
 23
0.0
 33
0.0
 40
0.0
 40
0.0
 40
0.0
 40
0.0
 40
1.0
 40
1.0
 40
1.0
 40
1.0
 10
172.008191411287
 20
-502.7245622971368
 30
0.0
 10
172.008191411287
 20
-502.7245622971368
 30
0.0
 10
169.6369351091753
 20
-541.7113136081407
 30
0.0
 10
181.1830655529948
 20
-580.6076049615804
 30
0.0
  0
SPLINE
  5
8C
330
41
100
AcDbEntity
  8
Layer 1
 62
   156
420
  1785491
370
    18
100
AcDbSpline
210
0.0
220
0.0
230
1.0
 70
     8
 71
     3
 72
     8
 73
     4
 74
     0
 42
0.0000000001
 43
0.0000000001
 12
1.0
 22
0.0
 32
0.0
 13
1.0
 23
0.0
 33
0.0
 40
0.0
 40
0.0
 40
0.0
 40
0.0
 40
1.0
 40
1.0
 40
1.0
 40
1.0
 10
214.0123101089457
 20
-540.3027740057751
 30
0.0
 10
214.0123101089457
 20
-540.3027740057751
 30
0.0
 10
248.4826921626645
 20
-572.0530052249778
 30
0.0
 10
256.00997117721
 20
-576.3626109555971
 30
0.0
  0
SPLINE
  5
8D
330
41
100
AcDbEntity
  8
Layer 1
 62
   156
420
  1785491
370
    18
100
AcDbSpline
210
0.0
220
0.0
230
1.0
 70
     8
 71
     3
 72
     8
 73
     4
 74
     0
 42
0.0000000001
 43
0.0000000001
 12
1.0
 22
0.0
 32
0.0
 13
1.0
 23
0.0
 33
0.0
 40
0.0
 40
0.0
 40
0.0
 40
0.0
 40
1.0
 40
1.0
 40
1.0
 40
1.0
 10
206.646570419025
 20
-540.3027740057751
 30
0.0
 10
206.646570419025
 20
-540.3027740057751
 30
0.0
 10
233.3053898802018
 20
-569.636524720825
 30
0.0
 10
237.8992907423108
 20
-574.643937231609
 30
0.0
  0
SPLINE
  5
8E
330
41
100
AcDbEntity
  8
Layer 1
 62
   156
420
  1785491
370
    18
100
AcDbSpline
210
0.0
220
0.0
230
1.0
 70
     8
 71
     3
 72
     8
 73
     4
 74
     0
 42
0.0000000001
 43
0.0000000001
 12
1.0
 22
0.0
 32
0.0
 13
1.0
 23
0.0
 33
0.0
 40
0.0
 40
0.0
 40
0.0
 40
0.0
 40
1.0
 40
1.0
 40
1.0
 40
1.0
 10
187.0885799579519
 20
-497.697766114914
 30
0.0
 10
187.0885799579519
 20
-497.697766114914
 30
0.0
 10
179.7745259506282
 20
-517.9212497915032
 30
0.0
 10
278.1071902469712
 20
-577.1767193792748
 30
0.0
  0
SPLINE
  5
8F
330
41
100
AcDbEntity
  8
Layer 1
 62
   156
420
  1785491
370
    18
100
AcDbSpline
210
0.0
220
0.0
230
1.0
 70
     8
 71
     3
 72
     8
 73
     4
 74
     0
 42
0.0000000001
 43
0.0000000001
 12
1.0
 22
0.0
 32
0.0
 13
1.0
 23
0.0
 33
0.0
 40
0.0
 40
0.0
 40
0.0
 40
0.0
 40
1.0
 40
1.0
 40
1.0
 40
1.0
 10
182.9598872103688
 20
-500.3791549981834
 30
0.0
 10
182.9598872103688
 20
-500.3791549981834
 30
0.0
 10
203.2673693639672
 20
-555.4477758175453
 30
0.0
 10
222.7736741424433
 20
-580.2263953240617
 30
0.0
  0
SPLINE
  5
90
330
41
100
AcDbEntity
  8
Layer 1
 62
   156
420
  1785491
370
    18
100
AcDbSpline
210
0.0
220
0.0
230
1.0
 70
     8
 71
     3
 72
     8
 73
     4
 74
     0
 42
0.0000000001
 43
0.0000000001
 12
1.0
 22
0.0
 32
0.0
 13
1.0
 23
0.0
 33
0.0
 40
0.0
 40
0.0
 40
0.0
 40
0.0
 40
1.0
 40
1.0
 40
1.0
 40
1.0
 10
178.0300047639448
 20
-501.9750644427513
 30
0.0
 10
178.0300047639448
 20
-501.9750644427513
 30
0.0
 10
190.32563922401
 20
-555.0601054697036
 30
0.0
 10
211.2210860692303
 20
-580.5300710460579
 30
0.0
  0
SPLINE
  5
91
330
41
100
AcDbEntity
  8
Layer 1
 62
   156
420
  1785491
370
    18
100
AcDbSpline
210
0.0
220
0.0
230
1.0
 70
     8
 71
     3
 72
     8
 73
     4
 74
     0
 42
0.0000000001
 43
0.0000000001
 12
1.0
 22
0.0
 32
0.0
 13
1.0
 23
0.0
 33
0.0
 40
0.0
 40
0.0
 40
0.0
 40
0.0
 40
1.0
 40
1.0
 40
1.0
 40
1.0
 10
177.7844916097538
 20
-505.9486878188254
 30
0.0
 10
177.7844916097538
 20
-505.9486878188254
 30
0.0
 10
181.1636803410911
 20
-553.4706567354606
 30
0.0
 10
201.2708650699788
 20
-580.5300710460579
 30
0.0
  0
SPLINE
  5
92
330
41
100
AcDbEntity
  8
Layer 1
 62
   156
420
  1785491
370
    18
100
AcDbSpline
210
0.0
220
0.0
230
1.0
 70
     8
 71
     3
 72
     8
 73
     4
 74
     0
 42
0.0000000001
 43
0.0000000001
 12
1.0
 22
0.0
 32
0.0
 13
1.0
 23
0.0
 33
0.0
 40
0.0
 40
0.0
 40
0.0
 40
0.0
 40
1.0
 40
1.0
 40
1.0
 40
1.0
 10
173.5524151732589
 20
-502.9183959305938
 30
0.0
 10
173.5524151732589
 20
-502.9183959305938
 30
0.0
 10
169.2234250009651
 20
-527.9490054765083
 30
0.0
 10
189.5244495251682
 20
-580.5946827706994
 30
0.0
  0
SPLINE
  5
93
330
41
100
AcDbEntity
  8
Layer 1
 62
   156
420
  1785491
370
    18
100
AcDbSpline
210
0.0
220
0.0
230
1.0
 70
    11
 71
     3
 72
    71
 73
    67
 74
     0
 42
0.0000000001
 43
0.0000000001
 12
1.0
 22
0.0
 32
0.0
 13
1.0
 23
0.0
 33
0.0
 40
0.0
 40
0.0
 40
0.0
 40
0.0
 40
1.0
 40
1.0
 40
1.0
 40
2.0
 40
2.0
 40
2.0
 40
3.0
 40
3.0
 40
3.0
 40
4.0
 40
4.0
 40
4.0
 40
5.0
 40
5.0
 40
5.0
 40
6.0
 40
6.0
 40
6.0
 40
7.0
 40
7.0
 40
7.0
 40
8.0
 40
8.0
 40
8.0
 40
9.0
 40
9.0
 40
9.0
 40
10.0
 40
10.0
 40
10.0
 40
11.0
 40
11.0
 40
11.0
 40
12.0
 40
12.0
 40
12.0
 40
13.0
 40
13.0
 40
13.0
 40
14.0
 40
14.0
 40
14.0
 40
15.0
 40
15.0
 40
15.0
 40
16.0
 40
16.0
 40
16.0
 40
17.0
 40
17.0
 40
17.0
 40
18.0
 40
18.0
 40
18.0
 40
19.0
 40
19.0
 40
19.0
 40
20.0
 40
20.0
 40
20.0
 40
21.0
 40
21.0
 40
21.0
 40
22.0
 40
22.0
 40
22.0
 40
22.0
 10
161.7607592515269
 20
-476.6149432656348
 30
0.0
 10
161.7607592515269
 20
-476.6149432656348
 30
0.0
 10
160.2165354895551
 20
-479.296325987043
 30
0.0
 10
158.3234148844786
 20
-479.942446314375
 30
0.0
 10
158.3234148844786
 20
-479.942446314375
 30
0.0
 10
157.5803808213486
 20
-481.8355669194516
 30
0.0
 10
156.733963069305
 20
-482.184476086275
 30
0.0
 10
156.733963069305
 20
-482.184476086275
 30
0.0
 10
157.7289802397418
 20
-487.0045110525316
 30
0.0
 10
154.5953169863169
 20
-488.1998318095393
 30
0.0
 10
154.5953169863169
 20
-488.1998318095393
 30
0.0
 10
153.4969161269673
 20
-490.3901697369838
 30
0.0
 10
151.707166887084
 20
-490.9845982198622
 30
0.0
 10
151.707166887084
 20
-490.9845982198622
 30
0.0
 10
154.2464078194926
 20
-492.8712611955434
 30
0.0
 10
154.1430241305798
 20
-495.1132909674452
 30
0.0
 10
154.1430241305798
 20
-495.1132909674452
 30
0.0
 10
156.6822773867088
 20
-495.1585190206461
 30
0.0
 10
156.733963069305
 20
-499.1902980324303
 30
0.0
 10
156.733963069305
 20
-499.1902980324303
 30
0.0
 10
160.2165354895551
 20
-501.0317329549089
 30
0.0
 10
162.5554789972539
 20
-503.2672989355578
 30
0.0
 10
162.5554789972539
 20
-503.2672989355578
 30
0.0
 10
166.5872580090381
 20
-502.020292495954
 30
0.0
 10
168.2800935131236
 20
-502.9183959305938
 30
0.0
 10
168.2800935131236
 20
-502.9183959305938
 30
0.0
 10
172.008191411287
 20
-502.4725730279697
 30
0.0
 10
173.5524151732589
 20
-502.9183959305938
 30
0.0
 10
173.5524151732589
 20
-502.9183959305938
 30
0.0
 10
175.4455357783354
 20
-498.7897031830107
 30
0.0
 10
178.0300047639448
 20
-501.9750644427513
 30
0.0
 10
178.0300047639448
 20
-501.9750644427513
 30
0.0
 10
181.0150809226961
 20
-500.1853152028671
 30
0.0
 10
182.9598872103688
 20
-500.3791549981834
 30
0.0
 10
182.9598872103688
 20
-500.3791549981834
 30
0.0
 10
184.4007272834288
 20
-497.9432854309671
 30
0.0
 10
187.0885799579519
 20
-497.697766114914
 30
0.0
 10
187.0885799579519
 20
-497.697766114914
 30
0.0
 10
188.8783291978361
 20
-493.8662845278413
 30
0.0
 10
192.1153761401747
 20
-493.6207590499289
 30
0.0
 10
192.1153761401747
 20
-493.6207590499289
 30
0.0
 10
192.0636904575776
 20
-490.3901697369838
 30
0.0
 10
194.157108487364
 20
-490.189872312274
 30
0.0
 10
194.157108487364
 20
-490.189872312274
 30
0.0
 10
194.3057202294785
 20
-485.2664536571065
 30
0.0
 10
196.8901892150898
 20
-483.9742191642999
 30
0.0
 10
196.8901892150898
 20
-483.9742191642999
 30
0.0
 10
197.0904866397996
 20
-479.3480239933579
 30
0.0
 10
199.8300249969188
 20
-477.312749275563
 30
0.0
 10
199.8300249969188
 20
-477.312749275563
 30
0.0
 10
196.4443663124666
 20
-473.6815651131983
 30
0.0
 10
196.3926806298714
 20
-472.8868453674713
 30
0.0
 10
196.3926806298714
 20
-472.8868453674713
 30
0.0
 10
191.8633930328679
 20
-471.0970961275871
 30
0.0
 10
191.76647929707
 20
-469.4559586298183
 30
0.0
 10
191.76647929707
 20
-469.4559586298183
 30
0.0
 10
188.1805231879071
 20
-472.7834616785585
 30
0.0
 10
183.6060075377027
 20
-467.3625406000319
 30
0.0
 10
183.6060075377027
 20
-467.3625406000319
 30
0.0
 10
178.9733485755069
 20
-473.4812676884867
 30
0.0
 10
172.4087862607084
 20
-471.4912210238945
 30
0.0
 10
172.4087862607084
 20
-471.4912210238945
 30
0.0
 10
171.0648599234464
 20
-474.2243017516194
 30
0.0
 10
168.028098082098
 20
-473.4812676884867
 30
0.0
 10
168.2865511425198
 20
-473.5394233241987
 30
0.0
 10
168.1314817710099
 20
-475.9688229383009
 30
0.0
 10
161.7607592515269
 20
-476.6149432656348
 30
0.0
  0
SPLINE
  5
94
330
41
100
AcDbEntity
  8
Layer 1
 62
   156
420
  1785491
370
    18
100
AcDbSpline
210
0.0
220
0.0
230
1.0
 70
     8
 71
     3
 72
    77
 73
    73
 74
     0
 42
0.0000000001
 43
0.0000000001
 12
1.0
 22
0.0
 32
0.0
 13
1.0
 23
0.0
 33
0.0
 40
0.0
 40
0.0
 40
0.0
 40
0.0
 40
1.0
 40
1.0
 40
1.0
 40
2.0
 40
2.0
 40
2.0
 40
3.0
 40
3.0
 40
3.0
 40
4.0
 40
4.0
 40
4.0
 40
5.0
 40
5.0
 40
5.0
 40
6.0
 40
6.0
 40
6.0
 40
7.0
 40
7.0
 40
7.0
 40
8.0
 40
8.0
 40
8.0
 40
9.0
 40
9.0
 40
9.0
 40
10.0
 40
10.0
 40
10.0
 40
11.0
 40
11.0
 40
11.0
 40
12.0
 40
12.0
 40
12.0
 40
13.0
 40
13.0
 40
13.0
 40
14.0
 40
14.0
 40
14.0
 40
15.0
 40
15.0
 40
15.0
 40
16.0
 40
16.0
 40
16.0
 40
17.0
 40
17.0
 40
17.0
 40
18.0
 40
18.0
 40
18.0
 40
19.0
 40
19.0
 40
19.0
 40
20.0
 40
20.0
 40
20.0
 40
21.0
 40
21.0
 40
21.0
 40
22.0
 40
22.0
 40
22.0
 40
23.0
 40
23.0
 40
23.0
 40
24.0
 40
24.0
 40
24.0
 40
24.0
 10
72.53188587867226
 20
-571.8268634185024
 30
0.0
 10
72.53188587867226
 20
-571.8268634185024
 30
0.0
 10
63.12440767970111
 20
-565.2235391524555
 30
0.0
 10
61.92909000362306
 20
-560.674869424478
 30
0.0
 10
61.78048442336967
 20
-559.9253731105582
 30
0.0
 10
49.54301176087574
 20
-547.920502964862
 30
0.0
 10
46.10566431289772
 20
-537.3306315913924
 30
0.0
 10
45.88598475721301
 20
-536.3549965519287
 30
0.0
 10
37.97104155668876
 20
-520.9192412090451
 30
0.0
 10
37.89350687093429
 20
-513.9799330479818
 30
0.0
 10
37.67382731524958
 20
-511.9705073333444
 30
0.0
 10
34.83736906047216
 20
-505.9293026069226
 30
0.0
 10
34.83736906047216
 20
-503.6162019405219
 30
0.0
 10
34.83736906047216
 20
-501.3031012741212
 30
0.0
 10
34.5401548190348
 20
-499.9591749368592
 30
0.0
 10
35.87762044597184
 20
-495.3329736040578
 30
0.0
 10
36.25236937316367
 20
-494.4413277988133
 30
0.0
 10
32.89255353001045
 20
-469.0812066216949
 30
0.0
 10
52.67668425709053
 20
-442.6032993733243
 30
0.0
 10
55.13839358467521
 20
-437.9770980405247
 30
0.0
 10
65.81226035422424
 20
-423.7560425046886
 30
0.0
 10
72.0860629760491
 20
-419.3818242791958
 30
0.0
 10
72.77740827565412
 20
-418.7809320050637
 30
0.0
 10
89.64754298127264
 20
-402.3243166504444
 30
0.0
 10
94.02822499802278
 20
-399.6364639759213
 30
0.0
 10
94.92632843266256
 20
-398.796503853273
 30
0.0
 10
102.5892854449512
 20
-392.2319538621941
 30
0.0
 10
109.5027507647146
 20
-387.9546493724974
 30
0.0
 10
110.504231726406
 20
-387.3085290451654
 30
0.0
 10
118.5160917436597
 20
-379.4517383994198
 30
0.0
 10
123.3425905011709
 20
-378.1078120621578
 30
0.0
 10
125.4295570634231
 20
-377.3130923164317
 30
0.0
 10
159.1181346302055
 20
-356.6760985316323
 30
0.0
 10
179.2770173654089
 20
-350.2601479589484
 30
0.0
 10
183.5543218551065
 20
-347.927662080644
 30
0.0
 10
184.846550186051
 20
-347.1329300111975
 30
0.0
 10
189.9250443745896
 20
-346.435136324988
 30
0.0
 10
191.1203589697361
 20
-346.435136324988
 30
0.0
 10
215.4014644994077
 20
-336.4913729551317
 30
0.0
 10
243.5722072518656
 20
-332.9118744753632
 30
0.0
 10
245.659155328538
 20
-332.3109945249525
 30
0.0
 10
250.8345755765931
 20
-331.3159773545158
 30
0.0
 10
254.517445421553
 20
-331.4193487197081
 30
0.0
 10
258.2003152665138
 20
-331.5162624555051
 30
0.0
 10
275.516275955687
 20
-329.0287195294131
 30
0.0
 10
281.8869984751691
 20
-330.1271080650422
 30
0.0
 10
282.6817305446166
 20
-330.5212452850692
 30
0.0
 10
324.5824532296429
 20
-328.1370737241687
 30
0.0
 10
352.8501097178978
 20
-340.8656035043468
 30
0.0
 10
381.1177662061527
 20
-353.594108637084
 30
0.0
 10
388.1863070592844
 20
-380.3433842046643
 30
0.0
 10
390.176341400158
 20
-396.1603491850674
 30
0.0
 10
392.1664003884725
 20
-411.9708565360734
 30
0.0
 10
389.27823796552
 20
-435.8384396338151
 30
0.0
 10
387.585427108872
 20
-439.8185329630051
 30
0.0
 10
387.2882036246465
 20
-440.81355013344
 30
0.0
 10
383.3081102954566
 20
-457.2184798054641
 30
0.0
 10
379.8255501989261
 20
-464.5777618659904
 30
0.0
 10
378.8305083810483
 20
-465.9733862095673
 30
0.0
 10
373.7520265162311
 20
-480.2913493193391
 30
0.0
 10
365.7918645052941
 20
-493.2201642005075
 30
0.0
 10
357.8252202175227
 20
-506.148985243537
 30
0.0
 10
350.7631616412255
 20
-516.4933311390923
 30
0.0
 10
349.167239872937
 20
-518.0827829542668
 30
0.0
 10
349.167239872937
 20
-518.0827829542668
 30
0.0
 10
337.9248028664588
 20
-533.2988587414675
 30
0.0
 10
330.8562620133289
 20
-539.1656088844793
 30
0.0
 10
330.8562620133289
 20
-539.1656088844793
 30
0.0
 10
304.8823209795701
 20
-564.8294080942869
 30
0.0
 10
300.0041488631832
 20
-567.4138786203639
 30
0.0
 10
299.1060454285434
 20
-567.911390286512
 30
0.0
 10
294.0404788225151
 20
-573.8298291930478
 30
0.0
 10
291.1329435113794
 20
-574.643937231609
 30
0.0
  0
SPLINE
  5
95
330
41
100
AcDbEntity
  8
Layer 1
 62
   156
420
  1785491
370
    18
100
AcDbSpline
210
0.0
220
0.0
230
1.0
 70
    11
 71
     3
 72
    23
 73
    19
 74
     0
 42
0.0000000001
 43
0.0000000001
 12
1.0
 22
0.0
 32
0.0
 13
1.0
 23
0.0
 33
0.0
 40
0.0
 40
0.0
 40
0.0
 40
0.0
 40
1.0
 40
1.0
 40
1.0
 40
2.0
 40
2.0
 40
2.0
 40
3.0
 40
3.0
 40
3.0
 40
4.0
 40
4.0
 40
4.0
 40
5.0
 40
5.0
 40
5.0
 40
6.0
 40
6.0
 40
6.0
 40
6.0
 10
72.53188587867226
 20
-571.8268634185024
 30
0.0
 10
72.53188587867226
 20
-571.8268634185024
 30
0.0
 10
81.63568604495049
 20
-580.4008475967785
 30
0.0
 10
175.1935526710295
 20
-580.6011442512554
 30
0.0
 10
268.751416216176
 20
-580.8014409057341
 30
0.0
 10
292.0375045754117
 20
-576.4272226802386
 30
0.0
 10
294.628443514137
 20
-572.6474337078544
 30
0.0
 10
294.628443514137
 20
-572.6474337078544
 30
0.0
 10
294.628443514137
 20
-574.7731614511213
 30
0.0
 10
294.628443514137
 20
-574.7731614511213
 30
0.0
 10
292.0375045754117
 20
-578.5464889429513
 30
0.0
 10
268.751416216176
 20
-582.9271686490029
 30
0.0
 10
175.1935526710295
 20
-582.7268719945241
 30
0.0
 10
81.63568604495049
 20
-582.5265753400454
 30
0.0
 10
72.53188587867226
 20
-573.9525911617711
 30
0.0
 10
72.53188587867226
 20
-573.9525911617711
 30
0.0
 10
72.53188587867226
 20
-573.9525911617711
 30
0.0
 10
72.53188587867226
 20
-571.8268634185024
 30
0.0
 10
72.53188587867226
 20
-571.8268634185024
 30
0.0
  0
SPLINE
  5
96
330
41
100
AcDbEntity
  8
Layer 1
 62
   156
420
  1785491
370
    18
100
AcDbSpline
210
0.0
220
0.0
230
1.0
 70
    11
 71
     3
 72
    77
 73
    73
 74
     0
 42
0.0000000001
 43
0.0000000001
 12
1.0
 22
0.0
 32
0.0
 13
1.0
 23
0.0
 33
0.0
 40
0.0
 40
0.0
 40
0.0
 40
0.0
 40
1.0
 40
1.0
 40
1.0
 40
2.0
 40
2.0
 40
2.0
 40
3.0
 40
3.0
 40
3.0
 40
4.0
 40
4.0
 40
4.0
 40
5.0
 40
5.0
 40
5.0
 40
6.0
 40
6.0
 40
6.0
 40
7.0
 40
7.0
 40
7.0
 40
8.0
 40
8.0
 40
8.0
 40
9.0
 40
9.0
 40
9.0
 40
10.0
 40
10.0
 40
10.0
 40
11.0
 40
11.0
 40
11.0
 40
12.0
 40
12.0
 40
12.0
 40
13.0
 40
13.0
 40
13.0
 40
14.0
 40
14.0
 40
14.0
 40
15.0
 40
15.0
 40
15.0
 40
16.0
 40
16.0
 40
16.0
 40
17.0
 40
17.0
 40
17.0
 40
18.0
 40
18.0
 40
18.0
 40
19.0
 40
19.0
 40
19.0
 40
20.0
 40
20.0
 40
20.0
 40
21.0
 40
21.0
 40
21.0
 40
22.0
 40
22.0
 40
22.0
 40
23.0
 40
23.0
 40
23.0
 40
24.0
 40
24.0
 40
24.0
 40
24.0
 10
511.7014091346373
 20
-324.6480067033644
 30
0.0
 10
511.7014091346373
 20
-324.6480067033644
 30
0.0
 10
513.316703791108
 20
-324.6480067033644
 30
0.0
 10
513.316703791108
 20
-324.6480067033644
 30
0.0
 10
513.316703791108
 20
-324.6480067033644
 30
0.0
 10
514.9837087776159
 20
-325.9983906700199
 30
0.0
 10
515.0547427009551
 20
-337.609134378944
 30
0.0
 10
515.1387411779633
 20
-349.219878087868
 30
0.0
 10
515.0547427009551
 20
-360.7401656903903
 30
0.0
 10
515.0547427009551
 20
-376.8220290368872
 30
0.0
 10
515.0547427009551
 20
-392.9039047071046
 30
0.0
 10
517.2580266964887
 20
-428.5373008852803
 30
0.0
 10
516.3276351148779
 20
-450.1628665348398
 30
0.0
 10
515.4036518677785
 20
-471.8013597669105
 30
0.0
 10
517.0124888948558
 20
-478.0493133855798
 30
0.0
 10
516.5602083628401
 20
-489.6212866706956
 30
0.0
 10
516.0950125720337
 20
-501.1867961645603
 30
0.0
 10
515.7525610346056
 20
-525.144841530564
 30
0.0
 10
515.6362744106227
 20
-536.0190088057534
 30
0.0
 10
515.5199877866417
 20
-546.8931699190816
 30
0.0
 10
515.1710786198164
 20
-571.1807392400078
 30
0.0
 10
514.4797179155612
 20
-573.9590480209354
 30
0.0
 10
514.4797179155612
 20
-573.9590480209354
 30
0.0
 10
514.5960045395441
 20
-576.8536557495627
 30
0.0
 10
523.615833957183
 20
-574.1916459163385
 30
0.0
 10
532.642071709337
 20
-571.5361060362266
 30
0.0
 10
540.0530640999004
 20
-567.7110820785474
 30
0.0
 10
545.6032240323584
 20
-560.7717800793453
 30
0.0
 10
545.6032240323584
 20
-560.7717800793453
 30
0.0
 10
535.4656331909064
 20
-578.126511192324
 30
0.0
 10
513.4007022681162
 20
-577.8939009732003
 30
0.0
 10
491.3357713453279
 20
-577.661303077799
 30
0.0
 10
481.5018862649395
 20
-564.5903340839086
 30
0.0
 10
478.4909549411677
 20
-558.6848196789524
 30
0.0
 10
478.4909549411677
 20
-558.6848196789524
 30
0.0
 10
488.5639201937938
 20
-574.1916459163385
 30
0.0
 10
512.0503183014607
 20
-574.999293244573
 30
0.0
 10
513.5493263339504
 20
-574.999293244573
 30
0.0
 10
512.8579656296952
 20
-567.4784841831442
 30
0.0
 10
512.8579656296952
 20
-564.3577361885073
 30
0.0
 10
512.8579656296952
 20
-561.2369881938721
 30
0.0
 10
512.9742522536781
 20
-529.415682229006
 30
0.0
 10
513.316703791108
 20
-520.7447804637723
 30
0.0
 10
513.6656129579333
 20
-512.0609572778867
 30
0.0
 10
513.316703791108
 20
-500.954192107296
 30
0.0
 10
513.4394480444826
 20
-497.1420957321261
 30
0.0
 10
513.5493263339504
 20
-493.3235417275591
 30
0.0
 10
513.4394480444826
 20
-478.0493133855798
 30
0.0
 10
513.5493263339504
 20
-473.4231120527766
 30
0.0
 10
513.6656129579333
 20
-468.8033683493704
 30
0.0
 10
512.9742522536781
 20
-456.7661992734465
 30
0.0
 10
513.0905881725394
 20
-447.513784284125
 30
0.0
 10
513.2068747965204
 20
-438.2549116654081
 30
0.0
 10
513.4394480444826
 20
-424.2600087193023
 30
0.0
 10
513.0905881725394
 20
-415.117435048287
 30
0.0
 10
512.7416790057159
 20
-405.9813313303857
 30
0.0
 10
513.2068747965204
 20
-401.4649589921728
 30
0.0
 10
513.0905881725394
 20
-392.3223976448771
 30
0.0
 10
512.9742522536781
 20
-383.1862939269758
 30
0.0
 10
513.0905881725394
 20
-368.7197252369524
 30
0.0
 10
512.9742522536781
 20
-364.3325794289467
 30
0.0
 10
512.8579656296952
 20
-359.9389759915493
 30
0.0
 10
511.4752935160686
 20
-356.1204219869833
 30
0.0
 10
512.0503183014607
 20
-352.76060614383
 30
0.0
 10
512.6253430868528
 20
-349.4072479300703
 30
0.0
 10
512.0503183014607
 20
-345.8212918209074
 30
0.0
 10
512.0503183014607
 20
-345.8212918209074
 30
0.0
 10
512.0503183014607
 20
-345.8212918209074
 30
0.0
 10
512.8579656296952
 20
-337.7189880209717
 30
0.0
 10
512.0503183014607
 20
-336.7950294213133
 30
0.0
 10
512.0503183014607
 20
-336.7950294213133
 30
0.0
 10
512.0503183014607
 20
-328.1176761885436
 30
0.0
 10
511.7014091346373
 20
-324.6480067033644
 30
0.0
  0
SPLINE
  5
97
330
41
100
AcDbEntity
  8
Layer 1
 62
   156
420
  1785491
370
    18
100
AcDbSpline
210
0.0
220
0.0
230
1.0
 70
     8
 71
     3
 72
    44
 73
    40
 74
     0
 42
0.0000000001
 43
0.0000000001
 12
1.0
 22
0.0
 32
0.0
 13
1.0
 23
0.0
 33
0.0
 40
0.0
 40
0.0
 40
0.0
 40
0.0
 40
1.0
 40
1.0
 40
1.0
 40
2.0
 40
2.0
 40
2.0
 40
3.0
 40
3.0
 40
3.0
 40
4.0
 40
4.0
 40
4.0
 40
5.0
 40
5.0
 40
5.0
 40
6.0
 40
6.0
 40
6.0
 40
7.0
 40
7.0
 40
7.0
 40
8.0
 40
8.0
 40
8.0
 40
9.0
 40
9.0
 40
9.0
 40
10.0
 40
10.0
 40
10.0
 40
11.0
 40
11.0
 40
11.0
 40
12.0
 40
12.0
 40
12.0
 40
13.0
 40
13.0
 40
13.0
 40
13.0
 10
513.316703791108
 20
-324.6480067033644
 30
0.0
 10
513.316703791108
 20
-324.6480067033644
 30
0.0
 10
512.7545942645029
 20
-319.1495571009409
 30
0.0
 10
517.3743133204698
 20
-322.2186070892612
 30
0.0
 10
520.0363354774145
 20
-323.982501164126
 30
0.0
 10
521.7679167578699
 20
-326.7285217980807
 30
0.0
 10
521.7679167578699
 20
-326.7285217980807
 30
0.0
 10
521.7679167578699
 20
-326.7285217980807
 30
0.0
 10
531.7116801277261
 20
-324.9904582407944
 30
0.0
 10
542.3597194606264
 20
-342.6940985205965
 30
0.0
 10
553.0077094986464
 20
-360.3977141529604
 30
0.0
 10
554.9719133219423
 20
-372.5447368709101
 30
0.0
 10
554.9719133219423
 20
-372.5447368709101
 30
0.0
 10
554.9719133219423
 20
-372.5447368709101
 30
0.0
 10
566.4340576124741
 20
-389.3179485979417
 30
0.0
 10
567.9395232743573
 20
-404.9346161536332
 30
0.0
 10
569.4384820119667
 20
-420.5512837093238
 30
0.0
 10
569.897269468258
 20
-450.1628665348398
 30
0.0
 10
566.20143506963
 20
-450.0530252165336
 30
0.0
 10
566.20143506963
 20
-450.0530252165336
 30
0.0
 10
567.9395232743573
 20
-452.3790534654454
 30
0.0
 10
567.4743274835528
 20
-455.0345933455537
 30
0.0
 10
567.4743274835528
 20
-455.0345933455537
 30
0.0
 10
570.2461293402012
 20
-461.7348398199574
 30
0.0
 10
567.590614107532
 20
-464.513148600885
 30
0.0
 10
567.590614107532
 20
-464.513148600885
 30
0.0
 10
571.867930920951
 20
-468.3381602348454
 30
0.0
 10
566.4340576124741
 20
-471.9241163440074
 30
0.0
 10
566.4340576124741
 20
-471.9241163440074
 30
0.0
 10
567.8167297261007
 20
-477.8167154901748
 30
0.0
 10
565.1547568640362
 20
-480.2525727336706
 30
0.0
 10
565.1547568640362
 20
-480.2525727336706
 30
0.0
 10
567.2417049407086
 20
-487.4180211607436
 30
0.0
 10
564.6960187026252
 20
-491.9343873370963
 30
0.0
 10
564.6960187026252
 20
-491.9343873370963
 30
0.0
 10
566.8927957738833
 20
-503.7325008882217
 30
0.0
 10
560.761153426638
 20
-518.076313001151
 30
0.0
 10
560.761153426638
 20
-518.076313001151
 30
0.0
 10
559.0230652219107
 20
-545.852918533581
 30
0.0
 10
545.6032240323584
 20
-560.7717800793453
 30
0.0
  0
SPLINE
  5
98
330
41
100
AcDbEntity
  8
Layer 1
 62
   156
420
  1785491
370
    18
100
AcDbSpline
210
0.0
220
0.0
230
1.0
 70
     8
 71
     3
 72
    53
 73
    49
 74
     0
 42
0.0000000001
 43
0.0000000001
 12
1.0
 22
0.0
 32
0.0
 13
1.0
 23
0.0
 33
0.0
 40
0.0
 40
0.0
 40
0.0
 40
0.0
 40
1.0
 40
1.0
 40
1.0
 40
2.0
 40
2.0
 40
2.0
 40
3.0
 40
3.0
 40
3.0
 40
4.0
 40
4.0
 40
4.0
 40
5.0
 40
5.0
 40
5.0
 40
6.0
 40
6.0
 40
6.0
 40
7.0
 40
7.0
 40
7.0
 40
8.0
 40
8.0
 40
8.0
 40
9.0
 40
9.0
 40
9.0
 40
10.0
 40
10.0
 40
10.0
 40
11.0
 40
11.0
 40
11.0
 40
12.0
 40
12.0
 40
12.0
 40
13.0
 40
13.0
 40
13.0
 40
14.0
 40
14.0
 40
14.0
 40
15.0
 40
15.0
 40
15.0
 40
16.0
 40
16.0
 40
16.0
 40
16.0
 10
511.7014091346373
 20
-324.6480067033644
 30
0.0
 10
511.7014091346373
 20
-324.6480067033644
 30
0.0
 10
509.7372053113395
 20
-318.7489622515204
 30
0.0
 10
504.0643011255052
 20
-324.6480067033644
 30
0.0
 10
504.0643011255052
 20
-324.6480067033644
 30
0.0
 10
478.2712969519926
 20
-329.5068305790073
 30
0.0
 10
468.4309049473304
 20
-372.1958277040858
 30
0.0
 10
468.4309049473304
 20
-372.1958277040858
 30
0.0
 10
459.6307828137451
 20
-387.4635860929529
 30
0.0
 10
459.8634053565875
 20
-401.4649589921728
 30
0.0
 10
459.8634053565875
 20
-401.4649589921728
 30
0.0
 10
451.8838458100254
 20
-427.6133546093424
 30
0.0
 10
457.8992015332915
 20
-443.1201808467267
 30
0.0
 10
457.8992015332915
 20
-443.1201808467267
 30
0.0
 10
455.9285400806002
 20
-451.7910887738217
 30
0.0
 10
457.5502923664662
 20
-455.1509046169758
 30
0.0
 10
457.5502923664662
 20
-455.1509046169758
 30
0.0
 10
456.3937358714065
 20
-458.6140918253241
 30
0.0
 10
458.1317747812536
 20
-460.0097038451804
 30
0.0
 10
458.1317747812536
 20
-460.0097038451804
 30
0.0
 10
457.2078408290381
 20
-462.7880126261043
 30
0.0
 10
458.2481107001167
 20
-463.9380991680537
 30
0.0
 10
458.2481107001167
 20
-463.9380991680537
 30
0.0
 10
457.5502923664662
 20
-465.0946556631116
 30
0.0
 10
458.4806839480789
 20
-466.4773401004604
 30
0.0
 10
458.4806839480789
 20
-466.4773401004604
 30
0.0
 10
456.5100224953876
 20
-467.9828057623472
 30
0.0
 10
459.4046179002962
 20
-470.5285043241493
 30
0.0
 10
459.4046179002962
 20
-470.5285043241493
 30
0.0
 10
458.2481107001167
 20
-473.7720212196036
 30
0.0
 10
460.6775103142172
 20
-477.8167154901748
 30
0.0
 10
460.6775103142172
 20
-477.8167154901748
 30
0.0
 10
460.0959786045514
 20
-480.3688778432333
 30
0.0
 10
460.6775103142172
 20
-483.1471866241609
 30
0.0
 10
460.6775103142172
 20
-483.1471866241609
 30
0.0
 10
458.3579396947025
 20
-488.3484312279343
 30
0.0
 10
460.2058075991372
 20
-492.9681749313404
 30
0.0
 10
460.2058075991372
 20
-492.9681749313404
 30
0.0
 10
459.986149609962
 20
-495.4169597573473
 30
0.0
 10
460.9100835621794
 20
-499.2225923412643
 30
0.0
 10
460.9100835621794
 20
-499.2225923412643
 30
0.0
 10
460.6775103142172
 20
-504.8955088508174
 30
0.0
 10
464.1471305045197
 20
-513.4565692977467
 30
0.0
 10
464.1471305045197
 20
-513.4565692977467
 30
0.0
 10
463.6819347137134
 20
-525.144841530564
 30
0.0
 10
466.4537858652457
 20
-534.5135493057278
 30
0.0
 10
469.2450099049602
 20
-543.8822632427509
 30
0.0
 10
471.3642954234856
 20
-549.535794540403
 30
0.0
 10
478.4909549411677
 20
-558.6848196789524
 30
0.0
  0
SPLINE
  5
99
330
41
100
AcDbEntity
  8
Layer 1
 62
   156
420
  1785491
370
    18
100
AcDbSpline
210
0.0
220
0.0
230
1.0
 70
     8
 71
     3
 72
     8
 73
     4
 74
     0
 42
0.0000000001
 43
0.0000000001
 12
1.0
 22
0.0
 32
0.0
 13
1.0
 23
0.0
 33
0.0
 40
0.0
 40
0.0
 40
0.0
 40
0.0
 40
1.0
 40
1.0
 40
1.0
 40
1.0
 10
518.9960656063358
 20
-346.9778483159671
 30
0.0
 10
518.9960656063358
 20
-346.9778483159671
 30
0.0
 10
539.1226725182896
 20
-348.1344048110277
 30
0.0
 10
551.7348663796038
 20
-368.0283645326954
 30
0.0
  0
SPLINE
  5
9A
330
41
100
AcDbEntity
  8
Layer 1
 62
   156
420
  1785491
370
    18
100
AcDbSpline
210
0.0
220
0.0
230
1.0
 70
     8
 71
     3
 72
    11
 73
     7
 74
     0
 42
0.0000000001
 43
0.0000000001
 12
1.0
 22
0.0
 32
0.0
 13
1.0
 23
0.0
 33
0.0
 40
0.0
 40
0.0
 40
0.0
 40
0.0
 40
1.0
 40
1.0
 40
1.0
 40
2.0
 40
2.0
 40
2.0
 40
2.0
 10
516.0950125720337
 20
-325.2230561361957
 30
0.0
 10
516.0950125720337
 20
-325.2230561361957
 30
0.0
 10
517.7232224872951
 20
-324.066499641136
 30
0.0
 10
520.8439828056526
 20
-328.0013649171233
 30
0.0
 10
523.9712007534035
 20
-331.9362301931096
 30
0.0
 10
541.3647022901878
 20
-353.5359406776515
 30
0.0
 10
544.6986629683252
 20
-359.3380960411378
 30
0.0
  0
SPLINE
  5
9B
330
41
100
AcDbEntity
  8
Layer 1
 62
   156
420
  1785491
370
    18
100
AcDbSpline
210
0.0
220
0.0
230
1.0
 70
     8
 71
     3
 72
     8
 73
     4
 74
     0
 42
0.0000000001
 43
0.0000000001
 12
1.0
 22
0.0
 32
0.0
 13
1.0
 23
0.0
 33
0.0
 40
0.0
 40
0.0
 40
0.0
 40
0.0
 40
1.0
 40
1.0
 40
1.0
 40
1.0
 10
525.9354045766995
 20
-332.0525168170916
 30
0.0
 10
525.9354045766995
 20
-332.0525168170916
 30
0.0
 10
542.4760060846074
 20
-345.0588725458729
 30
0.0
 10
549.0728935175393
 20
-364.2356656931488
 30
0.0
  0
SPLINE
  5
9C
330
41
100
AcDbEntity
  8
Layer 1
 62
   156
420
  1785491
370
    18
100
AcDbSpline
210
0.0
220
0.0
230
1.0
 70
     8
 71
     3
 72
     8
 73
     4
 74
     0
 42
0.0000000001
 43
0.0000000001
 12
1.0
 22
0.0
 32
0.0
 13
1.0
 23
0.0
 33
0.0
 40
0.0
 40
0.0
 40
0.0
 40
0.0
 40
1.0
 40
1.0
 40
1.0
 40
1.0
 10
516.0950125720337
 20
-333.7841227449844
 30
0.0
 10
516.0950125720337
 20
-333.7841227449844
 30
0.0
 10
518.065674024725
 20
-332.5112796259427
 30
0.0
 10
520.6113602628084
 20
-335.2895637594283
 30
0.0
  0
SPLINE
  5
9D
330
41
100
AcDbEntity
  8
Layer 1
 62
   156
420
  1785491
370
    18
100
AcDbSpline
210
0.0
220
0.0
230
1.0
 70
     8
 71
     3
 72
     8
 73
     4
 74
     0
 42
0.0000000001
 43
0.0000000001
 12
1.0
 22
0.0
 32
0.0
 13
1.0
 23
0.0
 33
0.0
 40
0.0
 40
0.0
 40
0.0
 40
0.0
 40
1.0
 40
1.0
 40
1.0
 40
1.0
 10
516.9091175296635
 20
-355.1900057579314
 30
0.0
 10
516.9091175296635
 20
-355.1900057579314
 30
0.0
 10
554.1642659937042
 20
-364.2098105281311
 30
0.0
 10
567.4743274835528
 20
-401.2323610967687
 30
0.0
  0
SPLINE
  5
9E
330
41
100
AcDbEntity
  8
Layer 1
 62
   156
420
  1785491
370
    18
100
AcDbSpline
210
0.0
220
0.0
230
1.0
 70
     8
 71
     3
 72
     8
 73
     4
 74
     0
 42
0.0000000001
 43
0.0000000001
 12
1.0
 22
0.0
 32
0.0
 13
1.0
 23
0.0
 33
0.0
 40
0.0
 40
0.0
 40
0.0
 40
0.0
 40
1.0
 40
1.0
 40
1.0
 40
1.0
 10
523.273382419753
 20
-354.3823584296961
 30
0.0
 10
523.273382419753
 20
-354.3823584296961
 30
0.0
 10
546.7597805274181
 20
-360.5527958481889
 30
0.0
 10
554.2806019125692
 20
-372.6610481423322
 30
0.0
  0
SPLINE
  5
9F
330
41
100
AcDbEntity
  8
Layer 1
 62
   156
420
  1785491
370
    18
100
AcDbSpline
210
0.0
220
0.0
230
1.0
 70
     8
 71
     3
 72
     8
 73
     4
 74
     0
 42
0.0000000001
 43
0.0000000001
 12
1.0
 22
0.0
 32
0.0
 13
1.0
 23
0.0
 33
0.0
 40
0.0
 40
0.0
 40
0.0
 40
0.0
 40
1.0
 40
1.0
 40
1.0
 40
1.0
 10
518.3564152321178
 20
-366.9881193090578
 30
0.0
 10
518.3564152321178
 20
-366.9881193090578
 30
0.0
 10
554.8556266979595
 20
-384.1102402029137
 30
0.0
 10
566.4469728712611
 20
-425.3454819961426
 30
0.0
  0
SPLINE
  5
A0
330
41
100
AcDbEntity
  8
Layer 1
 62
   156
420
  1785491
370
    18
100
AcDbSpline
210
0.0
220
0.0
230
1.0
 70
     8
 71
     3
 72
     8
 73
     4
 74
     0
 42
0.0000000001
 43
0.0000000001
 12
1.0
 22
0.0
 32
0.0
 13
1.0
 23
0.0
 33
0.0
 40
0.0
 40
0.0
 40
0.0
 40
0.0
 40
1.0
 40
1.0
 40
1.0
 40
1.0
 10
538.7802209808578
 20
-376.5894311414841
 30
0.0
 10
538.7802209808578
 20
-376.5894311414841
 30
0.0
 10
568.1915187053837
 20
-399.7333653879987
 30
0.0
 10
569.0443694393816
 20
-429.69385738034
 30
0.0
  0
SPLINE
  5
A1
330
41
100
AcDbEntity
  8
Layer 1
 62
   156
420
  1785491
370
    18
100
AcDbSpline
210
0.0
220
0.0
230
1.0
 70
     8
 71
     3
 72
    14
 73
    10
 74
     0
 42
0.0000000001
 43
0.0000000001
 12
1.0
 22
0.0
 32
0.0
 13
1.0
 23
0.0
 33
0.0
 40
0.0
 40
0.0
 40
0.0
 40
0.0
 40
1.0
 40
1.0
 40
1.0
 40
2.0
 40
2.0
 40
2.0
 40
3.0
 40
3.0
 40
3.0
 40
3.0
 10
516.9091175296635
 20
-390.2418948738787
 30
0.0
 10
516.9091175296635
 20
-390.2418948738787
 30
0.0
 10
520.9538118002383
 20
-390.2418948738787
 30
0.0
 10
525.5864954098743
 20
-394.1832177792612
 30
0.0
 10
530.2126720952347
 20
-398.1116131021327
 30
0.0
 10
551.3924148421738
 20
-412.8237195937909
 30
0.0
 10
553.9122705626796
 20
-415.4663442151123
 30
0.0
 10
558.7904919739467
 20
-420.5706689212284
 30
0.0
 10
563.7979152679854
 20
-426.7087935453092
 30
0.0
 10
566.20143506963
 20
-434.4363576608412
 30
0.0
  0
SPLINE
  5
A2
330
41
100
AcDbEntity
  8
Layer 1
 62
   156
420
  1785491
370
    18
100
AcDbSpline
210
0.0
220
0.0
230
1.0
 70
     8
 71
     3
 72
    14
 73
    10
 74
     0
 42
0.0000000001
 43
0.0000000001
 12
1.0
 22
0.0
 32
0.0
 13
1.0
 23
0.0
 33
0.0
 40
0.0
 40
0.0
 40
0.0
 40
0.0
 40
1.0
 40
1.0
 40
1.0
 40
2.0
 40
2.0
 40
2.0
 40
3.0
 40
3.0
 40
3.0
 40
3.0
 10
518.3564152321178
 20
-382.8438423895459
 30
0.0
 10
518.3564152321178
 20
-382.8438423895459
 30
0.0
 10
522.6919000049656
 20
-383.3025928746774
 30
0.0
 10
531.9443026705667
 20
-391.7473482120449
 30
0.0
 10
541.2031629655648
 20
-400.1921158731311
 30
0.0
 10
560.2959576358335
 20
-418.0055851475208
 30
0.0
 10
560.2959576358335
 20
-418.0055851475208
 30
0.0
 10
560.2959576358335
 20
-418.0055851475208
 30
0.0
 10
569.4708194538198
 20
-423.452361391066
 30
0.0
 10
568.8763724853634
 20
-438.0287713994003
 30
0.0
  0
SPLINE
  5
A3
330
41
100
AcDbEntity
  8
Layer 1
 62
   156
420
  1785491
370
    18
100
AcDbSpline
210
0.0
220
0.0
230
1.0
 70
     8
 71
     3
 72
     8
 73
     4
 74
     0
 42
0.0000000001
 43
0.0000000001
 12
1.0
 22
0.0
 32
0.0
 13
1.0
 23
0.0
 33
0.0
 40
0.0
 40
0.0
 40
0.0
 40
0.0
 40
1.0
 40
1.0
 40
1.0
 40
1.0
 10
540.7379671747585
 20
-393.1365026025069
 30
0.0
 10
540.7379671747585
 20
-393.1365026025069
 30
0.0
 10
559.4883103075954
 20
-404.4047947740019
 30
0.0
 10
566.20143506963
 20
-424.8608886697129
 30
0.0
  0
SPLINE
  5
A4
330
41
100
AcDbEntity
  8
Layer 1
 62
   156
420
  1785491
370
    18
100
AcDbSpline
210
0.0
220
0.0
230
1.0
 70
     8
 71
     3
 72
     8
 73
     4
 74
     0
 42
0.0000000001
 43
0.0000000001
 12
1.0
 22
0.0
 32
0.0
 13
1.0
 23
0.0
 33
0.0
 40
0.0
 40
0.0
 40
0.0
 40
0.0
 40
1.0
 40
1.0
 40
1.0
 40
1.0
 10
527.5571568625655
 20
-378.2111834273501
 30
0.0
 10
527.5571568625655
 20
-378.2111834273501
 30
0.0
 10
542.9412018754138
 20
-390.7071029884064
 30
0.0
 10
546.7597805274181
 20
-395.3333043212069
 30
0.0
  0
SPLINE
  5
A5
330
41
100
AcDbEntity
  8
Layer 1
 62
   156
420
  1785491
370
    18
100
AcDbSpline
210
0.0
220
0.0
230
1.0
 70
     8
 71
     3
 72
    14
 73
    10
 74
     0
 42
0.0000000001
 43
0.0000000001
 12
1.0
 22
0.0
 32
0.0
 13
1.0
 23
0.0
 33
0.0
 40
0.0
 40
0.0
 40
0.0
 40
0.0
 40
1.0
 40
1.0
 40
1.0
 40
2.0
 40
2.0
 40
2.0
 40
3.0
 40
3.0
 40
3.0
 40
3.0
 10
517.8330514818808
 20
-413.4956827624219
 30
0.0
 10
517.8330514818808
 20
-413.4956827624219
 30
0.0
 10
519.687426310591
 20
-413.4956827624219
 30
0.0
 10
523.273382419753
 20
-414.7685382051841
 30
0.0
 10
526.8593385289169
 20
-416.0478512773398
 30
0.0
 10
551.2696705887975
 20
-423.3360501196457
 30
0.0
 10
560.761153426638
 20
-435.2440049890793
 30
0.0
 10
570.2461293402012
 20
-447.1648874410221
 30
0.0
 10
567.4743274835528
 20
-447.0292032814159
 30
0.0
 10
567.4743274835528
 20
-448.5992698846858
 30
0.0
  0
SPLINE
  5
A6
330
41
100
AcDbEntity
  8
Layer 1
 62
   156
420
  1785491
370
    18
100
AcDbSpline
210
0.0
220
0.0
230
1.0
 70
     8
 71
     3
 72
     8
 73
     4
 74
     0
 42
0.0000000001
 43
0.0000000001
 12
1.0
 22
0.0
 32
0.0
 13
1.0
 23
0.0
 33
0.0
 40
0.0
 40
0.0
 40
0.0
 40
0.0
 40
1.0
 40
1.0
 40
1.0
 40
1.0
 10
520.7276961816697
 20
-418.4707932620477
 30
0.0
 10
520.7276961816697
 20
-418.4707932620477
 30
0.0
 10
542.4760060846074
 20
-427.9557938230537
 30
0.0
 10
546.7597805274181
 20
-430.0427542234429
 30
0.0
  0
SPLINE
  5
A7
330
41
100
AcDbEntity
  8
Layer 1
 62
   156
420
  1785491
370
    18
100
AcDbSpline
210
0.0
220
0.0
230
1.0
 70
     8
 71
     3
 72
    14
 73
    10
 74
     0
 42
0.0000000001
 43
0.0000000001
 12
1.0
 22
0.0
 32
0.0
 13
1.0
 23
0.0
 33
0.0
 40
0.0
 40
0.0
 40
0.0
 40
0.0
 40
1.0
 40
1.0
 40
1.0
 40
2.0
 40
2.0
 40
2.0
 40
3.0
 40
3.0
 40
3.0
 40
3.0
 10
517.8330514818808
 20
-426.2242002188796
 30
0.0
 10
517.8330514818808
 20
-426.2242002188796
 30
0.0
 10
520.8439828056526
 20
-426.6829507040093
 30
0.0
 10
522.6919000049656
 20
-427.9557938230537
 30
0.0
 10
524.5462255387938
 20
-429.228649265815
 30
0.0
 10
534.0377083766361
 20
-433.977619499432
 30
0.0
 10
540.0530640999004
 20
-435.3603039367808
 30
0.0
 10
546.0684198231647
 20
-436.7494583272419
 30
0.0
 10
562.2666190885229
 20
-442.1897769413954
 30
0.0
 10
565.3873301119984
 20
-446.9322772218966
 30
0.0
  0
SPLINE
  5
A8
330
41
100
AcDbEntity
  8
Layer 1
 62
   156
420
  1785491
370
    18
100
AcDbSpline
210
0.0
220
0.0
230
1.0
 70
     8
 71
     3
 72
    14
 73
    10
 74
     0
 42
0.0000000001
 43
0.0000000001
 12
1.0
 22
0.0
 32
0.0
 13
1.0
 23
0.0
 33
0.0
 40
0.0
 40
0.0
 40
0.0
 40
0.0
 40
1.0
 40
1.0
 40
1.0
 40
2.0
 40
2.0
 40
2.0
 40
3.0
 40
3.0
 40
3.0
 40
3.0
 10
517.8330514818808
 20
-441.0332204463339
 30
0.0
 10
517.8330514818808
 20
-441.0332204463339
 30
0.0
 10
520.8439828056526
 20
-441.6147275085605
 30
0.0
 10
523.9712007534035
 20
-442.1897769413954
 30
0.0
 10
527.0919610717574
 20
-442.7648263742285
 30
0.0
 10
545.9197957573288
 20
-445.6012784671439
 30
0.0
 10
552.6653072560966
 20
-446.9322772218966
 30
0.0
 10
556.9361171452383
 20
-447.7722373445449
 30
0.0
 10
566.382347282437
 20
-451.1061980226823
 30
0.0
 10
567.4743274835528
 20
-455.0345933455537
 30
0.0
  0
SPLINE
  5
A9
330
41
100
AcDbEntity
  8
Layer 1
 62
   156
420
  1785491
370
    18
100
AcDbSpline
210
0.0
220
0.0
230
1.0
 70
     8
 71
     3
 72
     8
 73
     4
 74
     0
 42
0.0000000001
 43
0.0000000001
 12
1.0
 22
0.0
 32
0.0
 13
1.0
 23
0.0
 33
0.0
 40
0.0
 40
0.0
 40
0.0
 40
0.0
 40
1.0
 40
1.0
 40
1.0
 40
1.0
 10
521.8842526767312
 20
-452.2562968883485
 30
0.0
 10
521.8842526767312
 20
-452.2562968883485
 30
0.0
 10
556.9619476628159
 20
-458.265182658497
 30
0.0
 10
562.841643873915
 20
-459.4217391535585
 30
0.0
  0
SPLINE
  5
AA
330
41
100
AcDbEntity
  8
Layer 1
 62
   156
420
  1785491
370
    18
100
AcDbSpline
210
0.0
220
0.0
230
1.0
 70
     8
 71
     3
 72
    11
 73
     7
 74
     0
 42
0.0000000001
 43
0.0000000001
 12
1.0
 22
0.0
 32
0.0
 13
1.0
 23
0.0
 33
0.0
 40
0.0
 40
0.0
 40
0.0
 40
0.0
 40
1.0
 40
1.0
 40
1.0
 40
2.0
 40
2.0
 40
2.0
 40
2.0
 10
567.590614107532
 20
-464.513148600885
 30
0.0
 10
567.590614107532
 20
-464.513148600885
 30
0.0
 10
568.3982614357701
 20
-469.255648881388
 30
0.0
 10
556.3610923598444
 20
-469.6110156776067
 30
0.0
 10
544.3303809133158
 20
-469.953454891318
 30
0.0
 10
519.1059438958036
 20
-466.134900886751
 30
0.0
 10
517.8330514818808
 20
-464.0544104394721
 30
0.0
  0
SPLINE
  5
AB
330
41
100
AcDbEntity
  8
Layer 1
 62
   156
420
  1785491
370
    18
100
AcDbSpline
210
0.0
220
0.0
230
1.0
 70
     8
 71
     3
 72
    11
 73
     7
 74
     0
 42
0.0000000001
 43
0.0000000001
 12
1.0
 22
0.0
 32
0.0
 13
1.0
 23
0.0
 33
0.0
 40
0.0
 40
0.0
 40
0.0
 40
0.0
 40
1.0
 40
1.0
 40
1.0
 40
2.0
 40
2.0
 40
2.0
 40
2.0
 10
566.4340576124741
 20
-471.9241163440074
 30
0.0
 10
566.4340576124741
 20
-471.9241163440074
 30
0.0
 10
563.4231262887024
 20
-476.2014208337023
 30
0.0
 10
550.462023260563
 20
-476.091579515396
 30
0.0
 10
537.5073778618171
 20
-475.9688229383009
 30
0.0
 10
520.0363354774145
 20
-473.1969717867687
 30
0.0
 10
520.0363354774145
 20
-473.1969717867687
 30
0.0
  0
SPLINE
  5
AC
330
41
100
AcDbEntity
  8
Layer 1
 62
   156
420
  1785491
370
    18
100
AcDbSpline
210
0.0
220
0.0
230
1.0
 70
     8
 71
     3
 72
     8
 73
     4
 74
     0
 42
0.0000000001
 43
0.0000000001
 12
1.0
 22
0.0
 32
0.0
 13
1.0
 23
0.0
 33
0.0
 40
0.0
 40
0.0
 40
0.0
 40
0.0
 40
1.0
 40
1.0
 40
1.0
 40
1.0
 10
565.1547568640362
 20
-480.2525727336706
 30
0.0
 10
565.1547568640362
 20
-480.2525727336706
 30
0.0
 10
555.669731655591
 20
-496.3344484038898
 30
0.0
 10
528.1321816479576
 20
-500.8443507889897
 30
0.0
  0
SPLINE
  5
AD
330
41
100
AcDbEntity
  8
Layer 1
 62
   156
420
  1785491
370
    18
100
AcDbSpline
210
0.0
220
0.0
230
1.0
 70
     8
 71
     3
 72
     8
 73
     4
 74
     0
 42
0.0000000001
 43
0.0000000001
 12
1.0
 22
0.0
 32
0.0
 13
1.0
 23
0.0
 33
0.0
 40
0.0
 40
0.0
 40
0.0
 40
0.0
 40
1.0
 40
1.0
 40
1.0
 40
1.0
 10
518.9960656063358
 20
-488.9234744989062
 30
0.0
 10
518.9960656063358
 20
-488.9234744989062
 30
0.0
 10
545.9197957573288
 20
-490.1963299416675
 30
0.0
 10
561.6204617900294
 20
-477.7068741718685
 30
0.0
  0
SPLINE
  5
AE
330
41
100
AcDbEntity
  8
Layer 1
 62
   156
420
  1785491
370
    18
100
AcDbSpline
210
0.0
220
0.0
230
1.0
 70
     8
 71
     3
 72
     8
 73
     4
 74
     0
 42
0.0000000001
 43
0.0000000001
 12
1.0
 22
0.0
 32
0.0
 13
1.0
 23
0.0
 33
0.0
 40
0.0
 40
0.0
 40
0.0
 40
0.0
 40
1.0
 40
1.0
 40
1.0
 40
1.0
 10
531.1366553423322
 20
-464.9783567154118
 30
0.0
 10
531.1366553423322
 20
-464.9783567154118
 30
0.0
 10
544.4466675372969
 20
-467.8729644440391
 30
0.0
 10
558.5578694311043
 20
-466.0250595684447
 30
0.0
  0
SPLINE
  5
AF
330
41
100
AcDbEntity
  8
Layer 1
 62
   156
420
  1785491
370
    18
100
AcDbSpline
210
0.0
220
0.0
230
1.0
 70
     8
 71
     3
 72
     8
 73
     4
 74
     0
 42
0.0000000001
 43
0.0000000001
 12
1.0
 22
0.0
 32
0.0
 13
1.0
 23
0.0
 33
0.0
 40
0.0
 40
0.0
 40
0.0
 40
0.0
 40
1.0
 40
1.0
 40
1.0
 40
1.0
 10
564.6960187026252
 20
-491.9343873370963
 30
0.0
 10
564.6960187026252
 20
-491.9343873370963
 30
0.0
 10
553.9316927457439
 20
-511.2533099496522
 30
0.0
 10
520.0363354774145
 20
-521.3198237347442
 30
0.0
  0
SPLINE
  5
B0
330
41
100
AcDbEntity
  8
Layer 1
 62
   156
420
  1785491
370
    18
100
AcDbSpline
210
0.0
220
0.0
230
1.0
 70
     8
 71
     3
 72
     8
 73
     4
 74
     0
 42
0.0000000001
 43
0.0000000001
 12
1.0
 22
0.0
 32
0.0
 13
1.0
 23
0.0
 33
0.0
 40
0.0
 40
0.0
 40
0.0
 40
0.0
 40
1.0
 40
1.0
 40
1.0
 40
1.0
 10
562.841643873915
 20
-487.0755819470323
 30
0.0
 10
562.841643873915
 20
-487.0755819470323
 30
0.0
 10
554.9719133219423
 20
-501.6519981172241
 30
0.0
 10
522.5755640861044
 20
-507.8999578977528
 30
0.0
  0
SPLINE
  5
B1
330
41
100
AcDbEntity
  8
Layer 1
 62
   156
420
  1785491
370
    18
100
AcDbSpline
210
0.0
220
0.0
230
1.0
 70
     8
 71
     3
 72
     8
 73
     4
 74
     0
 42
0.0000000001
 43
0.0000000001
 12
1.0
 22
0.0
 32
0.0
 13
1.0
 23
0.0
 33
0.0
 40
0.0
 40
0.0
 40
0.0
 40
0.0
 40
1.0
 40
1.0
 40
1.0
 40
1.0
 10
520.0363354774145
 20
-499.2225923412643
 30
0.0
 10
520.0363354774145
 20
-499.2225923412643
 30
0.0
 10
537.391041942954
 20
-499.4099683453242
 30
0.0
 10
555.669731655591
 20
-488.9622449227136
 30
0.0
  0
SPLINE
  5
B2
330
41
100
AcDbEntity
  8
Layer 1
 62
   156
420
  1785491
370
    18
100
AcDbSpline
210
0.0
220
0.0
230
1.0
 70
     8
 71
     3
 72
     8
 73
     4
 74
     0
 42
0.0000000001
 43
0.0000000001
 12
1.0
 22
0.0
 32
0.0
 13
1.0
 23
0.0
 33
0.0
 40
0.0
 40
0.0
 40
0.0
 40
0.0
 40
1.0
 40
1.0
 40
1.0
 40
1.0
 10
521.8842526767312
 20
-478.4046801817985
 30
0.0
 10
521.8842526767312
 20
-478.4046801817985
 30
0.0
 10
539.9367774759176
 20
-481.9841724997059
 30
0.0
 10
554.8556266979595
 20
-479.910133519963
 30
0.0
  0
SPLINE
  5
B3
330
41
100
AcDbEntity
  8
Layer 1
 62
   156
420
  1785491
370
    18
100
AcDbSpline
210
0.0
220
0.0
230
1.0
 70
     8
 71
     3
 72
     8
 73
     4
 74
     0
 42
0.0000000001
 43
0.0000000001
 12
1.0
 22
0.0
 32
0.0
 13
1.0
 23
0.0
 33
0.0
 40
0.0
 40
0.0
 40
0.0
 40
0.0
 40
1.0
 40
1.0
 40
1.0
 40
1.0
 10
564.6960187026252
 20
-493.5561396229641
 30
0.0
 10
564.6960187026252
 20
-493.5561396229641
 30
0.0
 10
565.4713285890066
 20
-514.9684864271658
 30
0.0
 10
518.9960656063358
 20
-532.4265889053368
 30
0.0
  0
SPLINE
  5
B4
330
41
100
AcDbEntity
  8
Layer 1
 62
   156
420
  1785491
370
    18
100
AcDbSpline
210
0.0
220
0.0
230
1.0
 70
     8
 71
     3
 72
     8
 73
     4
 74
     0
 42
0.0000000001
 43
0.0000000001
 12
1.0
 22
0.0
 32
0.0
 13
1.0
 23
0.0
 33
0.0
 40
0.0
 40
0.0
 40
0.0
 40
0.0
 40
1.0
 40
1.0
 40
1.0
 40
1.0
 10
564.6960187026252
 20
-503.5386610929072
 30
0.0
 10
564.6960187026252
 20
-503.5386610929072
 30
0.0
 10
559.4883103075954
 20
-521.2099824164379
 30
0.0
 10
530.5615812620581
 20
-532.4265889053368
 30
0.0
  0
SPLINE
  5
B5
330
41
100
AcDbEntity
  8
Layer 1
 62
   156
420
  1785491
370
    18
100
AcDbSpline
210
0.0
220
0.0
230
1.0
 70
     8
 71
     3
 72
     8
 73
     4
 74
     0
 42
0.0000000001
 43
0.0000000001
 12
1.0
 22
0.0
 32
0.0
 13
1.0
 23
0.0
 33
0.0
 40
0.0
 40
0.0
 40
0.0
 40
0.0
 40
1.0
 40
1.0
 40
1.0
 40
1.0
 10
560.761153426638
 20
-518.076313001151
 30
0.0
 10
560.761153426638
 20
-518.076313001151
 30
0.0
 10
552.4326847132525
 20
-538.0995054148898
 30
0.0
 10
518.9960656063358
 20
-542.6094077999896
 30
0.0
  0
SPLINE
  5
B6
330
41
100
AcDbEntity
  8
Layer 1
 62
   156
420
  1785491
370
    18
100
AcDbSpline
210
0.0
220
0.0
230
1.0
 70
     8
 71
     3
 72
     8
 73
     4
 74
     0
 42
0.0000000001
 43
0.0000000001
 12
1.0
 22
0.0
 32
0.0
 13
1.0
 23
0.0
 33
0.0
 40
0.0
 40
0.0
 40
0.0
 40
0.0
 40
1.0
 40
1.0
 40
1.0
 40
1.0
 10
516.9091175296635
 20
-568.9774798919152
 30
0.0
 10
516.9091175296635
 20
-568.9774798919152
 30
0.0
 10
550.1712820531702
 20
-557.6962601379091
 30
0.0
 10
558.0409633102627
 20
-522.5539087536981
 30
0.0
  0
SPLINE
  5
B7
330
41
100
AcDbEntity
  8
Layer 1
 62
   156
420
  1785491
370
    18
100
AcDbSpline
210
0.0
220
0.0
230
1.0
 70
     8
 71
     3
 72
     8
 73
     4
 74
     0
 42
0.0000000001
 43
0.0000000001
 12
1.0
 22
0.0
 32
0.0
 13
1.0
 23
0.0
 33
0.0
 40
0.0
 40
0.0
 40
0.0
 40
0.0
 40
1.0
 40
1.0
 40
1.0
 40
1.0
 10
520.7276961816697
 20
-555.5640716843172
 30
0.0
 10
520.7276961816697
 20
-555.5640716843172
 30
0.0
 10
543.0639954236685
 20
-547.8106585656242
 30
0.0
 10
554.8556266979595
 20
-526.7601361870366
 30
0.0
  0
SPLINE
  5
B8
330
41
100
AcDbEntity
  8
Layer 1
 62
   156
420
  1785491
370
    18
100
AcDbSpline
210
0.0
220
0.0
230
1.0
 70
     8
 71
     3
 72
     8
 73
     4
 74
     0
 42
0.0000000001
 43
0.0000000001
 12
1.0
 22
0.0
 32
0.0
 13
1.0
 23
0.0
 33
0.0
 40
0.0
 40
0.0
 40
0.0
 40
0.0
 40
1.0
 40
1.0
 40
1.0
 40
1.0
 10
520.0363354774145
 20
-573.9590480209354
 30
0.0
 10
520.0363354774145
 20
-573.9590480209354
 30
0.0
 10
548.1618255292306
 20
-566.212098693497
 30
0.0
 10
560.302415265227
 20
-519.0067230683435
 30
0.0
  0
SPLINE
  5
B9
330
41
100
AcDbEntity
  8
Layer 1
 62
   156
420
  1785491
370
    18
100
AcDbSpline
210
0.0
220
0.0
230
1.0
 70
     8
 71
     3
 72
     8
 73
     4
 74
     0
 42
0.0000000001
 43
0.0000000001
 12
1.0
 22
0.0
 32
0.0
 13
1.0
 23
0.0
 33
0.0
 40
0.0
 40
0.0
 40
0.0
 40
0.0
 40
1.0
 40
1.0
 40
1.0
 40
1.0
 10
518.3564152321178
 20
-457.2313950642547
 30
0.0
 10
518.3564152321178
 20
-457.2313950642547
 30
0.0
 10
523.0407598769107
 20
-458.1488837107972
 30
0.0
 10
529.2887381430173
 20
-458.8466897207254
 30
0.0
  0
SPLINE
  5
BA
330
41
100
AcDbEntity
  8
Layer 1
 62
   156
420
  1785491
370
    18
100
AcDbSpline
210
0.0
220
0.0
230
1.0
 70
     8
 71
     3
 72
     8
 73
     4
 74
     0
 42
0.0000000001
 43
0.0000000001
 12
1.0
 22
0.0
 32
0.0
 13
1.0
 23
0.0
 33
0.0
 40
0.0
 40
0.0
 40
0.0
 40
0.0
 40
1.0
 40
1.0
 40
1.0
 40
1.0
 10
517.8330514818808
 20
-495.2941970183911
 30
0.0
 10
517.9558450301392
 20
-495.6366423939598
 30
0.0
 10
521.0700984242194
 20
-495.9790816076711
 30
0.0
 10
523.273382419753
 20
-495.8692464512242
 30
0.0
  0
SPLINE
  5
BB
330
41
100
AcDbEntity
  8
Layer 1
 62
   156
420
  1785491
370
    18
100
AcDbSpline
210
0.0
220
0.0
230
1.0
 70
     8
 71
     3
 72
     8
 73
     4
 74
     0
 42
0.0000000001
 43
0.0000000001
 12
1.0
 22
0.0
 32
0.0
 13
1.0
 23
0.0
 33
0.0
 40
0.0
 40
0.0
 40
0.0
 40
0.0
 40
1.0
 40
1.0
 40
1.0
 40
1.0
 10
512.0503183014607
 20
-345.8212918209074
 30
0.0
 10
512.0503183014607
 20
-345.8212918209074
 30
0.0
 10
485.669324788887
 20
-346.0538897163096
 30
0.0
 10
468.4309049473304
 20
-372.1958277040858
 30
0.0
  0
SPLINE
  5
BC
330
41
100
AcDbEntity
  8
Layer 1
 62
   156
420
  1785491
370
    18
100
AcDbSpline
210
0.0
220
0.0
230
1.0
 70
     8
 71
     3
 72
     8
 73
     4
 74
     0
 42
0.0000000001
 43
0.0000000001
 12
1.0
 22
0.0
 32
0.0
 13
1.0
 23
0.0
 33
0.0
 40
0.0
 40
0.0
 40
0.0
 40
0.0
 40
1.0
 40
1.0
 40
1.0
 40
1.0
 10
499.5479534347323
 20
-329.3969769369814
 30
0.0
 10
499.5479534347323
 20
-329.3969769369814
 30
0.0
 10
480.2742465516567
 20
-346.2025137821456
 30
0.0
 10
473.1927904397362
 20
-365.8509603496213
 30
0.0
  0
SPLINE
  5
BD
330
41
100
AcDbEntity
  8
Layer 1
 62
   156
420
  1785491
370
    18
100
AcDbSpline
210
0.0
220
0.0
230
1.0
 70
     8
 71
     3
 72
     8
 73
     4
 74
     0
 42
0.0000000001
 43
0.0000000001
 12
1.0
 22
0.0
 32
0.0
 13
1.0
 23
0.0
 33
0.0
 40
0.0
 40
0.0
 40
0.0
 40
0.0
 40
1.0
 40
1.0
 40
1.0
 40
1.0
 10
507.650257234669
 20
-359.0085597624966
 30
0.0
 10
507.650257234669
 20
-359.0085597624966
 30
0.0
 10
480.1127072270338
 20
-354.1497605342929
 30
0.0
 10
459.8634053565875
 20
-401.4649589921728
 30
0.0
  0
SPLINE
  5
BE
330
41
100
AcDbEntity
  8
Layer 1
 62
   156
420
  1785491
370
    18
100
AcDbSpline
210
0.0
220
0.0
230
1.0
 70
     8
 71
     3
 72
     8
 73
     4
 74
     0
 42
0.0000000001
 43
0.0000000001
 12
1.0
 22
0.0
 32
0.0
 13
1.0
 23
0.0
 33
0.0
 40
0.0
 40
0.0
 40
0.0
 40
0.0
 40
1.0
 40
1.0
 40
1.0
 40
1.0
 10
479.8865916084669
 20
-365.8509603496213
 30
0.0
 10
479.8865916084669
 20
-365.8509603496213
 30
0.0
 10
470.8151011556711
 20
-371.5303221648501
 30
0.0
 10
464.6058686659308
 20
-389.3179485979417
 30
0.0
  0
SPLINE
  5
BF
330
41
100
AcDbEntity
  8
Layer 1
 62
   156
420
  1785491
370
    18
100
AcDbSpline
210
0.0
220
0.0
230
1.0
 70
     8
 71
     3
 72
     8
 73
     4
 74
     0
 42
0.0000000001
 43
0.0000000001
 12
1.0
 22
0.0
 32
0.0
 13
1.0
 23
0.0
 33
0.0
 40
0.0
 40
0.0
 40
0.0
 40
0.0
 40
1.0
 40
1.0
 40
1.0
 40
1.0
 10
490.237382809697
 20
-370.2251662513954
 30
0.0
 10
490.237382809697
 20
-370.2251662513954
 30
0.0
 10
467.2743484522707
 20
-379.0188307555864
 30
0.0
 10
458.3579396947025
 20
-419.0522880005537
 30
0.0
  0
SPLINE
  5
C0
330
41
100
AcDbEntity
  8
Layer 1
 62
   156
420
  1785491
370
    18
100
AcDbSpline
210
0.0
220
0.0
230
1.0
 70
     8
 71
     3
 72
     8
 73
     4
 74
     0
 42
0.0000000001
 43
0.0000000001
 12
1.0
 22
0.0
 32
0.0
 13
1.0
 23
0.0
 33
0.0
 40
0.0
 40
0.0
 40
0.0
 40
0.0
 40
1.0
 40
1.0
 40
1.0
 40
1.0
 10
457.5632076252568
 20
-442.1768493588861
 30
0.0
 10
457.5632076252568
 20
-442.1768493588861
 30
0.0
 10
452.109961428594
 20
-395.4496032689094
 30
0.0
 10
505.4534308685288
 20
-364.9140864911742
 30
0.0
  0
SPLINE
  5
C1
330
41
100
AcDbEntity
  8
Layer 1
 62
   156
420
  1785491
370
    18
100
AcDbSpline
210
0.0
220
0.0
230
1.0
 70
     8
 71
     3
 72
    11
 73
     7
 74
     0
 42
0.0000000001
 43
0.0000000001
 12
1.0
 22
0.0
 32
0.0
 13
1.0
 23
0.0
 33
0.0
 40
0.0
 40
0.0
 40
0.0
 40
0.0
 40
1.0
 40
1.0
 40
1.0
 40
2.0
 40
2.0
 40
2.0
 40
2.0
 10
504.2969236683493
 20
-378.2111834273501
 30
0.0
 10
460.3802621825489
 20
-402.8864261770486
 30
0.0
 10
457.8992015332915
 20
-443.1201808467267
 30
0.0
 10
457.8992015332915
 20
-443.1201808467267
 30
0.0
 10
457.8992015332915
 20
-443.1201808467267
 30
0.0
 10
458.0154881572726
 20
-421.2490897192538
 30
0.0
 10
469.813577060957
 20
-405.4062818975544
 30
0.0
  0
SPLINE
  5
C2
330
41
100
AcDbEntity
  8
Layer 1
 62
   156
420
  1785491
370
    18
100
AcDbSpline
210
0.0
220
0.0
230
1.0
 70
     8
 71
     3
 72
     8
 73
     4
 74
     0
 42
0.0000000001
 43
0.0000000001
 12
1.0
 22
0.0
 32
0.0
 13
1.0
 23
0.0
 33
0.0
 40
0.0
 40
0.0
 40
0.0
 40
0.0
 40
1.0
 40
1.0
 40
1.0
 40
1.0
 10
509.0393869776908
 20
-386.7722500361378
 30
0.0
 10
509.0393869776908
 20
-386.7722500361378
 30
0.0
 10
470.8603045614327
 20
-401.9237094773034
 30
0.0
 10
461.4916152718488
 20
-433.0536732234941
 30
0.0
  0
SPLINE
  5
C3
330
41
100
AcDbEntity
  8
Layer 1
 62
   156
420
  1785491
370
    18
100
AcDbSpline
210
0.0
220
0.0
230
1.0
 70
     8
 71
     3
 72
     8
 73
     4
 74
     0
 42
0.0000000001
 43
0.0000000001
 12
1.0
 22
0.0
 32
0.0
 13
1.0
 23
0.0
 33
0.0
 40
0.0
 40
0.0
 40
0.0
 40
0.0
 40
1.0
 40
1.0
 40
1.0
 40
1.0
 10
457.8992015332915
 20
-443.1201808467267
 30
0.0
 10
457.8992015332915
 20
-443.1201808467267
 30
0.0
 10
464.2052984639504
 20
-427.6262821918499
 30
0.0
 10
501.8998122012199
 20
-410.090638866066
 30
0.0
  0
SPLINE
  5
C4
330
41
100
AcDbEntity
  8
Layer 1
 62
   156
420
  1785491
370
    18
100
AcDbSpline
210
0.0
220
0.0
230
1.0
 70
     8
 71
     3
 72
     8
 73
     4
 74
     0
 42
0.0000000001
 43
0.0000000001
 12
1.0
 22
0.0
 32
0.0
 13
1.0
 23
0.0
 33
0.0
 40
0.0
 40
0.0
 40
0.0
 40
0.0
 40
1.0
 40
1.0
 40
1.0
 40
1.0
 10
457.5502923664662
 20
-455.1509046169758
 30
0.0
 10
457.5502923664662
 20
-455.1509046169758
 30
0.0
 10
461.8340175143967
 20
-446.5833803787937
 30
0.0
 10
489.597732435479
 20
-437.4408067077766
 30
0.0
  0
SPLINE
  5
C5
330
41
100
AcDbEntity
  8
Layer 1
 62
   156
420
  1785491
370
    18
100
AcDbSpline
210
0.0
220
0.0
230
1.0
 70
     8
 71
     3
 72
     8
 73
     4
 74
     0
 42
0.0000000001
 43
0.0000000001
 12
1.0
 22
0.0
 32
0.0
 13
1.0
 23
0.0
 33
0.0
 40
0.0
 40
0.0
 40
0.0
 40
0.0
 40
1.0
 40
1.0
 40
1.0
 40
1.0
 10
503.1403671732878
 20
-419.7436363810884
 30
0.0
 10
503.1403671732878
 20
-419.7436363810884
 30
0.0
 10
476.7658312901094
 20
-427.1675317067202
 30
0.0
 10
460.4384301419814
 20
-445.2071412471196
 30
0.0
  0
SPLINE
  5
C6
330
41
100
AcDbEntity
  8
Layer 1
 62
   156
420
  1785491
370
    18
100
AcDbSpline
210
0.0
220
0.0
230
1.0
 70
     8
 71
     3
 72
    11
 73
     7
 74
     0
 42
0.0000000001
 43
0.0000000001
 12
1.0
 22
0.0
 32
0.0
 13
1.0
 23
0.0
 33
0.0
 40
0.0
 40
0.0
 40
0.0
 40
0.0
 40
1.0
 40
1.0
 40
1.0
 40
2.0
 40
2.0
 40
2.0
 40
2.0
 10
458.1317747812536
 20
-460.0097038451804
 30
0.0
 10
458.1317747812536
 20
-460.0097038451804
 30
0.0
 10
460.2058075991372
 20
-451.7910887738217
 30
0.0
 10
472.8245083847287
 20
-451.5584908784185
 30
0.0
 10
485.4367022460428
 20
-451.3258806592967
 30
0.0
 10
507.650257234669
 20
-451.5584908784185
 30
0.0
 10
507.650257234669
 20
-451.5584908784185
 30
0.0
  0
SPLINE
  5
C7
330
41
100
AcDbEntity
  8
Layer 1
 62
   156
420
  1785491
370
    18
100
AcDbSpline
210
0.0
220
0.0
230
1.0
 70
     8
 71
     3
 72
     8
 73
     4
 74
     0
 42
0.0000000001
 43
0.0000000001
 12
1.0
 22
0.0
 32
0.0
 13
1.0
 23
0.0
 33
0.0
 40
0.0
 40
0.0
 40
0.0
 40
0.0
 40
1.0
 40
1.0
 40
1.0
 40
1.0
 10
463.6819347137134
 20
-458.8466897207254
 30
0.0
 10
463.6819347137134
 20
-458.8466897207254
 30
0.0
 10
485.0878423740996
 20
-460.6945945963198
 30
0.0
 10
498.2751103156897
 20
-460.0097038451804
 30
0.0
  0
SPLINE
  5
C8
330
41
100
AcDbEntity
  8
Layer 1
 62
   156
420
  1785491
370
    18
100
AcDbSpline
210
0.0
220
0.0
230
1.0
 70
     8
 71
     3
 72
    11
 73
     7
 74
     0
 42
0.0000000001
 43
0.0000000001
 12
1.0
 22
0.0
 32
0.0
 13
1.0
 23
0.0
 33
0.0
 40
0.0
 40
0.0
 40
0.0
 40
0.0
 40
1.0
 40
1.0
 40
1.0
 40
2.0
 40
2.0
 40
2.0
 40
2.0
 10
458.2481107001167
 20
-463.9380991680537
 30
0.0
 10
458.2481107001167
 20
-463.9380991680537
 30
0.0
 10
460.3286011473938
 20
-462.3228045115811
 30
0.0
 10
466.3439568706581
 20
-463.3630620589392
 30
0.0
 10
472.3593125939224
 20
-464.4033072825769
 30
0.0
 10
506.9588965304138
 20
-463.9380991680537
 30
0.0
 10
507.650257234669
 20
-463.4729033772455
 30
0.0
  0
SPLINE
  5
C9
330
41
100
AcDbEntity
  8
Layer 1
 62
   156
420
  1785491
370
    18
100
AcDbSpline
210
0.0
220
0.0
230
1.0
 70
     8
 71
     3
 72
     8
 73
     4
 74
     0
 42
0.0000000001
 43
0.0000000001
 12
1.0
 22
0.0
 32
0.0
 13
1.0
 23
0.0
 33
0.0
 40
0.0
 40
0.0
 40
0.0
 40
0.0
 40
1.0
 40
1.0
 40
1.0
 40
1.0
 10
459.8634053565875
 20
-466.8456344791903
 30
0.0
 10
459.8634053565875
 20
-466.8456344791903
 30
0.0
 10
460.0959786045514
 20
-470.2054503223426
 30
0.0
 10
474.7951698374181
 20
-471.4072225468844
 30
0.0
  0
SPLINE
  5
CA
330
41
100
AcDbEntity
  8
Layer 1
 62
   156
420
  1785491
370
    18
100
AcDbSpline
210
0.0
220
0.0
230
1.0
 70
     8
 71
     3
 72
     8
 73
     4
 74
     0
 42
0.0000000001
 43
0.0000000001
 12
1.0
 22
0.0
 32
0.0
 13
1.0
 23
0.0
 33
0.0
 40
0.0
 40
0.0
 40
0.0
 40
0.0
 40
1.0
 40
1.0
 40
1.0
 40
1.0
 10
459.4046179002962
 20
-470.5285043241493
 30
0.0
 10
459.4046179002962
 20
-470.5285043241493
 30
0.0
 10
484.4998530350385
 20
-479.5418514649555
 30
0.0
 10
509.2073839317072
 20
-469.0876642510902
 30
0.0
  0
SPLINE
  5
CB
330
41
100
AcDbEntity
  8
Layer 1
 62
   156
420
  1785491
370
    18
100
AcDbSpline
210
0.0
220
0.0
230
1.0
 70
     8
 71
     3
 72
    11
 73
     7
 74
     0
 42
0.0000000001
 43
0.0000000001
 12
1.0
 22
0.0
 32
0.0
 13
1.0
 23
0.0
 33
0.0
 40
0.0
 40
0.0
 40
0.0
 40
0.0
 40
1.0
 40
1.0
 40
1.0
 40
2.0
 40
2.0
 40
2.0
 40
2.0
 10
460.6775103142172
 20
-477.8167154901748
 30
0.0
 10
460.6775103142172
 20
-477.8167154901748
 30
0.0
 10
462.9905740094582
 20
-480.8276221665037
 30
0.0
 10
468.4309049473304
 20
-481.5254281764319
 30
0.0
 10
473.8647289609253
 20
-482.2167765569684
 30
0.0
 10
482.1931976743126
 20
-483.2570217806078
 30
0.0
 10
498.2751103156897
 20
-483.0244238852047
 30
0.0
  0
SPLINE
  5
CC
330
41
100
AcDbEntity
  8
Layer 1
 62
   156
420
  1785491
370
    18
100
AcDbSpline
210
0.0
220
0.0
230
1.0
 70
     8
 71
     3
 72
     8
 73
     4
 74
     0
 42
0.0000000001
 43
0.0000000001
 12
1.0
 22
0.0
 32
0.0
 13
1.0
 23
0.0
 33
0.0
 40
0.0
 40
0.0
 40
0.0
 40
0.0
 40
1.0
 40
1.0
 40
1.0
 40
1.0
 10
464.6058686659308
 20
-483.3280988369679
 30
0.0
 10
464.6058686659308
 20
-483.3280988369679
 30
0.0
 10
468.4309049473304
 20
-491.5854843321322
 30
0.0
 10
506.3774141156246
 20
-493.5561396229641
 30
0.0
  0
SPLINE
  5
CD
330
41
100
AcDbEntity
  8
Layer 1
 62
   156
420
  1785491
370
    18
100
AcDbSpline
210
0.0
220
0.0
230
1.0
 70
     8
 71
     3
 72
     8
 73
     4
 74
     0
 42
0.0000000001
 43
0.0000000001
 12
1.0
 22
0.0
 32
0.0
 13
1.0
 23
0.0
 33
0.0
 40
0.0
 40
0.0
 40
0.0
 40
0.0
 40
1.0
 40
1.0
 40
1.0
 40
1.0
 10
460.6775103142172
 20
-483.1471866241609
 30
0.0
 10
460.6775103142172
 20
-483.1471866241609
 30
0.0
 10
462.9905740094582
 20
-489.0462372378624
 30
0.0
 10
474.7951698374181
 20
-492.8583336130341
 30
0.0
  0
SPLINE
  5
CE
330
41
100
AcDbEntity
  8
Layer 1
 62
   156
420
  1785491
370
    18
100
AcDbSpline
210
0.0
220
0.0
230
1.0
 70
     8
 71
     3
 72
    11
 73
     7
 74
     0
 42
0.0000000001
 43
0.0000000001
 12
1.0
 22
0.0
 32
0.0
 13
1.0
 23
0.0
 33
0.0
 40
0.0
 40
0.0
 40
0.0
 40
0.0
 40
1.0
 40
1.0
 40
1.0
 40
2.0
 40
2.0
 40
2.0
 40
2.0
 10
461.4916152718488
 20
-486.500532514201
 30
0.0
 10
461.4916152718488
 20
-486.500532514201
 30
0.0
 10
460.3867198119442
 20
-499.2225923412643
 30
0.0
 10
474.2976366047606
 20
-506.6335662462443
 30
0.0
 10
488.2150110269704
 20
-514.0316125687186
 30
0.0
 10
503.1403671732878
 20
-521.3198237347442
 30
0.0
 10
503.1403671732878
 20
-521.3198237347442
 30
0.0
  0
SPLINE
  5
CF
330
41
100
AcDbEntity
  8
Layer 1
 62
   156
420
  1785491
370
    18
100
AcDbSpline
210
0.0
220
0.0
230
1.0
 70
     8
 71
     3
 72
    11
 73
     7
 74
     0
 42
0.0000000001
 43
0.0000000001
 12
1.0
 22
0.0
 32
0.0
 13
1.0
 23
0.0
 33
0.0
 40
0.0
 40
0.0
 40
0.0
 40
0.0
 40
1.0
 40
1.0
 40
1.0
 40
2.0
 40
2.0
 40
2.0
 40
2.0
 10
464.1471305045197
 20
-513.4565692977467
 30
0.0
 10
464.1471305045197
 20
-513.4565692977467
 30
0.0
 10
473.4706163883402
 20
-532.1939910099336
 30
0.0
 10
483.6792904480135
 20
-537.4016994049616
 30
0.0
 10
493.8815068782915
 20
-542.6094077999896
 30
0.0
 10
504.2969236683493
 20
-543.1844510709634
 30
0.0
 10
510.7774751824199
 20
-541.6789977327971
 30
0.0
  0
SPLINE
  5
D0
330
41
100
AcDbEntity
  8
Layer 1
 62
   156
420
  1785491
370
    18
100
AcDbSpline
210
0.0
220
0.0
230
1.0
 70
     8
 71
     3
 72
     8
 73
     4
 74
     0
 42
0.0000000001
 43
0.0000000001
 12
1.0
 22
0.0
 32
0.0
 13
1.0
 23
0.0
 33
0.0
 40
0.0
 40
0.0
 40
0.0
 40
0.0
 40
1.0
 40
1.0
 40
1.0
 40
1.0
 10
467.7395442430752
 20
-523.7556871401011
 30
0.0
 10
467.7395442430752
 20
-523.7556871401011
 30
0.0
 10
475.3831098816008
 20
-546.2664348036524
 30
0.0
 10
496.8859312777859
 20
-560.7717800793453
 30
0.0
  0
SPLINE
  5
D1
330
41
100
AcDbEntity
  8
Layer 1
 62
   156
420
  1785491
370
    18
100
AcDbSpline
210
0.0
220
0.0
230
1.0
 70
     8
 71
     3
 72
     8
 73
     4
 74
     0
 42
0.0000000001
 43
0.0000000001
 12
1.0
 22
0.0
 32
0.0
 13
1.0
 23
0.0
 33
0.0
 40
0.0
 40
0.0
 40
0.0
 40
0.0
 40
1.0
 40
1.0
 40
1.0
 40
1.0
 10
466.1113343278157
 20
-526.7601361870366
 30
0.0
 10
466.1113343278157
 20
-526.7601361870366
 30
0.0
 10
473.8647289609253
 20
-569.6752859018434
 30
0.0
 10
509.9698278541819
 20
-572.4535946827691
 30
0.0
  0
SPLINE
  5
D2
330
41
100
AcDbEntity
  8
Layer 1
 62
   156
420
  1785491
370
    18
100
AcDbSpline
210
0.0
220
0.0
230
1.0
 70
     8
 71
     3
 72
    11
 73
     7
 74
     0
 42
0.0000000001
 43
0.0000000001
 12
1.0
 22
0.0
 32
0.0
 13
1.0
 23
0.0
 33
0.0
 40
0.0
 40
0.0
 40
0.0
 40
0.0
 40
1.0
 40
1.0
 40
1.0
 40
2.0
 40
2.0
 40
2.0
 40
2.0
 10
473.1734175515521
 20
-542.2605047950256
 30
0.0
 10
473.1734175515521
 20
-542.2605047950256
 30
0.0
 10
483.9312858790399
 20
-566.0957874220749
 30
0.0
 10
509.0393869776908
 20
-570.3730919117716
 30
0.0
 10
511.1263843492434
 20
-570.715531125481
 30
0.0
 10
512.0503183014607
 20
-568.9774798919152
 30
0.0
 10
512.0503183014607
 20
-568.9774798919152
 30
0.0
  0
SPLINE
  5
D3
330
41
100
AcDbEntity
  8
Layer 1
 62
   156
420
  1785491
370
    18
100
AcDbSpline
210
0.0
220
0.0
230
1.0
 70
     8
 71
     3
 72
     8
 73
     4
 74
     0
 42
0.0000000001
 43
0.0000000001
 12
1.0
 22
0.0
 32
0.0
 13
1.0
 23
0.0
 33
0.0
 40
0.0
 40
0.0
 40
0.0
 40
0.0
 40
1.0
 40
1.0
 40
1.0
 40
1.0
 10
512.0503183014607
 20
-548.6312273145086
 30
0.0
 10
512.0503183014607
 20
-548.6312273145086
 30
0.0
 10
511.1263843492434
 20
-549.3161119037886
 30
0.0
 10
509.0393869776908
 20
-548.6312273145086
 30
0.0
  0
SPLINE
  5
D4
330
41
100
AcDbEntity
  8
Layer 1
 62
   156
420
  1785491
370
    18
100
AcDbSpline
210
0.0
220
0.0
230
1.0
 70
     8
 71
     3
 72
     8
 73
     4
 74
     0
 42
0.0000000001
 43
0.0000000001
 12
1.0
 22
0.0
 32
0.0
 13
1.0
 23
0.0
 33
0.0
 40
0.0
 40
0.0
 40
0.0
 40
0.0
 40
1.0
 40
1.0
 40
1.0
 40
1.0
 10
512.0503183014607
 20
-511.143468631346
 30
0.0
 10
512.0503183014607
 20
-511.143468631346
 30
0.0
 10
509.5046320633774
 20
-511.4859078450536
 30
0.0
 10
507.650257234669
 20
-511.143468631346
 30
0.0
  0
SPLINE
  5
D5
330
41
100
AcDbEntity
  8
Layer 1
 62
   156
420
  1785491
370
    18
100
AcDbSpline
210
0.0
220
0.0
230
1.0
 70
     8
 71
     3
 72
     8
 73
     4
 74
     0
 42
0.0000000001
 43
0.0000000001
 12
1.0
 22
0.0
 32
0.0
 13
1.0
 23
0.0
 33
0.0
 40
0.0
 40
0.0
 40
0.0
 40
0.0
 40
1.0
 40
1.0
 40
1.0
 40
1.0
 10
566.20143506963
 20
-450.0530252165336
 30
0.0
 10
566.20143506963
 20
-450.0530252165336
 30
0.0
 10
566.0851484456471
 20
-446.7449073796961
 30
0.0
 10
549.8869984751691
 20
-440.3547996483103
 30
0.0
  0
SPLINE
  5
D6
330
41
100
AcDbEntity
  8
Layer 1
 62
   156
420
  1785491
370
    18
100
AcDbSpline
210
0.0
220
0.0
230
1.0
 70
     8
 71
     3
 72
     8
 73
     4
 74
     0
 42
0.0000000001
 43
0.0000000001
 12
1.0
 22
0.0
 32
0.0
 13
1.0
 23
0.0
 33
0.0
 40
0.0
 40
0.0
 40
0.0
 40
0.0
 40
1.0
 40
1.0
 40
1.0
 40
1.0
 10
568.3659732887954
 20
-457.9292010741829
 30
0.0
 10
568.3659732887954
 20
-457.9292010741829
 30
0.0
 10
565.3873301119984
 20
-454.1041894402224
 30
0.0
 10
554.8556266979595
 20
-453.1737855348911
 30
0.0
  0
ENDBLK
  5
44
330
41
100
AcDbEntity
  8
0
100
AcDbBlockEnd
  0
ENDSEC
  0
SECTION
  2
ENTITIES
  0
INSERT
  5
42
330
1F
100
AcDbEntity
  8
Layer 1
100
AcDbBlockReference
  2
block 2
 10
0.0
 20
0.0
 30
0.0
  0
ENDSEC
  0
SECTION
  2
OBJECTS
  0
DICTIONARY
  5
C
330
0
100
AcDbDictionary
281
     1
  3
ACAD_GROUP
350
D
  3
ACAD_LAYOUT
350
1A
  3
ACAD_MATERIAL
350
3B
  3
ACAD_MLEADERSTYLE
350
D8
  3
ACAD_MLINESTYLE
350
17
  3
ACAD_PLOTSETTINGS
350
19
  3
ACAD_PLOTSTYLENAME
350
E
  3
ACAD_TABLESTYLE
350
D7
  3
ACAD_VISUALSTYLE
350
2A
  0
SUN
  5
3F
330
29
100
AcDbSun
 90
        1
290
     0
 63
     7
421
 16777215
 40
1.0
291
     1
 91
  2455826
 92
 54000000
292
     0
 70
     2
 71
   256
280
     1
  0
DICTIONARY
  5
D
102
{ACAD_REACTORS
330
C
102
}
330
C
100
AcDbDictionary
281
     1
  0
DICTIONARY
  5
1A
102
{ACAD_REACTORS
330
C
102
}
330
C
100
AcDbDictionary
281
     1
  3
Layout1
350
1E
  3
Layout2
350
26
  3
Model
350
22
  0
DICTIONARY
  5
3B
102
{ACAD_REACTORS
330
C
102
}
330
C
100
AcDbDictionary
281
     1
  3
ByBlock
350
3D
  3
ByLayer
350
3C
  3
Global
350
3E
  0
DICTIONARY
  5
D8
102
{ACAD_REACTORS
330
C
102
}
330
C
100
AcDbDictionary
281
     1
  0
DICTIONARY
  5
17
102
{ACAD_REACTORS
330
C
102
}
330
C
100
AcDbDictionary
281
     1
  3
Standard
350
18
  0
DICTIONARY
  5
19
102
{ACAD_REACTORS
330
C
102
}
330
C
100
AcDbDictionary
281
     1
  0
ACDBDICTIONARYWDFLT
  5
E
102
{ACAD_REACTORS
330
C
102
}
330
C
100
AcDbDictionary
281
     1
  3
Normal
350
F
100
AcDbDictionaryWithDefault
340
F
  0
DICTIONARY
  5
D7
102
{ACAD_REACTORS
330
C
102
}
330
C
100
AcDbDictionary
281
     1
  0
DICTIONARY
  5
2A
102
{ACAD_REACTORS
330
C
102
}
330
C
100
AcDbDictionary
281
     1
  3
2dWireframe
350
2F
  3
3D Hidden
350
31
  3
3dWireframe
350
30
  3
Basic
350
32
  3
Brighten
350
36
  3
ColorChange
350
3A
  3
Conceptual
350
34
  3
Dim
350
35
  3
Facepattern
350
39
  3
Flat
350
2B
  3
FlatWithEdges
350
2C
  3
Gouraud
350
2D
  3
GouraudWithEdges
350
2E
  3
Linepattern
350
38
  3
Realistic
350
33
  3
Thicken
350
37
  0
LAYOUT
  5
1E
102
{ACAD_REACTORS
330
1A
102
}
330
1A
100
AcDbPlotSettings
  1

  2
none_device
  4

  6

 40
0.0
 41
0.0
 42
0.0
 43
0.0
 44
0.0
 45
0.0
 46
0.0
 47
0.0
 48
0.0
 49
0.0
140
0.0
141
0.0
142
1.0
143
1.0
 70
   688
 72
     0
 73
     0
 74
     5
  7

 75
    16
 76
     0
 77
     2
 78
   300
147
1.0
148
0.0
149
0.0
100
AcDbLayout
  1
Layout1
 70
     1
 71
     1
 10
0.0
 20
0.0
 11
12.0
 21
9.0
 12
0.0
 22
0.0
 32
0.0
 14
1.000000000000000E+20
 24
1.000000000000000E+20
 34
1.000000000000000E+20
 15
-1.000000000000000E+20
 25
-1.000000000000000E+20
 35
-1.000000000000000E+20
146
0.0
 13
0.0
 23
0.0
 33
0.0
 16
1.0
 26
0.0
 36
0.0
 17
0.0
 27
1.0
 37
0.0
 76
     0
330
1B
  0
LAYOUT
  5
26
102
{ACAD_REACTORS
330
1A
102
}
330
1A
100
AcDbPlotSettings
  1

  2
none_device
  4

  6

 40
0.0
 41
0.0
 42
0.0
 43
0.0
 44
0.0
 45
0.0
 46
0.0
 47
0.0
 48
0.0
 49
0.0
140
0.0
141
0.0
142
1.0
143
1.0
 70
   688
 72
     0
 73
     0
 74
     5
  7

 75
    16
 76
     0
 77
     2
 78
   300
147
1.0
148
0.0
149
0.0
100
AcDbLayout
  1
Layout2
 70
     1
 71
     2
 10
0.0
 20
0.0
 11
0.0
 21
0.0
 12
0.0
 22
0.0
 32
0.0
 14
0.0
 24
0.0
 34
0.0
 15
0.0
 25
0.0
 35
0.0
146
0.0
 13
0.0
 23
0.0
 33
0.0
 16
1.0
 26
0.0
 36
0.0
 17
0.0
 27
1.0
 37
0.0
 76
     0
330
23
  0
LAYOUT
  5
22
102
{ACAD_REACTORS
330
1A
102
}
330
1A
100
AcDbPlotSettings
  1

  2
none_device
  4

  6

 40
0.0
 41
0.0
 42
0.0
 43
0.0
 44
0.0
 45
0.0
 46
0.0
 47
0.0
 48
0.0
 49
0.0
140
0.0
141
0.0
142
1.0
143
1.0
 70
  1712
 72
     0
 73
     0
 74
     0
  7

 75
     0
 76
     0
 77
     2
 78
   300
147
1.0
148
0.0
149
0.0
100
AcDbLayout
  1
Model
 70
     1
 71
     0
 10
0.0
 20
0.0
 11
12.0
 21
9.0
 12
0.0
 22
0.0
 32
0.0
 14
1.000000000000000E+20
 24
1.000000000000000E+20
 34
1.000000000000000E+20
 15
-1.000000000000000E+20
 25
-1.000000000000000E+20
 35
-1.000000000000000E+20
146
0.0
 13
0.0
 23
0.0
 33
0.0
 16
1.0
 26
0.0
 36
0.0
 17
0.0
 27
1.0
 37
0.0
 76
     0
330
1F
331
29
  0
MATERIAL
  5
3D
102
{ACAD_REACTORS
330
3B
102
}
330
3B
100
AcDbMaterial
  1
ByBlock
 72
     1
 94
      127
  0
MATERIAL
  5
3C
102
{ACAD_REACTORS
330
3B
102
}
330
3B
100
AcDbMaterial
  1
ByLayer
 72
     1
 94
      127
  0
MATERIAL
  5
3E
102
{ACAD_REACTORS
330
3B
102
}
330
3B
100
AcDbMaterial
  1
Global
 72
     1
 94
      127
  0
MLINESTYLE
  5
18
102
{ACAD_REACTORS
330
17
102
}
330
17
100
AcDbMlineStyle
  2
Standard
 70
     0
  3

 62
   256
 51
90.0
 52
90.0
 71
     2
 49
0.5
 62
   256
  6
BYLAYER
 49
-0.5
 62
   256
  6
BYLAYER
  0
ACDBPLACEHOLDER
  5
F
102
{ACAD_REACTORS
330
E
102
}
330
E
  0
VISUALSTYLE
  5
2F
102
{ACAD_REACTORS
330
2A
102
}
330
2A
100
AcDbVisualStyle
  2
2dWireframe
 70
     4
177
     2
291
     0
 71
     0
176
     1
 72
     2
176
     1
 73
     0
176
     1
 90
        0
176
     1
 40
-0.6
176
     1
 41
-30.0
176
     1
 62
     5
 63
     7
421
 16777215
176
     1
 74
     1
176
     1
 91
        4
176
     1
 64
     7
176
     1
 65
   257
176
     1
 75
     1
176
     1
175
     1
176
     1
 42
1.0
176
     1
 92
        0
176
     1
 66
   257
176
     1
 43
1.0
176
     1
 76
     1
176
     1
 77
     6
176
     1
 78
     2
176
     1
 67
     7
176
     1
 79
     5
176
     1
170
     0
176
     1
171
     0
176
     1
290
     0
176
     1
 93
        1
176
     1
 44
0.0
176
     1
173
     0
176
     1
  0
VISUALSTYLE
  5
31
102
{ACAD_REACTORS
330
2A
102
}
330
2A
100
AcDbVisualStyle
  2
3D Hidden
 70
     6
177
     2
291
     0
 71
     1
176
     1
 72
     2
176
     1
 73
     2
176
     1
 90
        0
176
     1
 40
-0.6
176
     1
 41
-30.0
176
     1
 62
     5
 63
     7
421
 16777215
176
     1
 74
     2
176
     1
 91
        2
176
     1
 64
     7
176
     1
 65
   257
176
     1
 75
     2
176
     1
175
     1
176
     1
 42
40.0
176
     1
 92
        0
176
     1
 66
   257
176
     1
 43
1.0
176
     1
 76
     1
176
     1
 77
     6
176
     1
 78
     2
176
     1
 67
     7
176
     1
 79
     3
176
     1
170
     0
176
     1
171
     0
176
     1
290
     0
176
     1
 93
        1
176
     1
 44
0.0
176
     1
173
     0
176
     1
  0
VISUALSTYLE
  5
30
102
{ACAD_REACTORS
330
2A
102
}
330
2A
100
AcDbVisualStyle
  2
3dWireframe
 70
     5
177
     2
291
     0
 71
     0
176
     1
 72
     2
176
     1
 73
     0
176
     1
 90
        0
176
     1
 40
-0.6
176
     1
 41
-30.0
176
     1
 62
     5
 63
     7
421
 16777215
176
     1
 74
     1
176
     1
 91
        4
176
     1
 64
     7
176
     1
 65
   257
176
     1
 75
     1
176
     1
175
     1
176
     1
 42
1.0
176
     1
 92
        0
176
     1
 66
   257
176
     1
 43
1.0
176
     1
 76
     1
176
     1
 77
     6
176
     1
 78
     2
176
     1
 67
     7
176
     1
 79
     5
176
     1
170
     0
176
     1
171
     0
176
     1
290
     0
176
     1
 93
        1
176
     1
 44
0.0
176
     1
173
     0
176
     1
  0
VISUALSTYLE
  5
32
102
{ACAD_REACTORS
330
2A
102
}
330
2A
100
AcDbVisualStyle
  2
Basic
 70
     7
177
     2
291
     1
 71
     1
176
     1
 72
     0
176
     1
 73
     1
176
     1
 90
        0
176
     1
 40
-0.6
176
     1
 41
-30.0
176
     1
 62
     5
 63
     7
421
 16777215
176
     1
 74
     0
176
     1
 91
        4
176
     1
 64
     7
176
     1
 65
   257
176
     1
 75
     1
176
     1
175
     1
176
     1
 42
1.0
176
     1
 92
        8
176
     1
 66
     7
176
     1
 43
1.0
176
     1
 76
     1
176
     1
 77
     6
176
     1
 78
     2
176
     1
 67
     7
176
     1
 79
     5
176
     1
170
     0
176
     1
171
     0
176
     1
290
     0
176
     1
 93
        1
176
     1
 44
0.0
176
     1
173
     0
176
     1
  0
VISUALSTYLE
  5
36
102
{ACAD_REACTORS
330
2A
102
}
330
2A
100
AcDbVisualStyle
  2
Brighten
 70
    12
177
     2
291
     1
 71
     2
176
     1
 72
     2
176
     1
 73
     0
176
     1
 90
        0
176
     1
 40
-0.6
176
     1
 41
-30.0
176
     1
 62
     5
 63
     7
421
 16777215
176
     1
 74
     1
176
     1
 91
        4
176
     1
 64
     7
176
     1
 65
   257
176
     1
 75
     1
176
     1
175
     1
176
     1
 42
1.0
176
     1
 92
        8
176
     1
 66
     7
176
     1
 43
1.0
176
     1
 76
     1
176
     1
 77
     6
176
     1
 78
     2
176
     1
 67
     7
176
     1
 79
     5
176
     1
170
     0
176
     1
171
     0
176
     1
290
     0
176
     1
 93
        1
176
     1
 44
50.0
176
     1
173
     0
176
     1
  0
VISUALSTYLE
  5
3A
102
{ACAD_REACTORS
330
2A
102
}
330
2A
100
AcDbVisualStyle
  2
ColorChange
 70
    16
177
     2
291
     1
 71
     2
176
     1
 72
     2
176
     1
 73
     3
176
     1
 90
        0
176
     1
 40
-0.6
176
     1
 41
-30.0
176
     1
 62
     5
 63
     8
421
  8421504
176
     1
 74
     1
176
     1
 91
        4
176
     1
 64
     7
176
     1
 65
   257
176
     1
 75
     1
176
     1
175
     1
176
     1
 42
1.0
176
     1
 92
        8
176
     1
 66
     8
424
  8421504
176
     1
 43
1.0
176
     1
 76
     1
176
     1
 77
     6
176
     1
 78
     2
176
     1
 67
     7
176
     1
 79
     5
176
     1
170
     0
176
     1
171
     0
176
     1
290
     0
176
     1
 93
        1
176
     1
 44
0.0
176
     1
173
     0
176
     1
  0
VISUALSTYLE
  5
34
102
{ACAD_REACTORS
330
2A
102
}
330
2A
100
AcDbVisualStyle
  2
Conceptual
 70
     9
177
     2
291
     0
 71
     3
176
     1
 72
     2
176
     1
 73
     0
176
     1
 90
        0
176
     1
 40
-0.6
176
     1
 41
-30.0
176
     1
 62
     5
 63
     7
421
 16777215
176
     1
 74
     2
176
     1
 91
        2
176
     1
 64
     7
176
     1
 65
   257
176
     1
 75
     1
176
     1
175
     1
176
     1
 42
40.0
176
     1
 92
        8
176
     1
 66
     7
176
     1
 43
1.0
176
     1
 76
     1
176
     1
 77
     6
176
     1
 78
     2
176
     1
 67
     7
176
     1
 79
     3
176
     1
170
     0
176
     1
171
     0
176
     1
290
     0
176
     1
 93
        1
176
     1
 44
0.0
176
     1
173
     0
176
     1
  0
VISUALSTYLE
  5
35
102
{ACAD_REACTORS
330
2A
102
}
330
2A
100
AcDbVisualStyle
  2
Dim
 70
    11
177
     2
291
     1
 71
     2
176
     1
 72
     2
176
     1
 73
     0
176
     1
 90
        0
176
     1
 40
-0.6
176
     1
 41
-30.0
176
     1
 62
     5
 63
     7
421
 16777215
176
     1
 74
     1
176
     1
 91
        4
176
     1
 64
     7
176
     1
 65
   257
176
     1
 75
     1
176
     1
175
     1
176
     1
 42
1.0
176
     1
 92
        8
176
     1
 66
     7
176
     1
 43
1.0
176
     1
 76
     1
176
     1
 77
     6
176
     1
 78
     2
176
     1
 67
     7
176
     1
 79
     5
176
     1
170
     0
176
     1
171
     0
176
     1
290
     0
176
     1
 93
        1
176
     1
 44
-50.0
176
     1
173
     0
176
     1
  0
VISUALSTYLE
  5
39
102
{ACAD_REACTORS
330
2A
102
}
330
2A
100
AcDbVisualStyle
  2
Facepattern
 70
    15
177
     2
291
     1
 71
     2
176
     1
 72
     2
176
     1
 73
     0
176
     1
 90
        0
176
     1
 40
-0.6
176
     1
 41
-30.0
176
     1
 62
     5
 63
     7
421
 16777215
176
     1
 74
     1
176
     1
 91
        4
176
     1
 64
     7
176
     1
 65
   257
176
     1
 75
     1
176
     1
175
     1
176
     1
 42
1.0
176
     1
 92
        8
176
     1
 66
     7
176
     1
 43
1.0
176
     1
 76
     1
176
     1
 77
     6
176
     1
 78
     2
176
     1
 67
     7
176
     1
 79
     5
176
     1
170
     0
176
     1
171
     0
176
     1
290
     0
176
     1
 93
        1
176
     1
 44
0.0
176
     1
173
     0
176
     1
  0
VISUALSTYLE
  5
2B
102
{ACAD_REACTORS
330
2A
102
}
330
2A
100
AcDbVisualStyle
  2
Flat
 70
     0
177
     2
291
     1
 71
     2
176
     1
 72
     1
176
     1
 73
     1
176
     1
 90
        2
176
     1
 40
-0.6
176
     1
 41
30.0
176
     1
 62
     5
 63
     7
421
 16777215
176
     1
 74
     0
176
     1
 91
        4
176
     1
 64
     7
176
     1
 65
   257
176
     1
 75
     1
176
     1
175
     1
176
     1
 42
1.0
176
     1
 92
        8
176
     1
 66
     7
176
     1
 43
1.0
176
     1
 76
     1
176
     1
 77
     6
176
     1
 78
     2
176
     1
 67
     7
176
     1
 79
     5
176
     1
170
     0
176
     1
171
     0
176
     1
290
     0
176
     1
 93
       13
176
     1
 44
0.0
176
     1
173
     0
176
     1
  0
VISUALSTYLE
  5
2C
102
{ACAD_REACTORS
330
2A
102
}
330
2A
100
AcDbVisualStyle
  2
FlatWithEdges
 70
     1
177
     2
291
     1
 71
     2
176
     1
 72
     1
176
     1
 73
     1
176
     1
 90
        2
176
     1
 40
-0.6
176
     1
 41
30.0
176
     1
 62
     5
 63
     7
421
 16777215
176
     1
 74
     1
176
     1
 91
        4
176
     1
 64
     7
176
     1
 65
   257
176
     1
 75
     1
176
     1
175
     1
176
     1
 42
1.0
176
     1
 92
        0
176
     1
 66
   257
176
     1
 43
1.0
176
     1
 76
     1
176
     1
 77
     6
176
     1
 78
     2
176
     1
 67
     7
176
     1
 79
     5
176
     1
170
     0
176
     1
171
     0
176
     1
290
     0
176
     1
 93
       13
176
     1
 44
0.0
176
     1
173
     0
176
     1
  0
VISUALSTYLE
  5
2D
102
{ACAD_REACTORS
330
2A
102
}
330
2A
100
AcDbVisualStyle
  2
Gouraud
 70
     2
177
     2
291
     1
 71
     2
176
     1
 72
     2
176
     1
 73
     1
176
     1
 90
        2
176
     1
 40
-0.6
176
     1
 41
30.0
176
     1
 62
     5
 63
     7
421
 16777215
176
     1
 74
     0
176
     1
 91
        4
176
     1
 64
     7
176
     1
 65
   257
176
     1
 75
     1
176
     1
175
     1
176
     1
 42
1.0
176
     1
 92
        0
176
     1
 66
     7
176
     1
 43
1.0
176
     1
 76
     1
176
     1
 77
     6
176
     1
 78
     2
176
     1
 67
     7
176
     1
 79
     5
176
     1
170
     0
176
     1
171
     0
176
     1
290
     0
176
     1
 93
       13
176
     1
 44
0.0
176
     1
173
     0
176
     1
  0
VISUALSTYLE
  5
2E
102
{ACAD_REACTORS
330
2A
102
}
330
2A
100
AcDbVisualStyle
  2
GouraudWithEdges
 70
     3
177
     2
291
     1
 71
     2
176
     1
 72
     2
176
     1
 73
     1
176
     1
 90
        2
176
     1
 40
-0.6
176
     1
 41
30.0
176
     1
 62
     5
 63
     7
421
 16777215
176
     1
 74
     1
176
     1
 91
        4
176
     1
 64
     7
176
     1
 65
   257
176
     1
 75
     1
176
     1
175
     1
176
     1
 42
1.0
176
     1
 92
        0
176
     1
 66
   257
176
     1
 43
1.0
176
     1
 76
     1
176
     1
 77
     6
176
     1
 78
     2
176
     1
 67
     7
176
     1
 79
     5
176
     1
170
     0
176
     1
171
     0
176
     1
290
     0
176
     1
 93
       13
176
     1
 44
0.0
176
     1
173
     0
176
     1
  0
VISUALSTYLE
  5
38
102
{ACAD_REACTORS
330
2A
102
}
330
2A
100
AcDbVisualStyle
  2
Linepattern
 70
    14
177
     2
291
     1
 71
     2
176
     1
 72
     2
176
     1
 73
     0
176
     1
 90
        0
176
     1
 40
-0.6
176
     1
 41
-30.0
176
     1
 62
     5
 63
     7
421
 16777215
176
     1
 74
     1
176
     1
 91
        4
176
     1
 64
     7
176
     1
 65
   257
176
     1
 75
     7
176
     1
175
     7
176
     1
 42
1.0
176
     1
 92
        8
176
     1
 66
     7
176
     1
 43
1.0
176
     1
 76
     1
176
     1
 77
     6
176
     1
 78
     2
176
     1
 67
     7
176
     1
 79
     5
176
     1
170
     0
176
     1
171
     0
176
     1
290
     0
176
     1
 93
        1
176
     1
 44
0.0
176
     1
173
     0
176
     1
  0
VISUALSTYLE
  5
33
102
{ACAD_REACTORS
330
2A
102
}
330
2A
100
AcDbVisualStyle
  2
Realistic
 70
     8
177
     2
291
     0
 71
     2
176
     1
 72
     2
176
     1
 73
     0
176
     1
 90
        0
176
     1
 40
-0.6
176
     1
 41
-30.0
176
     1
 62
     5
 63
     7
421
 16777215
176
     1
 74
     1
176
     1
 91
        0
176
     1
 64
     7
176
     1
 65
   257
176
     1
 75
     1
176
     1
175
     1
176
     1
 42
1.0
176
     1
 92
        8
176
     1
 66
     8
424
  7895160
176
     1
 43
1.0
176
     1
 76
     1
176
     1
 77
     6
176
     1
 78
     2
176
     1
 67
     7
176
     1
 79
     5
176
     1
170
     0
176
     1
171
     0
176
     1
290
     0
176
     1
 93
       13
176
     1
 44
0.0
176
     1
173
     0
176
     1
  0
VISUALSTYLE
  5
37
102
{ACAD_REACTORS
330
2A
102
}
330
2A
100
AcDbVisualStyle
  2
Thicken
 70
    13
177
     2
291
     1
 71
     2
176
     1
 72
     2
176
     1
 73
     0
176
     1
 90
        0
176
     1
 40
-0.6
176
     1
 41
-30.0
176
     1
 62
     5
 63
     7
421
 16777215
176
     1
 74
     1
176
     1
 91
        4
176
     1
 64
     7
176
     1
 65
   257
176
     1
 75
     1
176
     1
175
     1
176
     1
 42
1.0
176
     1
 92
       12
176
     1
 66
     7
176
     1
 43
1.0
176
     1
 76
     1
176
     1
 77
     6
176
     1
 78
     2
176
     1
 67
     7
176
     1
 79
     5
176
     1
170
     0
176
     1
171
     0
176
     1
290
     0
176
     1
 93
        1
176
     1
 44
0.0
176
     1
173
     0
176
     1
  0
ENDSEC
  0
EOF
