  0
SECTION
  2
HEADER
  9
$ACADVER
  1
AC1018
  9
$ACADMAINTVER
 70
     0
  9
$DWGCODEPAGE
  3
ANSI_1252
  9
$INSBASE
 10
0.0
 20
0.0
 30
0.0
  9
$EXTMIN
 10
1.000000000000000E+20
 20
1.000000000000000E+20
 30
1.000000000000000E+20
  9
$EXTMAX
 10
-1.000000000000000E+20
 20
-1.000000000000000E+20
 30
-1.000000000000000E+20
  9
$LIMMIN
 10
0.0
 20
0.0
  9
$LIMMAX
 10
12.0
 20
9.0
  9
$ORTHOMODE
 70
     0
  9
$REGENMODE
 70
     1
  9
$FILLMODE
 70
     1
  9
$QTEXTMODE
 70
     0
  9
$MIRRTEXT
 70
     1
  9
$LTSCALE
 40
1.0
  9
$ATTMODE
 70
     1
  9
$TEXTSIZE
 40
0.2
  9
$TRACEWID
 40
0.05
  9
$TEXTSTYLE
  7
Standard
  9
$CLAYER
  8
0
  9
$CELTYPE
  6
ByLayer
  9
$CECOLOR
 62
   256
  9
$CELTSCALE
 40
1.0
  9
$DISPSILH
 70
     0
  9
$DIMSCALE
 40
1.0
  9
$DIMASZ
 40
0.18
  9
$DIMEXO
 40
0.0625
  9
$DIMDLI
 40
0.38
  9
$DIMRND
 40
0.0
  9
$DIMDLE
 40
0.0
  9
$DIMEXE
 40
0.18
  9
$DIMTP
 40
0.0
  9
$DIMTM
 40
0.0
  9
$DIMTXT
 40
0.18
  9
$DIMCEN
 40
0.09
  9
$DIMTSZ
 40
0.0
  9
$DIMTOL
 70
     0
  9
$DIMLIM
 70
     0
  9
$DIMTIH
 70
     1
  9
$DIMTOH
 70
     1
  9
$DIMSE1
 70
     0
  9
$DIMSE2
 70
     0
  9
$DIMTAD
 70
     0
  9
$DIMZIN
 70
     0
  9
$DIMBLK
  1

  9
$DIMASO
 70
     1
  9
$DIMSHO
 70
     1
  9
$DIMPOST
  1

  9
$DIMAPOST
  1

  9
$DIMALT
 70
     0
  9
$DIMALTD
 70
     2
  9
$DIMALTF
 40
25.4
  9
$DIMLFAC
 40
1.0
  9
$DIMTOFL
 70
     0
  9
$DIMTVP
 40
0.0
  9
$DIMTIX
 70
     0
  9
$DIMSOXD
 70
     0
  9
$DIMSAH
 70
     0
  9
$DIMBLK1
  1

  9
$DIMBLK2
  1

  9
$DIMSTYLE
  2
Standard
  9
$DIMCLRD
 70
     0
  9
$DIMCLRE
 70
     0
  9
$DIMCLRT
 70
     0
  9
$DIMTFAC
 40
1.0
  9
$DIMGAP
 40
0.09
  9
$DIMJUST
 70
     0
  9
$DIMSD1
 70
     0
  9
$DIMSD2
 70
     0
  9
$DIMTOLJ
 70
     1
  9
$DIMTZIN
 70
     0
  9
$DIMALTZ
 70
     0
  9
$DIMALTTZ
 70
     0
  9
$DIMUPT
 70
     0
  9
$DIMDEC
 70
     4
  9
$DIMTDEC
 70
     4
  9
$DIMALTU
 70
     2
  9
$DIMALTTD
 70
     2
  9
$DIMTXSTY
  7
Standard
  9
$DIMAUNIT
 70
     0
  9
$DIMADEC
 70
     0
  9
$DIMALTRND
 40
0.0
  9
$DIMAZIN
 70
     0
  9
$DIMDSEP
 70
    46
  9
$DIMATFIT
 70
     3
  9
$DIMFRAC
 70
     0
  9
$DIMLDRBLK
  1

  9
$DIMLUNIT
 70
     2
  9
$DIMLWD
 70
    -2
  9
$DIMLWE
 70
    -2
  9
$DIMTMOVE
 70
     0
  9
$LUNITS
 70
     2
  9
$LUPREC
 70
     4
  9
$SKETCHINC
 40
0.1
  9
$FILLETRAD
 40
0.5
  9
$AUNITS
 70
     0
  9
$AUPREC
 70
     0
  9
$MENU
  1
.
  9
$ELEVATION
 40
0.0
  9
$PELEVATION
 40
0.0
  9
$THICKNESS
 40
0.0
  9
$LIMCHECK
 70
     0
  9
$CHAMFERA
 40
0.5
  9
$CHAMFERB
 40
0.5
  9
$CHAMFERC
 40
1.0
  9
$CHAMFERD
 40
0.0
  9
$SKPOLY
 70
     0
  9
$TDCREATE
 40
2457638.786213935
  9
$TDUCREATE
 40
2457638.702880602
  9
$TDUPDATE
 40
2457638.786213947
  9
$TDUUPDATE
 40
2457638.702880614
  9
$TDINDWG
 40
0.0000000116
  9
$TDUSRTIMER
 40
0.0000000116
  9
$USRTIMER
 70
     1
  9
$ANGBASE
 50
0.0
  9
$ANGDIR
 70
     0
  9
$PDMODE
 70
     0
  9
$PDSIZE
 40
0.0
  9
$PLINEWID
 40
0.0
  9
$SPLFRAME
 70
     0
  9
$SPLINETYPE
 70
     6
  9
$SPLINESEGS
 70
     8
  9
$HANDSEED
  5
722
  9
$SURFTAB1
 70
     6
  9
$SURFTAB2
 70
     6
  9
$SURFTYPE
 70
     6
  9
$SURFU
 70
     6
  9
$SURFV
 70
     6
  9
$UCSBASE
  2

  9
$UCSNAME
  2

  9
$UCSORG
 10
0.0
 20
0.0
 30
0.0
  9
$UCSXDIR
 10
1.0
 20
0.0
 30
0.0
  9
$UCSYDIR
 10
0.0
 20
1.0
 30
0.0
  9
$UCSORTHOREF
  2

  9
$UCSORTHOVIEW
 70
     0
  9
$UCSORGTOP
 10
0.0
 20
0.0
 30
0.0
  9
$UCSORGBOTTOM
 10
0.0
 20
0.0
 30
0.0
  9
$UCSORGLEFT
 10
0.0
 20
0.0
 30
0.0
  9
$UCSORGRIGHT
 10
0.0
 20
0.0
 30
0.0
  9
$UCSORGFRONT
 10
0.0
 20
0.0
 30
0.0
  9
$UCSORGBACK
 10
0.0
 20
0.0
 30
0.0
  9
$PUCSBASE
  2

  9
$PUCSNAME
  2

  9
$PUCSORG
 10
0.0
 20
0.0
 30
0.0
  9
$PUCSXDIR
 10
1.0
 20
0.0
 30
0.0
  9
$PUCSYDIR
 10
0.0
 20
1.0
 30
0.0
  9
$PUCSORTHOREF
  2

  9
$PUCSORTHOVIEW
 70
     0
  9
$PUCSORGTOP
 10
0.0
 20
0.0
 30
0.0
  9
$PUCSORGBOTTOM
 10
0.0
 20
0.0
 30
0.0
  9
$PUCSORGLEFT
 10
0.0
 20
0.0
 30
0.0
  9
$PUCSORGRIGHT
 10
0.0
 20
0.0
 30
0.0
  9
$PUCSORGFRONT
 10
0.0
 20
0.0
 30
0.0
  9
$PUCSORGBACK
 10
0.0
 20
0.0
 30
0.0
  9
$USERI1
 70
     0
  9
$USERI2
 70
     0
  9
$USERI3
 70
     0
  9
$USERI4
 70
     0
  9
$USERI5
 70
     0
  9
$USERR1
 40
0.0
  9
$USERR2
 40
0.0
  9
$USERR3
 40
0.0
  9
$USERR4
 40
0.0
  9
$USERR5
 40
0.0
  9
$WORLDVIEW
 70
     1
  9
$SHADEDGE
 70
     3
  9
$SHADEDIF
 70
    70
  9
$TILEMODE
 70
     1
  9
$MAXACTVP
 70
    64
  9
$PINSBASE
 10
0.0
 20
0.0
 30
0.0
  9
$PLIMCHECK
 70
     0
  9
$PEXTMIN
 10
1.000000000000000E+20
 20
1.000000000000000E+20
 30
1.000000000000000E+20
  9
$PEXTMAX
 10
-1.000000000000000E+20
 20
-1.000000000000000E+20
 30
-1.000000000000000E+20
  9
$PLIMMIN
 10
0.0
 20
0.0
  9
$PLIMMAX
 10
12.0
 20
9.0
  9
$UNITMODE
 70
     0
  9
$VISRETAIN
 70
     1
  9
$PLINEGEN
 70
     0
  9
$PSLTSCALE
 70
     1
  9
$TREEDEPTH
 70
  3020
  9
$CMLSTYLE
  2
Standard
  9
$CMLJUST
 70
     0
  9
$CMLSCALE
 40
1.0
  9
$PROXYGRAPHICS
 70
     1
  9
$MEASUREMENT
 70
     0
  9
$CELWEIGHT
370
    -1
  9
$ENDCAPS
280
     0
  9
$JOINSTYLE
280
     0
  9
$LWDISPLAY
290
     1
  9
$INSUNITS
 70
     1
  9
$HYPERLINKBASE
  1

  9
$STYLESHEET
  1

  9
$XEDIT
290
     1
  9
$CEPSNTYPE
380
     0
  9
$PSTYLEMODE
290
     1
  9
$FINGERPRINTGUID
  2
{62FE800F-39D6-4E2C-A774-57C9F2E31F75}
  9
$VERSIONGUID
  2
{FAEB1C32-E019-11D5-929B-00C0DF256EC4}
  9
$EXTNAMES
290
     1
  9
$PSVPSCALE
 40
0.0
  9
$OLESTARTUP
290
     0
  9
$SORTENTS
280
   127
  9
$INDEXCTL
280
     0
  9
$HIDETEXT
280
     1
  9
$XCLIPFRAME
290
     0
  9
$HALOGAP
280
     0
  9
$OBSCOLOR
 70
   257
  9
$OBSLTYPE
280
     0
  9
$INTERSECTIONDISPLAY
280
     0
  9
$INTERSECTIONCOLOR
 70
   257
  9
$DIMASSOC
280
     2
  9
$PROJECTNAME
  1

  0
ENDSEC
  0
SECTION
  2
CLASSES
  0
CLASS
  1
ACDBDICTIONARYWDFLT
  2
AcDbDictionaryWithDefault
  3
ObjectDBX Classes
 90
        0
 91
        3
280
     0
281
     0
  0
CLASS
  1
VISUALSTYLE
  2
AcDbVisualStyle
  3
ObjectDBX Classes
 90
     4095
 91
        3
280
     0
281
     0
  0
ENDSEC
  0
SECTION
  2
TABLES
  0
TABLE
  2
VPORT
  5
8
330
0
100
AcDbSymbolTable
 70
     1
  0
VPORT
  5
29
330
8
100
AcDbSymbolTableRecord
100
AcDbViewportTableRecord
  2
*Active
 70
     0
 10
0.0
 20
0.0
 11
1.0
 21
1.0
 12
0.0
 22
0.0
 13
0.0
 23
0.0
 14
0.5
 24
0.5
 15
0.5
 25
0.5
 16
0.0
 26
0.0
 36
1.0
 17
73.28836030611367
 27
3.458703612416574
 37
0.0
 40
9.52486219379934
 41
1.527340528653482
 42
50.0
 43
0.0
 44
0.0
 50
0.0
 51
0.0
 71
     0
 72
   100
 73
     1
 74
     3
 75
     0
 76
     0
 77
     0
 78
     0
281
     0
 65
     1
110
0.0
120
0.0
130
0.0
111
1.0
121
0.0
131
0.0
112
0.0
122
1.0
132
0.0
 79
     0
146
0.0
  0
ENDTAB
  0
TABLE
  2
LTYPE
  5
5
330
0
100
AcDbSymbolTable
 70
     1
  0
LTYPE
  5
14
330
5
100
AcDbSymbolTableRecord
100
AcDbLinetypeTableRecord
  2
ByBlock
 70
     0
  3

 72
    65
 73
     0
 40
0.0
  0
LTYPE
  5
15
330
5
100
AcDbSymbolTableRecord
100
AcDbLinetypeTableRecord
  2
ByLayer
 70
     0
  3

 72
    65
 73
     0
 40
0.0
  0
LTYPE
  5
16
330
5
100
AcDbSymbolTableRecord
100
AcDbLinetypeTableRecord
  2
Continuous
 70
     0
  3
Solid line
 72
    65
 73
     0
 40
0.0
  0
ENDTAB
  0
TABLE
  2
LAYER
  5
2
330
0
100
AcDbSymbolTable
 70
     2
  0
LAYER
  5
10
330
2
100
AcDbSymbolTableRecord
100
AcDbLayerTableRecord
  2
0
 70
     0
 62
     7
  6
Continuous
370
    -3
390
F
  0
LAYER
  5
3B
330
2
100
AcDbSymbolTableRecord
100
AcDbLayerTableRecord
  2
Livello 1
 70
     0
 62
     7
  6
Continuous
370
    -3
390
F
  0
ENDTAB
  0
TABLE
  2
STYLE
  5
3
330
0
100
AcDbSymbolTable
 70
     1
  0
STYLE
  5
11
330
3
100
AcDbSymbolTableRecord
100
AcDbTextStyleTableRecord
  2
Standard
 70
     0
 40
0.0
 41
1.0
 50
0.0
 71
     0
 42
0.2
  3
txt
  4

  0
ENDTAB
  0
TABLE
  2
VIEW
  5
6
330
0
100
AcDbSymbolTable
 70
     0
  0
ENDTAB
  0
TABLE
  2
UCS
  5
7
330
0
100
AcDbSymbolTable
 70
     0
  0
ENDTAB
  0
TABLE
  2
APPID
  5
9
330
0
100
AcDbSymbolTable
 70
     1
  0
APPID
  5
12
330
9
100
AcDbSymbolTableRecord
100
AcDbRegAppTableRecord
  2
ACAD
 70
     0
  0
ENDTAB
  0
TABLE
  2
DIMSTYLE
  5
A
330
0
100
AcDbSymbolTable
 70
     1
100
AcDbDimStyleTable
  0
DIMSTYLE
105
27
330
A
100
AcDbSymbolTableRecord
100
AcDbDimStyleTableRecord
  2
Standard
 70
     0
340
11
  0
ENDTAB
  0
TABLE
  2
BLOCK_RECORD
  5
1
330
0
100
AcDbSymbolTable
 70
     7
  0
BLOCK_RECORD
  5
1F
330
1
100
AcDbSymbolTableRecord
100
AcDbBlockTableRecord
  2
*Model_Space
340
22
  0
BLOCK_RECORD
  5
1B
330
1
100
AcDbSymbolTableRecord
100
AcDbBlockTableRecord
  2
*Paper_Space
340
1E
  0
BLOCK_RECORD
  5
23
330
1
100
AcDbSymbolTableRecord
100
AcDbBlockTableRecord
  2
*Paper_Space0
340
26
  0
BLOCK_RECORD
  5
3C
330
1
100
AcDbSymbolTableRecord
100
AcDbBlockTableRecord
  2
block 2
340
0
102
{BLKREFS
331
3D
102
}
  0
BLOCK_RECORD
  5
56
330
1
100
AcDbSymbolTableRecord
100
AcDbBlockTableRecord
  2
block 3
340
0
102
{BLKREFS
331
57
102
}
  0
BLOCK_RECORD
  5
72
330
1
100
AcDbSymbolTableRecord
100
AcDbBlockTableRecord
  2
block 4
340
0
102
{BLKREFS
331
73
102
}
  0
BLOCK_RECORD
  5
497
330
1
100
AcDbSymbolTableRecord
100
AcDbBlockTableRecord
  2
block 5
340
0
102
{BLKREFS
331
498
102
}
  0
BLOCK_RECORD
  5
4AE
330
1
100
AcDbSymbolTableRecord
100
AcDbBlockTableRecord
  2
block 6
340
0
102
{BLKREFS
331
4AF
102
}
  0
BLOCK_RECORD
  5
5E0
330
1
100
AcDbSymbolTableRecord
100
AcDbBlockTableRecord
  2
block 7
340
0
102
{BLKREFS
331
5E1
102
}
  0
ENDTAB
  0
ENDSEC
  0
SECTION
  2
BLOCKS
  0
BLOCK
  5
20
330
1F
100
AcDbEntity
  8
0
100
AcDbBlockBegin
  2
*Model_Space
 70
     0
 71
     0
 10
0.0
 20
0.0
 30
0.0
  3
*Model_Space
  1

  0
ENDBLK
  5
21
330
1F
100
AcDbEntity
  8
0
100
AcDbBlockEnd
  0
BLOCK
  5
1C
330
1B
100
AcDbEntity
 67
     1
  8
0
100
AcDbBlockBegin
  2
*Paper_Space
 70
     0
 71
     0
 10
0.0
 20
0.0
 30
0.0
  3
*Paper_Space
  1

  0
ENDBLK
  5
1D
330
1B
100
AcDbEntity
 67
     1
  8
0
100
AcDbBlockEnd
  0
BLOCK
  5
24
330
23
100
AcDbEntity
  8
0
100
AcDbBlockBegin
  2
*Paper_Space0
 70
     0
 71
     0
 10
0.0
 20
0.0
 30
0.0
  3
*Paper_Space0
  1

  0
ENDBLK
  5
25
330
23
100
AcDbEntity
  8
0
100
AcDbBlockEnd
  0
BLOCK
  5
3E
330
3C
100
AcDbEntity
  8
0
100
AcDbBlockBegin
  2
block 2
 70
     0
 71
     0
 10
0.0
 20
0.0
 30
0.0
  3
block 2
  1

  0
MTEXT
  5
40
330
3C
100
AcDbEntity
  8
Livello 1
 62
     7
100
AcDbMText
 10
71.2688970090925
 20
-0.84446180534444
 30
0.0
 40
0.3198515238598056
 41
0.0
 71
     7
 72
     1
  1
\fHelveticaNeueLTPro Roman|b0|i0|c0|p34;\W0.900001;cable lenght 3 m
 73
     1
 44
1.0
  0
MTEXT
  5
41
330
3C
100
AcDbEntity
  8
Livello 1
 62
     7
100
AcDbMText
 10
74.58521482510369
 20
0.4636064994500705
 30
0.0
 40
0.2878666665947
 41
0.0
 71
     7
 72
     1
  1
\fHelveticaNeueLTPro Cn|b0|i0|c0|p34;\W1;175
 73
     1
 44
1.0
  0
MTEXT
  5
42
330
3C
100
AcDbEntity
  8
Livello 1
 62
     7
100
AcDbMText
 10
66.70173392429679
 20
1.429990234017502
 30
0.0
 40
0.287863784018712
 41
0.0
 71
     7
 72
     1
  1
\fHelveticaNeueLTPro Cn|b0|i0|c0|p34;\W0.99999;9
 11
-4.371139000186241E-8
 21
0.999999999999999
 31
0.0
 73
     1
 44
1.0
  0
MTEXT
  5
43
330
3C
100
AcDbEntity
  8
Livello 1
 62
     7
100
AcDbMText
 10
66.36611272212375
 20
6.809799667351369
 30
0.0
 40
0.287863784018712
 41
0.0
 71
     7
 72
     1
  1
\fHelveticaNeueLTPro Cn|b0|i0|c0|p34;\W0.99999;5
 11
-4.371139000186241E-8
 21
0.999999999999999
 31
0.0
 73
     1
 44
1.0
  0
MTEXT
  5
44
330
3C
100
AcDbEntity
  8
Livello 1
 62
     7
100
AcDbMText
 10
67.53220864197111
 20
7.866806638658298
 30
0.0
 40
0.2878666665947
 41
0.0
 71
     7
 72
     1
  1
\fHelveticaNeueLTPro Cn|b0|i0|c0|p34;\W1;7
 73
     1
 44
1.0
  0
MTEXT
  5
45
330
3C
100
AcDbEntity
  8
Livello 1
 62
     7
100
AcDbMText
 10
78.81413843515757
 20
7.332420652463769
 30
0.0
 40
0.2878666665947
 41
0.0
 71
     7
 72
     1
  1
\fHelveticaNeueLTPro Cn|b0|i0|c0|p34;\W1;25
 73
     1
 44
1.0
  0
POLYLINE
  5
46
330
3C
100
AcDbEntity
  8
Livello 1
 62
     7
370
     9
100
AcDb2dPolyline
 66
     1
 10
0.0
 20
0.0
 30
0.0
  0
VERTEX
  5
47
330
46
100
AcDbEntity
  8
Livello 1
 62
     7
370
     9
100
AcDbVertex
100
AcDb2dVertex
 10
80.46440807450195
 20
0.5051543510021836
 30
0.0
  0
VERTEX
  5
48
330
46
100
AcDbEntity
  8
Livello 1
 62
     7
370
     9
100
AcDbVertex
100
AcDb2dVertex
 10
80.46440807450195
 20
0.7578176538904067
 30
0.0
  0
SEQEND
  5
49
330
46
100
AcDbEntity
  8
Livello 1
370
     9
  0
POLYLINE
  5
4A
330
3C
100
AcDbEntity
  8
Livello 1
 62
     7
370
     9
100
AcDb2dPolyline
 66
     1
 10
0.0
 20
0.0
 30
0.0
  0
VERTEX
  5
4B
330
4A
100
AcDbEntity
  8
Livello 1
 62
     7
370
     9
100
AcDbVertex
100
AcDb2dVertex
 10
69.33395912980193
 20
0.5051543510021836
 30
0.0
  0
VERTEX
  5
4C
330
4A
100
AcDbEntity
  8
Livello 1
 62
     7
370
     9
100
AcDbVertex
100
AcDb2dVertex
 10
69.33395912980193
 20
0.7578176538904067
 30
0.0
  0
SEQEND
  5
4D
330
4A
100
AcDbEntity
  8
Livello 1
370
     9
  0
POLYLINE
  5
4E
330
3C
100
AcDbEntity
  8
Livello 1
 62
     7
370
     9
100
AcDb2dPolyline
 66
     1
 10
0.0
 20
0.0
 30
0.0
  0
VERTEX
  5
4F
330
4E
100
AcDbEntity
  8
Livello 1
 62
     7
370
     9
100
AcDbVertex
100
AcDb2dVertex
 10
66.66297660008772
 20
1.820526258225424
 30
0.0
  0
VERTEX
  5
50
330
4E
100
AcDbEntity
  8
Livello 1
 62
     7
370
     9
100
AcDbVertex
100
AcDb2dVertex
 10
66.4103132971995
 20
1.820526258225424
 30
0.0
  0
SEQEND
  5
51
330
4E
100
AcDbEntity
  8
Livello 1
370
     9
  0
POLYLINE
  5
52
330
3C
100
AcDbEntity
  8
Livello 1
 62
     7
370
     9
100
AcDb2dPolyline
 66
     1
 10
0.0
 20
0.0
 30
0.0
  0
VERTEX
  5
53
330
52
100
AcDbEntity
  8
Livello 1
 62
     7
370
     9
100
AcDbVertex
100
AcDb2dVertex
 10
66.66297660008772
 20
1.25966471322675
 30
0.0
  0
VERTEX
  5
54
330
52
100
AcDbEntity
  8
Livello 1
 62
     7
370
     9
100
AcDbVertex
100
AcDb2dVertex
 10
66.4103132971995
 20
1.25966471322675
 30
0.0
  0
SEQEND
  5
55
330
52
100
AcDbEntity
  8
Livello 1
370
     9
  0
INSERT
  5
57
330
3C
100
AcDbEntity
  8
Livello 1
100
AcDbBlockReference
  2
block 3
 10
0.0
 20
0.0
 30
0.0
  0
POLYLINE
  5
6A
330
3C
100
AcDbEntity
  8
Livello 1
 62
     7
370
     9
100
AcDb2dPolyline
 66
     1
 10
0.0
 20
0.0
 30
0.0
  0
VERTEX
  5
6B
330
6A
100
AcDbEntity
  8
Livello 1
 62
     7
370
     9
100
AcDbVertex
100
AcDb2dVertex
 10
80.01844046393636
 20
7.560933836000391
 30
0.0
  0
VERTEX
  5
6C
330
6A
100
AcDbEntity
  8
Livello 1
 62
     7
370
     9
100
AcDbVertex
100
AcDb2dVertex
 10
80.01844046393636
 20
7.352384980800792
 30
0.0
  0
SEQEND
  5
6D
330
6A
100
AcDbEntity
  8
Livello 1
370
     9
  0
POLYLINE
  5
6E
330
3C
100
AcDbEntity
  8
Livello 1
 62
     7
370
     9
100
AcDb2dPolyline
 66
     1
 10
0.0
 20
0.0
 30
0.0
  0
VERTEX
  5
6F
330
6E
100
AcDbEntity
  8
Livello 1
 62
     7
370
     9
100
AcDbVertex
100
AcDb2dVertex
 10
78.01280922528846
 20
7.560933836000391
 30
0.0
  0
VERTEX
  5
70
330
6E
100
AcDbEntity
  8
Livello 1
 62
     7
370
     9
100
AcDbVertex
100
AcDb2dVertex
 10
78.01280922528846
 20
7.352384980800792
 30
0.0
  0
SEQEND
  5
71
330
6E
100
AcDbEntity
  8
Livello 1
370
     9
  0
INSERT
  5
73
330
3C
100
AcDbEntity
  8
Livello 1
100
AcDbBlockReference
  2
block 4
 10
0.0
 20
0.0
 30
0.0
  0
POLYLINE
  5
49F
330
3C
100
AcDbEntity
  8
Livello 1
 62
     7
370
     9
100
AcDb2dPolyline
 66
     1
 10
0.0
 20
0.0
 30
0.0
  0
VERTEX
  5
4A0
330
49F
100
AcDbEntity
  8
Livello 1
 62
     7
370
     9
100
AcDbVertex
100
AcDb2dVertex
 10
81.09506725403179
 20
7.577849254832968
 30
0.0
  0
VERTEX
  5
4A1
330
49F
100
AcDbEntity
  8
Livello 1
 62
     7
370
     9
100
AcDbVertex
100
AcDb2dVertex
 10
81.09506725403179
 20
7.571699759391796
 30
0.0
  0
SEQEND
  5
4A2
330
49F
100
AcDbEntity
  8
Livello 1
370
     9
  0
POLYLINE
  5
4A3
330
3C
100
AcDbEntity
  8
Livello 1
 62
     7
370
     9
100
AcDb2dPolyline
 66
     1
 10
0.0
 20
0.0
 30
0.0
  0
VERTEX
  5
4A4
330
4A3
100
AcDbEntity
  8
Livello 1
 62
     7
370
     9
100
AcDbVertex
100
AcDb2dVertex
 10
81.0967208998647
 20
7.579468449711035
 30
0.0
  0
VERTEX
  5
4A5
330
4A3
100
AcDbEntity
  8
Livello 1
 62
     7
370
     9
100
AcDbVertex
100
AcDb2dVertex
 10
81.09637639031618
 20
7.579468449711035
 30
0.0
  0
VERTEX
  5
4A6
330
4A3
100
AcDbEntity
  8
Livello 1
 62
     7
370
     9
100
AcDbVertex
100
AcDb2dVertex
 10
81.09606633172251
 20
7.579330645891625
 30
0.0
  0
VERTEX
  5
4A7
330
4A3
100
AcDbEntity
  8
Livello 1
 62
     7
370
     9
100
AcDbVertex
100
AcDb2dVertex
 10
81.09575627312883
 20
7.579175616594789
 30
0.0
  0
VERTEX
  5
4A8
330
4A3
100
AcDbEntity
  8
Livello 1
 62
     7
370
     9
100
AcDbVertex
100
AcDb2dVertex
 10
81.09554956739971
 20
7.579003361820527
 30
0.0
  0
VERTEX
  5
4A9
330
4A3
100
AcDbEntity
  8
Livello 1
 62
     7
370
     9
100
AcDbVertex
100
AcDb2dVertex
 10
81.09530841071575
 20
7.578762205136559
 30
0.0
  0
VERTEX
  5
4AA
330
4A3
100
AcDbEntity
  8
Livello 1
 62
     7
370
     9
100
AcDbVertex
100
AcDb2dVertex
 10
81.09517060689635
 20
7.578486597497739
 30
0.0
  0
VERTEX
  5
4AB
330
4A3
100
AcDbEntity
  8
Livello 1
 62
     7
370
     9
100
AcDbVertex
100
AcDb2dVertex
 10
81.09510170498663
 20
7.578159313426641
 30
0.0
  0
VERTEX
  5
4AC
330
4A3
100
AcDbEntity
  8
Livello 1
 62
     7
370
     9
100
AcDbVertex
100
AcDb2dVertex
 10
81.09506725403179
 20
7.577849254832968
 30
0.0
  0
SEQEND
  5
4AD
330
4A3
100
AcDbEntity
  8
Livello 1
370
     9
  0
INSERT
  5
4AF
330
3C
100
AcDbEntity
  8
Livello 1
100
AcDbBlockReference
  2
block 6
 10
0.0
 20
0.0
 30
0.0
  0
INSERT
  5
5E1
330
3C
100
AcDbEntity
  8
Livello 1
100
AcDbBlockReference
  2
block 7
 10
0.0
 20
0.0
 30
0.0
  0
ENDBLK
  5
3F
330
3C
100
AcDbEntity
  8
0
100
AcDbBlockEnd
  0
BLOCK
  5
58
330
56
100
AcDbEntity
  8
0
100
AcDbBlockBegin
  2
block 3
 70
     0
 71
     0
 10
0.0
 20
0.0
 30
0.0
  3
block 3
  1

  0
POLYLINE
  5
5A
330
56
100
AcDbEntity
  8
Livello 1
 62
     7
370
     9
100
AcDb2dPolyline
 66
     1
 10
0.0
 20
0.0
 30
0.0
  0
VERTEX
  5
5B
330
5A
100
AcDbEntity
  8
Livello 1
 62
     7
370
     9
100
AcDbVertex
100
AcDb2dVertex
 10
66.79888561698083
 20
7.112020668794911
 30
0.0
  0
VERTEX
  5
5C
330
5A
100
AcDbEntity
  8
Livello 1
 62
     7
370
     9
100
AcDbVertex
100
AcDb2dVertex
 10
66.5462223140926
 20
7.112020668794911
 30
0.0
  0
SEQEND
  5
5D
330
5A
100
AcDbEntity
  8
Livello 1
370
     9
  0
POLYLINE
  5
5E
330
56
100
AcDbEntity
  8
Livello 1
 62
     7
370
     9
100
AcDb2dPolyline
 66
     1
 10
0.0
 20
0.0
 30
0.0
  0
VERTEX
  5
5F
330
5E
100
AcDbEntity
  8
Livello 1
 62
     7
370
     9
100
AcDbVertex
100
AcDb2dVertex
 10
66.79888561698083
 20
6.733783635469331
 30
0.0
  0
VERTEX
  5
60
330
5E
100
AcDbEntity
  8
Livello 1
 62
     7
370
     9
100
AcDbVertex
100
AcDb2dVertex
 10
66.5462223140926
 20
6.733783635469331
 30
0.0
  0
SEQEND
  5
61
330
5E
100
AcDbEntity
  8
Livello 1
370
     9
  0
POLYLINE
  5
62
330
56
100
AcDbEntity
  8
Livello 1
 62
     7
370
     9
100
AcDb2dPolyline
 66
     1
 10
0.0
 20
0.0
 30
0.0
  0
VERTEX
  5
63
330
62
100
AcDbEntity
  8
Livello 1
 62
     7
370
     9
100
AcDbVertex
100
AcDb2dVertex
 10
67.86669296263402
 20
7.436824271144266
 30
0.0
  0
VERTEX
  5
64
330
62
100
AcDbEntity
  8
Livello 1
 62
     7
370
     9
100
AcDbVertex
100
AcDb2dVertex
 10
67.86669296263402
 20
7.689487574032489
 30
0.0
  0
SEQEND
  5
65
330
62
100
AcDbEntity
  8
Livello 1
370
     9
  0
POLYLINE
  5
66
330
56
100
AcDbEntity
  8
Livello 1
 62
     7
370
     9
100
AcDb2dPolyline
 66
     1
 10
0.0
 20
0.0
 30
0.0
  0
VERTEX
  5
67
330
66
100
AcDbEntity
  8
Livello 1
 62
     7
370
     9
100
AcDbVertex
100
AcDb2dVertex
 10
67.4122504171747
 20
7.436824271144266
 30
0.0
  0
VERTEX
  5
68
330
66
100
AcDbEntity
  8
Livello 1
 62
     7
370
     9
100
AcDbVertex
100
AcDb2dVertex
 10
67.4122504171747
 20
7.689487574032489
 30
0.0
  0
SEQEND
  5
69
330
66
100
AcDbEntity
  8
Livello 1
370
     9
  0
ENDBLK
  5
59
330
56
100
AcDbEntity
  8
0
100
AcDbBlockEnd
  0
BLOCK
  5
74
330
72
100
AcDbEntity
  8
0
100
AcDbBlockBegin
  2
block 4
 70
     0
 71
     0
 10
0.0
 20
0.0
 30
0.0
  3
block 4
  1

  0
POLYLINE
  5
76
330
72
100
AcDbEntity
  8
Livello 1
 62
     7
370
     9
100
AcDb2dPolyline
 66
     1
 10
0.0
 20
0.0
 30
0.0
  0
VERTEX
  5
77
330
76
100
AcDbEntity
  8
Livello 1
 62
     7
370
     9
100
AcDbVertex
100
AcDb2dVertex
 10
69.36107203127084
 20
6.945484753037934
 30
0.0
  0
VERTEX
  5
78
330
76
100
AcDbEntity
  8
Livello 1
 62
     7
370
     9
100
AcDbVertex
100
AcDb2dVertex
 10
69.36089977649658
 20
6.945484753037934
 30
0.0
  0
VERTEX
  5
79
330
76
100
AcDbEntity
  8
Livello 1
 62
     7
370
     9
100
AcDbVertex
100
AcDb2dVertex
 10
69.36069307076745
 20
6.945484753037934
 30
0.0
  0
VERTEX
  5
7A
330
76
100
AcDbEntity
  8
Livello 1
 62
     7
370
     9
100
AcDbVertex
100
AcDb2dVertex
 10
69.3605208159932
 20
6.945484753037934
 30
0.0
  0
SEQEND
  5
7B
330
76
100
AcDbEntity
  8
Livello 1
370
     9
  0
POLYLINE
  5
7C
330
72
100
AcDbEntity
  8
Livello 1
 62
     7
370
     9
100
AcDb2dPolyline
 66
     1
 10
0.0
 20
0.0
 30
0.0
  0
VERTEX
  5
7D
330
7C
100
AcDbEntity
  8
Livello 1
 62
     7
370
     9
100
AcDbVertex
100
AcDb2dVertex
 10
69.34694713978132
 20
6.945484753037934
 30
0.0
  0
VERTEX
  5
7E
330
7C
100
AcDbEntity
  8
Livello 1
 62
     7
370
     9
100
AcDbVertex
100
AcDb2dVertex
 10
69.34770506078807
 20
6.945484753037934
 30
0.0
  0
VERTEX
  5
7F
330
7C
100
AcDbEntity
  8
Livello 1
 62
     7
370
     9
100
AcDbVertex
100
AcDb2dVertex
 10
69.35070229386024
 20
6.945484753037934
 30
0.0
  0
SEQEND
  5
80
330
7C
100
AcDbEntity
  8
Livello 1
370
     9
  0
POLYLINE
  5
81
330
72
100
AcDbEntity
  8
Livello 1
 62
     7
370
     9
100
AcDb2dPolyline
 66
     1
 10
0.0
 20
0.0
 30
0.0
  0
VERTEX
  5
82
330
81
100
AcDbEntity
  8
Livello 1
 62
     7
370
     9
100
AcDbVertex
100
AcDb2dVertex
 10
69.36107203127084
 20
6.945484753037934
 30
0.0
  0
VERTEX
  5
83
330
81
100
AcDbEntity
  8
Livello 1
 62
     7
370
     9
100
AcDbVertex
100
AcDb2dVertex
 10
69.36906465279662
 20
6.945484753037934
 30
0.0
  0
VERTEX
  5
84
330
81
100
AcDbEntity
  8
Livello 1
 62
     7
370
     9
100
AcDbVertex
100
AcDb2dVertex
 10
69.37798745010342
 20
6.945484753037934
 30
0.0
  0
VERTEX
  5
85
330
81
100
AcDbEntity
  8
Livello 1
 62
     7
370
     9
100
AcDbVertex
100
AcDb2dVertex
 10
69.387427011733
 20
6.945484753037934
 30
0.0
  0
VERTEX
  5
86
330
81
100
AcDbEntity
  8
Livello 1
 62
     7
370
     9
100
AcDbVertex
100
AcDb2dVertex
 10
69.39672876954317
 20
6.945484753037934
 30
0.0
  0
VERTEX
  5
87
330
81
100
AcDbEntity
  8
Livello 1
 62
     7
370
     9
100
AcDbVertex
100
AcDb2dVertex
 10
69.40537595921116
 20
6.945484753037934
 30
0.0
  0
VERTEX
  5
88
330
81
100
AcDbEntity
  8
Livello 1
 62
     7
370
     9
100
AcDbVertex
100
AcDb2dVertex
 10
69.41285181641415
 20
6.945484753037934
 30
0.0
  0
VERTEX
  5
89
330
81
100
AcDbEntity
  8
Livello 1
 62
     7
370
     9
100
AcDbVertex
100
AcDb2dVertex
 10
69.41877738064878
 20
6.945484753037934
 30
0.0
  0
VERTEX
  5
8A
330
81
100
AcDbEntity
  8
Livello 1
 62
     7
370
     9
100
AcDbVertex
100
AcDb2dVertex
 10
69.42270478950196
 20
6.945484753037934
 30
0.0
  0
VERTEX
  5
8B
330
81
100
AcDbEntity
  8
Livello 1
 62
     7
370
     9
100
AcDbVertex
100
AcDb2dVertex
 10
69.4244962391543
 20
6.945484753037934
 30
0.0
  0
VERTEX
  5
8C
330
81
100
AcDbEntity
  8
Livello 1
 62
     7
370
     9
100
AcDbVertex
100
AcDb2dVertex
 10
69.424565141064
 20
6.945484753037934
 30
0.0
  0
SEQEND
  5
8D
330
81
100
AcDbEntity
  8
Livello 1
370
     9
  0
POLYLINE
  5
8E
330
72
100
AcDbEntity
  8
Livello 1
 62
     7
370
     9
100
AcDb2dPolyline
 66
     1
 10
0.0
 20
0.0
 30
0.0
  0
VERTEX
  5
8F
330
8E
100
AcDbEntity
  8
Livello 1
 62
     7
370
     9
100
AcDbVertex
100
AcDb2dVertex
 10
69.424565141064
 20
7.093933917497349
 30
0.0
  0
VERTEX
  5
90
330
8E
100
AcDbEntity
  8
Livello 1
 62
     7
370
     9
100
AcDbVertex
100
AcDb2dVertex
 10
69.424565141064
 20
7.093933917497349
 30
0.0
  0
VERTEX
  5
91
330
8E
100
AcDbEntity
  8
Livello 1
 62
     7
370
     9
100
AcDbVertex
100
AcDb2dVertex
 10
69.42308375000533
 20
7.093933917497349
 30
0.0
  0
VERTEX
  5
92
330
8E
100
AcDbEntity
  8
Livello 1
 62
     7
370
     9
100
AcDbVertex
100
AcDb2dVertex
 10
69.4192596940167
 20
7.093933917497349
 30
0.0
  0
VERTEX
  5
93
330
8E
100
AcDbEntity
  8
Livello 1
 62
     7
370
     9
100
AcDbVertex
100
AcDb2dVertex
 10
69.41333412978207
 20
7.093933917497349
 30
0.0
  0
VERTEX
  5
94
330
8E
100
AcDbEntity
  8
Livello 1
 62
     7
370
     9
100
AcDbVertex
100
AcDb2dVertex
 10
69.40561711589511
 20
7.093933917497349
 30
0.0
  0
VERTEX
  5
95
330
8E
100
AcDbEntity
  8
Livello 1
 62
     7
370
     9
100
AcDbVertex
100
AcDb2dVertex
 10
69.39672876954317
 20
7.093933917497349
 30
0.0
  0
VERTEX
  5
96
330
8E
100
AcDbEntity
  8
Livello 1
 62
     7
370
     9
100
AcDbVertex
100
AcDb2dVertex
 10
69.38715140409418
 20
7.093933917497349
 30
0.0
  0
VERTEX
  5
97
330
8E
100
AcDbEntity
  8
Livello 1
 62
     7
370
     9
100
AcDbVertex
100
AcDb2dVertex
 10
69.37743623482578
 20
7.093933917497349
 30
0.0
  0
VERTEX
  5
98
330
8E
100
AcDbEntity
  8
Livello 1
 62
     7
370
     9
100
AcDbVertex
100
AcDb2dVertex
 10
69.36823782988016
 20
7.093933917497349
 30
0.0
  0
VERTEX
  5
99
330
8E
100
AcDbEntity
  8
Livello 1
 62
     7
370
     9
100
AcDbVertex
100
AcDb2dVertex
 10
69.36021075739953
 20
7.093933917497349
 30
0.0
  0
VERTEX
  5
9A
330
8E
100
AcDbEntity
  8
Livello 1
 62
     7
370
     9
100
AcDbVertex
100
AcDb2dVertex
 10
69.35373397788726
 20
7.093933917497349
 30
0.0
  0
VERTEX
  5
9B
330
8E
100
AcDbEntity
  8
Livello 1
 62
     7
370
     9
100
AcDbVertex
100
AcDb2dVertex
 10
69.34925535375643
 20
7.093933917497349
 30
0.0
  0
VERTEX
  5
9C
330
8E
100
AcDbEntity
  8
Livello 1
 62
     7
370
     9
100
AcDbVertex
100
AcDb2dVertex
 10
69.34711939455558
 20
7.093933917497349
 30
0.0
  0
VERTEX
  5
9D
330
8E
100
AcDbEntity
  8
Livello 1
 62
     7
370
     9
100
AcDbVertex
100
AcDb2dVertex
 10
69.34694713978132
 20
7.093933917497349
 30
0.0
  0
SEQEND
  5
9E
330
8E
100
AcDbEntity
  8
Livello 1
370
     9
  0
POLYLINE
  5
9F
330
72
100
AcDbEntity
  8
Livello 1
 62
     7
370
     9
100
AcDb2dPolyline
 66
     1
 10
0.0
 20
0.0
 30
0.0
  0
VERTEX
  5
A0
330
9F
100
AcDbEntity
  8
Livello 1
 62
     7
370
     9
100
AcDbVertex
100
AcDb2dVertex
 10
69.33399358075677
 20
7.104269203953099
 30
0.0
  0
VERTEX
  5
A1
330
9F
100
AcDbEntity
  8
Livello 1
 62
     7
370
     9
100
AcDbVertex
100
AcDb2dVertex
 10
69.33478595271838
 20
7.104269203953099
 30
0.0
  0
VERTEX
  5
A2
330
9F
100
AcDbEntity
  8
Livello 1
 62
     7
370
     9
100
AcDbVertex
100
AcDb2dVertex
 10
69.33792098960996
 20
7.104269203953099
 30
0.0
  0
VERTEX
  5
A3
330
9F
100
AcDbEntity
  8
Livello 1
 62
     7
370
     9
100
AcDbVertex
100
AcDb2dVertex
 10
69.34329533856695
 20
7.104269203953099
 30
0.0
  0
VERTEX
  5
A4
330
9F
100
AcDbEntity
  8
Livello 1
 62
     7
370
     9
100
AcDbVertex
100
AcDb2dVertex
 10
69.35066784290538
 20
7.104269203953099
 30
0.0
  0
VERTEX
  5
A5
330
9F
100
AcDbEntity
  8
Livello 1
 62
     7
370
     9
100
AcDbVertex
100
AcDb2dVertex
 10
69.35965954212189
 20
7.104269203953099
 30
0.0
  0
VERTEX
  5
A6
330
9F
100
AcDbEntity
  8
Livello 1
 62
     7
370
     9
100
AcDbVertex
100
AcDb2dVertex
 10
69.36989147571308
 20
7.104269203953099
 30
0.0
  0
VERTEX
  5
A7
330
9F
100
AcDbEntity
  8
Livello 1
 62
     7
370
     9
100
AcDbVertex
100
AcDb2dVertex
 10
69.38081242840131
 20
7.104269203953099
 30
0.0
  0
VERTEX
  5
A8
330
9F
100
AcDbEntity
  8
Livello 1
 62
     7
370
     9
100
AcDbVertex
100
AcDb2dVertex
 10
69.39207789063809
 20
7.104269203953099
 30
0.0
  0
VERTEX
  5
A9
330
9F
100
AcDbEntity
  8
Livello 1
 62
     7
370
     9
100
AcDbVertex
100
AcDb2dVertex
 10
69.40292994141663
 20
7.104269203953099
 30
0.0
  0
VERTEX
  5
AA
330
9F
100
AcDbEntity
  8
Livello 1
 62
     7
370
     9
100
AcDbVertex
100
AcDb2dVertex
 10
69.4130240711884
 20
7.104269203953099
 30
0.0
  0
VERTEX
  5
AB
330
9F
100
AcDbEntity
  8
Livello 1
 62
     7
370
     9
100
AcDbVertex
100
AcDb2dVertex
 10
69.4218090646758
 20
7.104269203953099
 30
0.0
  0
VERTEX
  5
AC
330
9F
100
AcDbEntity
  8
Livello 1
 62
     7
370
     9
100
AcDbVertex
100
AcDb2dVertex
 10
69.4289748632851
 20
7.104269203953099
 30
0.0
  0
VERTEX
  5
AD
330
9F
100
AcDbEntity
  8
Livello 1
 62
     7
370
     9
100
AcDbVertex
100
AcDb2dVertex
 10
69.43410805555814
 20
7.104269203953099
 30
0.0
  0
VERTEX
  5
AE
330
9F
100
AcDbEntity
  8
Livello 1
 62
     7
370
     9
100
AcDbVertex
100
AcDb2dVertex
 10
69.43696748481089
 20
7.104269203953099
 30
0.0
  0
VERTEX
  5
AF
330
9F
100
AcDbEntity
  8
Livello 1
 62
     7
370
     9
100
AcDbVertex
100
AcDb2dVertex
 10
69.43748424913368
 20
7.104269203953099
 30
0.0
  0
SEQEND
  5
B0
330
9F
100
AcDbEntity
  8
Livello 1
370
     9
  0
POLYLINE
  5
B1
330
72
100
AcDbEntity
  8
Livello 1
 62
     7
370
     9
100
AcDb2dPolyline
 66
     1
 10
0.0
 20
0.0
 30
0.0
  0
VERTEX
  5
B2
330
B1
100
AcDbEntity
  8
Livello 1
 62
     7
370
     9
100
AcDbVertex
100
AcDb2dVertex
 10
69.43748424913368
 20
7.11041869939427
 30
0.0
  0
VERTEX
  5
B3
330
B1
100
AcDbEntity
  8
Livello 1
 62
     7
370
     9
100
AcDbVertex
100
AcDb2dVertex
 10
69.43748424913368
 20
7.11041869939427
 30
0.0
  0
VERTEX
  5
B4
330
B1
100
AcDbEntity
  8
Livello 1
 62
     7
370
     9
100
AcDbVertex
100
AcDb2dVertex
 10
69.43583060330076
 20
7.11041869939427
 30
0.0
  0
VERTEX
  5
B5
330
B1
100
AcDbEntity
  8
Livello 1
 62
     7
370
     9
100
AcDbVertex
100
AcDb2dVertex
 10
69.43176539062816
 20
7.11041869939427
 30
0.0
  0
VERTEX
  5
B6
330
B1
100
AcDbEntity
  8
Livello 1
 62
     7
370
     9
100
AcDbVertex
100
AcDb2dVertex
 10
69.42563312066441
 20
7.11041869939427
 30
0.0
  0
VERTEX
  5
B7
330
B1
100
AcDbEntity
  8
Livello 1
 62
     7
370
     9
100
AcDbVertex
100
AcDb2dVertex
 10
69.4176749500935
 20
7.11041869939427
 30
0.0
  0
SEQEND
  5
B8
330
B1
100
AcDbEntity
  8
Livello 1
370
     9
  0
POLYLINE
  5
B9
330
72
100
AcDbEntity
  8
Livello 1
 62
     7
370
     9
100
AcDb2dPolyline
 66
     1
 10
0.0
 20
0.0
 30
0.0
  0
VERTEX
  5
BA
330
B9
100
AcDbEntity
  8
Livello 1
 62
     7
370
     9
100
AcDbVertex
100
AcDb2dVertex
 10
69.4176749500935
 20
7.11041869939427
 30
0.0
  0
VERTEX
  5
BB
330
B9
100
AcDbEntity
  8
Livello 1
 62
     7
370
     9
100
AcDbVertex
100
AcDb2dVertex
 10
69.40813203559935
 20
7.11041869939427
 30
0.0
  0
VERTEX
  5
BC
330
B9
100
AcDbEntity
  8
Livello 1
 62
     7
370
     9
100
AcDbVertex
100
AcDb2dVertex
 10
69.39759004341448
 20
7.11041869939427
 30
0.0
  0
VERTEX
  5
BD
330
B9
100
AcDbEntity
  8
Livello 1
 62
     7
370
     9
100
AcDbVertex
100
AcDb2dVertex
 10
69.38642793404227
 20
7.11041869939427
 30
0.0
  0
VERTEX
  5
BE
330
B9
100
AcDbEntity
  8
Livello 1
 62
     7
370
     9
100
AcDbVertex
100
AcDb2dVertex
 10
69.37533472657977
 20
7.11041869939427
 30
0.0
  0
VERTEX
  5
BF
330
B9
100
AcDbEntity
  8
Livello 1
 62
     7
370
     9
100
AcDbVertex
100
AcDb2dVertex
 10
69.3646549305755
 20
7.11041869939427
 30
0.0
  0
VERTEX
  5
C0
330
B9
100
AcDbEntity
  8
Livello 1
 62
     7
370
     9
100
AcDbVertex
100
AcDb2dVertex
 10
69.3550086632168
 20
7.11041869939427
 30
0.0
  0
VERTEX
  5
C1
330
B9
100
AcDbEntity
  8
Livello 1
 62
     7
370
     9
100
AcDbVertex
100
AcDb2dVertex
 10
69.3467404340522
 20
7.11041869939427
 30
0.0
  0
VERTEX
  5
C2
330
B9
100
AcDbEntity
  8
Livello 1
 62
     7
370
     9
100
AcDbVertex
100
AcDb2dVertex
 10
69.34036700740448
 20
7.11041869939427
 30
0.0
  0
VERTEX
  5
C3
330
B9
100
AcDbEntity
  8
Livello 1
 62
     7
370
     9
100
AcDbVertex
100
AcDb2dVertex
 10
69.33606063804793
 20
7.11041869939427
 30
0.0
  0
VERTEX
  5
C4
330
B9
100
AcDbEntity
  8
Livello 1
 62
     7
370
     9
100
AcDbVertex
100
AcDb2dVertex
 10
69.33409693362132
 20
7.11041869939427
 30
0.0
  0
VERTEX
  5
C5
330
B9
100
AcDbEntity
  8
Livello 1
 62
     7
370
     9
100
AcDbVertex
100
AcDb2dVertex
 10
69.33399358075677
 20
7.11041869939427
 30
0.0
  0
SEQEND
  5
C6
330
B9
100
AcDbEntity
  8
Livello 1
370
     9
  0
POLYLINE
  5
C7
330
72
100
AcDbEntity
  8
Livello 1
 62
     7
370
     9
100
AcDb2dPolyline
 66
     1
 10
0.0
 20
0.0
 30
0.0
  0
VERTEX
  5
C8
330
C7
100
AcDbEntity
  8
Livello 1
 62
     7
370
     9
100
AcDbVertex
100
AcDb2dVertex
 10
69.3372319705129
 20
1.806504719600457
 30
0.0
  0
VERTEX
  5
C9
330
C7
100
AcDbEntity
  8
Livello 1
 62
     7
370
     9
100
AcDbVertex
100
AcDb2dVertex
 10
69.33626734377704
 20
1.806504719600457
 30
0.0
  0
SEQEND
  5
CA
330
C7
100
AcDbEntity
  8
Livello 1
370
     9
  0
POLYLINE
  5
CB
330
72
100
AcDbEntity
  8
Livello 1
 62
     7
370
     9
100
AcDb2dPolyline
 66
     1
 10
0.0
 20
0.0
 30
0.0
  0
VERTEX
  5
CC
330
CB
100
AcDbEntity
  8
Livello 1
 62
     7
370
     9
100
AcDbVertex
100
AcDb2dVertex
 10
69.3372319705129
 20
1.297457410699941
 30
0.0
  0
VERTEX
  5
CD
330
CB
100
AcDbEntity
  8
Livello 1
 62
     7
370
     9
100
AcDbVertex
100
AcDb2dVertex
 10
69.33626734377704
 20
1.297457410699941
 30
0.0
  0
SEQEND
  5
CE
330
CB
100
AcDbEntity
  8
Livello 1
370
     9
  0
POLYLINE
  5
CF
330
72
100
AcDbEntity
  8
Livello 1
 62
     7
370
     9
100
AcDb2dPolyline
 66
     1
 10
0.0
 20
0.0
 30
0.0
  0
VERTEX
  5
D0
330
CF
100
AcDbEntity
  8
Livello 1
 62
     7
370
     9
100
AcDbVertex
100
AcDb2dVertex
 10
69.35876381729572
 20
6.943900009114719
 30
0.0
  0
VERTEX
  5
D1
330
CF
100
AcDbEntity
  8
Livello 1
 62
     7
370
     9
100
AcDbVertex
100
AcDb2dVertex
 10
69.3521836849189
 20
6.943900009114719
 30
0.0
  0
SEQEND
  5
D2
330
CF
100
AcDbEntity
  8
Livello 1
370
     9
  0
POLYLINE
  5
D3
330
72
100
AcDbEntity
  8
Livello 1
 62
     7
370
     9
100
AcDb2dPolyline
 66
     1
 10
0.0
 20
0.0
 30
0.0
  0
VERTEX
  5
D4
330
D3
100
AcDbEntity
  8
Livello 1
 62
     7
370
     9
100
AcDbVertex
100
AcDb2dVertex
 10
69.35321721356446
 20
6.945484753037934
 30
0.0
  0
VERTEX
  5
D5
330
D3
100
AcDbEntity
  8
Livello 1
 62
     7
370
     9
100
AcDbVertex
100
AcDb2dVertex
 10
69.35941838543792
 20
6.945484753037934
 30
0.0
  0
SEQEND
  5
D6
330
D3
100
AcDbEntity
  8
Livello 1
370
     9
  0
POLYLINE
  5
D7
330
72
100
AcDbEntity
  8
Livello 1
 62
     7
370
     9
100
AcDb2dPolyline
 66
     1
 10
0.0
 20
0.0
 30
0.0
  0
VERTEX
  5
D8
330
D7
100
AcDbEntity
  8
Livello 1
 62
     7
370
     9
100
AcDbVertex
100
AcDb2dVertex
 10
69.35321721356446
 20
6.945484753037934
 30
0.0
  0
VERTEX
  5
D9
330
D7
100
AcDbEntity
  8
Livello 1
 62
     7
370
     9
100
AcDbVertex
100
AcDb2dVertex
 10
69.35287270401594
 20
6.945484753037934
 30
0.0
  0
VERTEX
  5
DA
330
D7
100
AcDbEntity
  8
Livello 1
 62
     7
370
     9
100
AcDbVertex
100
AcDb2dVertex
 10
69.35249374351257
 20
6.945484753037934
 30
0.0
  0
VERTEX
  5
DB
330
D7
100
AcDbEntity
  8
Livello 1
 62
     7
370
     9
100
AcDbVertex
100
AcDb2dVertex
 10
69.35211478300918
 20
6.945484753037934
 30
0.0
  0
VERTEX
  5
DC
330
D7
100
AcDbEntity
  8
Livello 1
 62
     7
370
     9
100
AcDbVertex
100
AcDb2dVertex
 10
69.35173582250582
 20
6.945484753037934
 30
0.0
  0
VERTEX
  5
DD
330
D7
100
AcDbEntity
  8
Livello 1
 62
     7
370
     9
100
AcDbVertex
100
AcDb2dVertex
 10
69.35139131295729
 20
6.945484753037934
 30
0.0
  0
VERTEX
  5
DE
330
D7
100
AcDbEntity
  8
Livello 1
 62
     7
370
     9
100
AcDbVertex
100
AcDb2dVertex
 10
69.35108125436362
 20
6.945484753037934
 30
0.0
  0
VERTEX
  5
DF
330
D7
100
AcDbEntity
  8
Livello 1
 62
     7
370
     9
100
AcDbVertex
100
AcDb2dVertex
 10
69.35090899958935
 20
6.945484753037934
 30
0.0
  0
VERTEX
  5
E0
330
D7
100
AcDbEntity
  8
Livello 1
 62
     7
370
     9
100
AcDbVertex
100
AcDb2dVertex
 10
69.35070229386024
 20
6.945484753037934
 30
0.0
  0
SEQEND
  5
E1
330
D7
100
AcDbEntity
  8
Livello 1
370
     9
  0
POLYLINE
  5
E2
330
72
100
AcDbEntity
  8
Livello 1
 62
     7
370
     9
100
AcDb2dPolyline
 66
     1
 10
0.0
 20
0.0
 30
0.0
  0
VERTEX
  5
E3
330
E2
100
AcDbEntity
  8
Livello 1
 62
     7
370
     9
100
AcDbVertex
100
AcDb2dVertex
 10
69.35321721356446
 20
6.945484753037934
 30
0.0
  0
VERTEX
  5
E4
330
E2
100
AcDbEntity
  8
Livello 1
 62
     7
370
     9
100
AcDbVertex
100
AcDb2dVertex
 10
69.35314831165476
 20
6.945174694444261
 30
0.0
  0
VERTEX
  5
E5
330
E2
100
AcDbEntity
  8
Livello 1
 62
     7
370
     9
100
AcDbVertex
100
AcDb2dVertex
 10
69.3531138606999
 20
6.944933537760294
 30
0.0
  0
VERTEX
  5
E6
330
E2
100
AcDbEntity
  8
Livello 1
 62
     7
370
     9
100
AcDbVertex
100
AcDb2dVertex
 10
69.3530449587902
 20
6.944571802734343
 30
0.0
  0
VERTEX
  5
E7
330
E2
100
AcDbEntity
  8
Livello 1
 62
     7
370
     9
100
AcDbVertex
100
AcDb2dVertex
 10
69.35287270401594
 20
6.944330646050375
 30
0.0
  0
VERTEX
  5
E8
330
E2
100
AcDbEntity
  8
Livello 1
 62
     7
370
     9
100
AcDbVertex
100
AcDb2dVertex
 10
69.35270044924168
 20
6.944141165798686
 30
0.0
  0
VERTEX
  5
E9
330
E2
100
AcDbEntity
  8
Livello 1
 62
     7
370
     9
100
AcDbVertex
100
AcDb2dVertex
 10
69.35249374351257
 20
6.943934460069571
 30
0.0
  0
VERTEX
  5
EA
330
E2
100
AcDbEntity
  8
Livello 1
 62
     7
370
     9
100
AcDbVertex
100
AcDb2dVertex
 10
69.35239039064801
 20
6.943900009114719
 30
0.0
  0
VERTEX
  5
EB
330
E2
100
AcDbEntity
  8
Livello 1
 62
     7
370
     9
100
AcDbVertex
100
AcDb2dVertex
 10
69.3521836849189
 20
6.943900009114719
 30
0.0
  0
SEQEND
  5
EC
330
E2
100
AcDbEntity
  8
Livello 1
370
     9
  0
POLYLINE
  5
ED
330
72
100
AcDbEntity
  8
Livello 1
 62
     7
370
     9
100
AcDb2dPolyline
 66
     1
 10
0.0
 20
0.0
 30
0.0
  0
VERTEX
  5
EE
330
ED
100
AcDbEntity
  8
Livello 1
 62
     7
370
     9
100
AcDbVertex
100
AcDb2dVertex
 10
69.35876381729572
 20
6.943900009114719
 30
0.0
  0
VERTEX
  5
EF
330
ED
100
AcDbEntity
  8
Livello 1
 62
     7
370
     9
100
AcDbVertex
100
AcDb2dVertex
 10
69.359866247851
 20
6.943900009114719
 30
0.0
  0
VERTEX
  5
F0
330
ED
100
AcDbEntity
  8
Livello 1
 62
     7
370
     9
100
AcDbVertex
100
AcDb2dVertex
 10
69.36217446182611
 20
6.943900009114719
 30
0.0
  0
SEQEND
  5
F1
330
ED
100
AcDbEntity
  8
Livello 1
370
     9
  0
POLYLINE
  5
F2
330
72
100
AcDbEntity
  8
Livello 1
 62
     7
370
     9
100
AcDb2dPolyline
 66
     1
 10
0.0
 20
0.0
 30
0.0
  0
VERTEX
  5
F3
330
F2
100
AcDbEntity
  8
Livello 1
 62
     7
370
     9
100
AcDbVertex
100
AcDb2dVertex
 10
69.35941838543792
 20
6.945484753037934
 30
0.0
  0
VERTEX
  5
F4
330
F2
100
AcDbEntity
  8
Livello 1
 62
     7
370
     9
100
AcDbVertex
100
AcDb2dVertex
 10
69.35934948352822
 20
6.944967988715146
 30
0.0
  0
VERTEX
  5
F5
330
F2
100
AcDbEntity
  8
Livello 1
 62
     7
370
     9
100
AcDbVertex
100
AcDb2dVertex
 10
69.3592805816185
 20
6.94453735177949
 30
0.0
  0
VERTEX
  5
F6
330
F2
100
AcDbEntity
  8
Livello 1
 62
     7
370
     9
100
AcDbVertex
100
AcDb2dVertex
 10
69.35910832684425
 20
6.944141165798686
 30
0.0
  0
VERTEX
  5
F7
330
F2
100
AcDbEntity
  8
Livello 1
 62
     7
370
     9
100
AcDbVertex
100
AcDb2dVertex
 10
69.35890162111514
 20
6.943934460069571
 30
0.0
  0
VERTEX
  5
F8
330
F2
100
AcDbEntity
  8
Livello 1
 62
     7
370
     9
100
AcDbVertex
100
AcDb2dVertex
 10
69.35876381729572
 20
6.943900009114719
 30
0.0
  0
SEQEND
  5
F9
330
F2
100
AcDbEntity
  8
Livello 1
370
     9
  0
POLYLINE
  5
FA
330
72
100
AcDbEntity
  8
Livello 1
 62
     7
370
     9
100
AcDb2dPolyline
 66
     1
 10
0.0
 20
0.0
 30
0.0
  0
VERTEX
  5
FB
330
FA
100
AcDbEntity
  8
Livello 1
 62
     7
370
     9
100
AcDbVertex
100
AcDb2dVertex
 10
69.36107203127084
 20
6.945484753037934
 30
0.0
  0
VERTEX
  5
FC
330
FA
100
AcDbEntity
  8
Livello 1
 62
     7
370
     9
100
AcDbVertex
100
AcDb2dVertex
 10
69.36114093318054
 20
6.945174694444261
 30
0.0
  0
VERTEX
  5
FD
330
FA
100
AcDbEntity
  8
Livello 1
 62
     7
370
     9
100
AcDbVertex
100
AcDb2dVertex
 10
69.36120983509025
 20
6.944933537760294
 30
0.0
  0
VERTEX
  5
FE
330
FA
100
AcDbEntity
  8
Livello 1
 62
     7
370
     9
100
AcDbVertex
100
AcDb2dVertex
 10
69.3612442860451
 20
6.944571802734343
 30
0.0
  0
VERTEX
  5
FF
330
FA
100
AcDbEntity
  8
Livello 1
 62
     7
370
     9
100
AcDbVertex
100
AcDb2dVertex
 10
69.3613820898645
 20
6.944330646050375
 30
0.0
  0
VERTEX
  5
100
330
FA
100
AcDbEntity
  8
Livello 1
 62
     7
370
     9
100
AcDbVertex
100
AcDb2dVertex
 10
69.36151989368392
 20
6.944141165798686
 30
0.0
  0
VERTEX
  5
101
330
FA
100
AcDbEntity
  8
Livello 1
 62
     7
370
     9
100
AcDbVertex
100
AcDb2dVertex
 10
69.36169214845819
 20
6.943934460069571
 30
0.0
  0
VERTEX
  5
102
330
FA
100
AcDbEntity
  8
Livello 1
 62
     7
370
     9
100
AcDbVertex
100
AcDb2dVertex
 10
69.361967756097
 20
6.943900009114719
 30
0.0
  0
VERTEX
  5
103
330
FA
100
AcDbEntity
  8
Livello 1
 62
     7
370
     9
100
AcDbVertex
100
AcDb2dVertex
 10
69.36217446182611
 20
6.943900009114719
 30
0.0
  0
SEQEND
  5
104
330
FA
100
AcDbEntity
  8
Livello 1
370
     9
  0
POLYLINE
  5
105
330
72
100
AcDbEntity
  8
Livello 1
 62
     7
370
     9
100
AcDb2dPolyline
 66
     1
 10
0.0
 20
0.0
 30
0.0
  0
VERTEX
  5
106
330
105
100
AcDbEntity
  8
Livello 1
 62
     7
370
     9
100
AcDbVertex
100
AcDb2dVertex
 10
69.42294594618592
 20
6.943900009114719
 30
0.0
  0
VERTEX
  5
107
330
105
100
AcDbEntity
  8
Livello 1
 62
     7
370
     9
100
AcDbVertex
100
AcDb2dVertex
 10
69.42198131945005
 20
6.943900009114719
 30
0.0
  0
VERTEX
  5
108
330
105
100
AcDbEntity
  8
Livello 1
 62
     7
370
     9
100
AcDbVertex
100
AcDb2dVertex
 10
69.41874292969392
 20
6.943900009114719
 30
0.0
  0
VERTEX
  5
109
330
105
100
AcDbEntity
  8
Livello 1
 62
     7
370
     9
100
AcDbVertex
100
AcDb2dVertex
 10
69.41336858073693
 20
6.943900009114719
 30
0.0
  0
VERTEX
  5
10A
330
105
100
AcDbEntity
  8
Livello 1
 62
     7
370
     9
100
AcDbVertex
100
AcDb2dVertex
 10
69.40620278212761
 20
6.943900009114719
 30
0.0
  0
VERTEX
  5
10B
330
105
100
AcDbEntity
  8
Livello 1
 62
     7
370
     9
100
AcDbVertex
100
AcDb2dVertex
 10
69.39769339627904
 20
6.943900009114719
 30
0.0
  0
VERTEX
  5
10C
330
105
100
AcDbEntity
  8
Livello 1
 62
     7
370
     9
100
AcDbVertex
100
AcDb2dVertex
 10
69.38849499133343
 20
6.943900009114719
 30
0.0
  0
VERTEX
  5
10D
330
105
100
AcDbEntity
  8
Livello 1
 62
     7
370
     9
100
AcDbVertex
100
AcDb2dVertex
 10
69.3790898806587
 20
6.943900009114719
 30
0.0
  0
VERTEX
  5
10E
330
105
100
AcDbEntity
  8
Livello 1
 62
     7
370
     9
100
AcDbVertex
100
AcDb2dVertex
 10
69.37009818144219
 20
6.943900009114719
 30
0.0
  0
VERTEX
  5
10F
330
105
100
AcDbEntity
  8
Livello 1
 62
     7
370
     9
100
AcDbVertex
100
AcDb2dVertex
 10
69.36217446182611
 20
6.943900009114719
 30
0.0
  0
SEQEND
  5
110
330
105
100
AcDbEntity
  8
Livello 1
370
     9
  0
POLYLINE
  5
111
330
72
100
AcDbEntity
  8
Livello 1
 62
     7
370
     9
100
AcDb2dPolyline
 66
     1
 10
0.0
 20
0.0
 30
0.0
  0
VERTEX
  5
112
330
111
100
AcDbEntity
  8
Livello 1
 62
     7
370
     9
100
AcDbVertex
100
AcDb2dVertex
 10
69.3521836849189
 20
6.943900009114719
 30
0.0
  0
VERTEX
  5
113
330
111
100
AcDbEntity
  8
Livello 1
 62
     7
370
     9
100
AcDbVertex
100
AcDb2dVertex
 10
69.34918645184672
 20
6.943900009114719
 30
0.0
  0
VERTEX
  5
114
330
111
100
AcDbEntity
  8
Livello 1
 62
     7
370
     9
100
AcDbVertex
100
AcDb2dVertex
 10
69.34853188370452
 20
6.943900009114719
 30
0.0
  0
SEQEND
  5
115
330
111
100
AcDbEntity
  8
Livello 1
370
     9
  0
POLYLINE
  5
116
330
72
100
AcDbEntity
  8
Livello 1
 62
     7
370
     9
100
AcDb2dPolyline
 66
     1
 10
0.0
 20
0.0
 30
0.0
  0
VERTEX
  5
117
330
116
100
AcDbEntity
  8
Livello 1
 62
     7
370
     9
100
AcDbVertex
100
AcDb2dVertex
 10
69.35070229386024
 20
6.945484753037934
 30
0.0
  0
VERTEX
  5
118
330
116
100
AcDbEntity
  8
Livello 1
 62
     7
370
     9
100
AcDbVertex
100
AcDb2dVertex
 10
69.35070229386024
 20
6.945174694444261
 30
0.0
  0
VERTEX
  5
119
330
116
100
AcDbEntity
  8
Livello 1
 62
     7
370
     9
100
AcDbVertex
100
AcDb2dVertex
 10
69.35084009767965
 20
6.944933537760294
 30
0.0
  0
VERTEX
  5
11A
330
116
100
AcDbEntity
  8
Livello 1
 62
     7
370
     9
100
AcDbVertex
100
AcDb2dVertex
 10
69.35097790149905
 20
6.944571802734343
 30
0.0
  0
VERTEX
  5
11B
330
116
100
AcDbEntity
  8
Livello 1
 62
     7
370
     9
100
AcDbVertex
100
AcDb2dVertex
 10
69.35108125436362
 20
6.944330646050375
 30
0.0
  0
VERTEX
  5
11C
330
116
100
AcDbEntity
  8
Livello 1
 62
     7
370
     9
100
AcDbVertex
100
AcDb2dVertex
 10
69.35135686200243
 20
6.944141165798686
 30
0.0
  0
VERTEX
  5
11D
330
116
100
AcDbEntity
  8
Livello 1
 62
     7
370
     9
100
AcDbVertex
100
AcDb2dVertex
 10
69.35163246964126
 20
6.943934460069571
 30
0.0
  0
VERTEX
  5
11E
330
116
100
AcDbEntity
  8
Livello 1
 62
     7
370
     9
100
AcDbVertex
100
AcDb2dVertex
 10
69.35187362632522
 20
6.943900009114719
 30
0.0
  0
VERTEX
  5
11F
330
116
100
AcDbEntity
  8
Livello 1
 62
     7
370
     9
100
AcDbVertex
100
AcDb2dVertex
 10
69.3521836849189
 20
6.943900009114719
 30
0.0
  0
SEQEND
  5
120
330
116
100
AcDbEntity
  8
Livello 1
370
     9
  0
POLYLINE
  5
121
330
72
100
AcDbEntity
  8
Livello 1
 62
     7
370
     9
100
AcDb2dPolyline
 66
     1
 10
0.0
 20
0.0
 30
0.0
  0
VERTEX
  5
122
330
121
100
AcDbEntity
  8
Livello 1
 62
     7
370
     9
100
AcDbVertex
100
AcDb2dVertex
 10
69.43235105686065
 20
7.09911878620265
 30
0.0
  0
VERTEX
  5
123
330
121
100
AcDbEntity
  8
Livello 1
 62
     7
370
     9
100
AcDbVertex
100
AcDb2dVertex
 10
69.43235105686065
 20
7.09911878620265
 30
0.0
  0
VERTEX
  5
124
330
121
100
AcDbEntity
  8
Livello 1
 62
     7
370
     9
100
AcDbVertex
100
AcDb2dVertex
 10
69.43107637153112
 20
7.09911878620265
 30
0.0
  0
VERTEX
  5
125
330
121
100
AcDbEntity
  8
Livello 1
 62
     7
370
     9
100
AcDbVertex
100
AcDb2dVertex
 10
69.42756237413616
 20
7.09911878620265
 30
0.0
  0
VERTEX
  5
126
330
121
100
AcDbEntity
  8
Livello 1
 62
     7
370
     9
100
AcDbVertex
100
AcDb2dVertex
 10
69.42184351563064
 20
7.09911878620265
 30
0.0
  0
VERTEX
  5
127
330
121
100
AcDbEntity
  8
Livello 1
 62
     7
370
     9
100
AcDbVertex
100
AcDb2dVertex
 10
69.41443656033736
 20
7.09911878620265
 30
0.0
  0
VERTEX
  5
128
330
121
100
AcDbEntity
  8
Livello 1
 62
     7
370
     9
100
AcDbVertex
100
AcDb2dVertex
 10
69.40554821398541
 20
7.09911878620265
 30
0.0
  0
VERTEX
  5
129
330
121
100
AcDbEntity
  8
Livello 1
 62
     7
370
     9
100
AcDbVertex
100
AcDb2dVertex
 10
69.3956263389879
 20
7.09911878620265
 30
0.0
  0
VERTEX
  5
12A
330
121
100
AcDbEntity
  8
Livello 1
 62
     7
370
     9
100
AcDbVertex
100
AcDb2dVertex
 10
69.38529105253214
 20
7.09911878620265
 30
0.0
  0
VERTEX
  5
12B
330
121
100
AcDbEntity
  8
Livello 1
 62
     7
370
     9
100
AcDbVertex
100
AcDb2dVertex
 10
69.37492131512154
 20
7.09911878620265
 30
0.0
  0
VERTEX
  5
12C
330
121
100
AcDbEntity
  8
Livello 1
 62
     7
370
     9
100
AcDbVertex
100
AcDb2dVertex
 10
69.36517169489828
 20
7.09911878620265
 30
0.0
  0
VERTEX
  5
12D
330
121
100
AcDbEntity
  8
Livello 1
 62
     7
370
     9
100
AcDbVertex
100
AcDb2dVertex
 10
69.35642115236575
 20
7.09911878620265
 30
0.0
  0
VERTEX
  5
12E
330
121
100
AcDbEntity
  8
Livello 1
 62
     7
370
     9
100
AcDbVertex
100
AcDb2dVertex
 10
69.34904864802732
 20
7.09911878620265
 30
0.0
  0
VERTEX
  5
12F
330
121
100
AcDbEntity
  8
Livello 1
 62
     7
370
     9
100
AcDbVertex
100
AcDb2dVertex
 10
69.34360539716062
 20
7.09911878620265
 30
0.0
  0
VERTEX
  5
130
330
121
100
AcDbEntity
  8
Livello 1
 62
     7
370
     9
100
AcDbVertex
100
AcDb2dVertex
 10
69.34022920358508
 20
7.09911878620265
 30
0.0
  0
VERTEX
  5
131
330
121
100
AcDbEntity
  8
Livello 1
 62
     7
370
     9
100
AcDbVertex
100
AcDb2dVertex
 10
69.33912677302979
 20
7.09911878620265
 30
0.0
  0
SEQEND
  5
132
330
121
100
AcDbEntity
  8
Livello 1
370
     9
  0
POLYLINE
  5
133
330
72
100
AcDbEntity
  8
Livello 1
 62
     7
370
     9
100
AcDb2dPolyline
 66
     1
 10
0.0
 20
0.0
 30
0.0
  0
VERTEX
  5
134
330
133
100
AcDbEntity
  8
Livello 1
 62
     7
370
     9
100
AcDbVertex
100
AcDb2dVertex
 10
69.3356472265897
 20
7.112037894272337
 30
0.0
  0
VERTEX
  5
135
330
133
100
AcDbEntity
  8
Livello 1
 62
     7
370
     9
100
AcDbVertex
100
AcDb2dVertex
 10
69.3357161284994
 20
7.112037894272337
 30
0.0
  0
VERTEX
  5
136
330
133
100
AcDbEntity
  8
Livello 1
 62
     7
370
     9
100
AcDbVertex
100
AcDb2dVertex
 10
69.33761093101629
 20
7.112037894272337
 30
0.0
  0
VERTEX
  5
137
330
133
100
AcDbEntity
  8
Livello 1
 62
     7
370
     9
100
AcDbVertex
100
AcDb2dVertex
 10
69.34177949655344
 20
7.112037894272337
 30
0.0
  0
VERTEX
  5
138
330
133
100
AcDbEntity
  8
Livello 1
 62
     7
370
     9
100
AcDbVertex
100
AcDb2dVertex
 10
69.34798066842689
 20
7.112037894272337
 30
0.0
  0
VERTEX
  5
139
330
133
100
AcDbEntity
  8
Livello 1
 62
     7
370
     9
100
AcDbVertex
100
AcDb2dVertex
 10
69.35593883899782
 20
7.112037894272337
 30
0.0
  0
VERTEX
  5
13A
330
133
100
AcDbEntity
  8
Livello 1
 62
     7
370
     9
100
AcDbVertex
100
AcDb2dVertex
 10
69.36530949871769
 20
7.112037894272337
 30
0.0
  0
VERTEX
  5
13B
330
133
100
AcDbEntity
  8
Livello 1
 62
     7
370
     9
100
AcDbVertex
100
AcDb2dVertex
 10
69.37564478517345
 20
7.112037894272337
 30
0.0
  0
VERTEX
  5
13C
330
133
100
AcDbEntity
  8
Livello 1
 62
     7
370
     9
100
AcDbVertex
100
AcDb2dVertex
 10
69.38642793404227
 20
7.112037894272337
 30
0.0
  0
VERTEX
  5
13D
330
133
100
AcDbEntity
  8
Livello 1
 62
     7
370
     9
100
AcDbVertex
100
AcDb2dVertex
 10
69.39721108291111
 20
7.112037894272337
 30
0.0
  0
VERTEX
  5
13E
330
133
100
AcDbEntity
  8
Livello 1
 62
     7
370
     9
100
AcDbVertex
100
AcDb2dVertex
 10
69.4074430165023
 20
7.112037894272337
 30
0.0
  0
VERTEX
  5
13F
330
133
100
AcDbEntity
  8
Livello 1
 62
     7
370
     9
100
AcDbVertex
100
AcDb2dVertex
 10
69.41664142144792
 20
7.112037894272337
 30
0.0
  0
SEQEND
  5
140
330
133
100
AcDbEntity
  8
Livello 1
370
     9
  0
POLYLINE
  5
141
330
72
100
AcDbEntity
  8
Livello 1
 62
     7
370
     9
100
AcDb2dPolyline
 66
     1
 10
0.0
 20
0.0
 30
0.0
  0
VERTEX
  5
142
330
141
100
AcDbEntity
  8
Livello 1
 62
     7
370
     9
100
AcDbVertex
100
AcDb2dVertex
 10
69.41664142144792
 20
7.112037894272337
 30
0.0
  0
VERTEX
  5
143
330
141
100
AcDbEntity
  8
Livello 1
 62
     7
370
     9
100
AcDbVertex
100
AcDb2dVertex
 10
69.42435843533488
 20
7.112037894272337
 30
0.0
  0
VERTEX
  5
144
330
141
100
AcDbEntity
  8
Livello 1
 62
     7
370
     9
100
AcDbVertex
100
AcDb2dVertex
 10
69.43035290147921
 20
7.112037894272337
 30
0.0
  0
VERTEX
  5
145
330
141
100
AcDbEntity
  8
Livello 1
 62
     7
370
     9
100
AcDbVertex
100
AcDb2dVertex
 10
69.4342803103324
 20
7.112037894272337
 30
0.0
  0
VERTEX
  5
146
330
141
100
AcDbEntity
  8
Livello 1
 62
     7
370
     9
100
AcDbVertex
100
AcDb2dVertex
 10
69.43586505425561
 20
7.112037894272337
 30
0.0
  0
SEQEND
  5
147
330
141
100
AcDbEntity
  8
Livello 1
370
     9
  0
POLYLINE
  5
148
330
72
100
AcDbEntity
  8
Livello 1
 62
     7
370
     9
100
AcDb2dPolyline
 66
     1
 10
0.0
 20
0.0
 30
0.0
  0
VERTEX
  5
149
330
148
100
AcDbEntity
  8
Livello 1
 62
     7
370
     9
100
AcDbVertex
100
AcDb2dVertex
 10
80.37087373207741
 20
1.84185139927912
 30
0.0
  0
VERTEX
  5
14A
330
148
100
AcDbEntity
  8
Livello 1
 62
     7
370
     9
100
AcDbVertex
100
AcDb2dVertex
 10
80.37087373207741
 20
1.841610242595153
 30
0.0
  0
VERTEX
  5
14B
330
148
100
AcDbEntity
  8
Livello 1
 62
     7
370
     9
100
AcDbVertex
100
AcDb2dVertex
 10
80.37087373207741
 20
1.840817870633545
 30
0.0
  0
VERTEX
  5
14C
330
148
100
AcDbEntity
  8
Livello 1
 62
     7
370
     9
100
AcDbVertex
100
AcDb2dVertex
 10
80.37087373207741
 20
1.83964653816856
 30
0.0
  0
VERTEX
  5
14D
330
148
100
AcDbEntity
  8
Livello 1
 62
     7
370
     9
100
AcDbVertex
100
AcDb2dVertex
 10
80.37087373207741
 20
1.838061794245345
 30
0.0
  0
VERTEX
  5
14E
330
148
100
AcDbEntity
  8
Livello 1
 62
     7
370
     9
100
AcDbVertex
100
AcDb2dVertex
 10
80.37087373207741
 20
1.836098089818753
 30
0.0
  0
VERTEX
  5
14F
330
148
100
AcDbEntity
  8
Livello 1
 62
     7
370
     9
100
AcDbVertex
100
AcDb2dVertex
 10
80.37087373207741
 20
1.833824326798488
 30
0.0
  0
VERTEX
  5
150
330
148
100
AcDbEntity
  8
Livello 1
 62
     7
370
     9
100
AcDbVertex
100
AcDb2dVertex
 10
80.37087373207741
 20
1.831412759958813
 30
0.0
  0
VERTEX
  5
151
330
148
100
AcDbEntity
  8
Livello 1
 62
     7
370
     9
100
AcDbVertex
100
AcDb2dVertex
 10
80.37087373207741
 20
1.828932291209433
 30
0.0
  0
SEQEND
  5
152
330
148
100
AcDbEntity
  8
Livello 1
370
     9
  0
POLYLINE
  5
153
330
72
100
AcDbEntity
  8
Livello 1
 62
     7
370
     9
100
AcDb2dPolyline
 66
     1
 10
0.0
 20
0.0
 30
0.0
  0
VERTEX
  5
154
330
153
100
AcDbEntity
  8
Livello 1
 62
     7
370
     9
100
AcDbVertex
100
AcDb2dVertex
 10
69.43748424913368
 20
1.828932291209433
 30
0.0
  0
VERTEX
  5
155
330
153
100
AcDbEntity
  8
Livello 1
 62
     7
370
     9
100
AcDbVertex
100
AcDb2dVertex
 10
69.43748424913368
 20
1.831412759958813
 30
0.0
  0
VERTEX
  5
156
330
153
100
AcDbEntity
  8
Livello 1
 62
     7
370
     9
100
AcDbVertex
100
AcDb2dVertex
 10
69.43748424913368
 20
1.833824326798488
 30
0.0
  0
VERTEX
  5
157
330
153
100
AcDbEntity
  8
Livello 1
 62
     7
370
     9
100
AcDbVertex
100
AcDb2dVertex
 10
69.43748424913368
 20
1.836098089818753
 30
0.0
  0
VERTEX
  5
158
330
153
100
AcDbEntity
  8
Livello 1
 62
     7
370
     9
100
AcDbVertex
100
AcDb2dVertex
 10
69.43748424913368
 20
1.838061794245345
 30
0.0
  0
VERTEX
  5
159
330
153
100
AcDbEntity
  8
Livello 1
 62
     7
370
     9
100
AcDbVertex
100
AcDb2dVertex
 10
69.43748424913368
 20
1.83964653816856
 30
0.0
  0
VERTEX
  5
15A
330
153
100
AcDbEntity
  8
Livello 1
 62
     7
370
     9
100
AcDbVertex
100
AcDb2dVertex
 10
69.43748424913368
 20
1.840817870633545
 30
0.0
  0
VERTEX
  5
15B
330
153
100
AcDbEntity
  8
Livello 1
 62
     7
370
     9
100
AcDbVertex
100
AcDb2dVertex
 10
69.43748424913368
 20
1.841610242595153
 30
0.0
  0
VERTEX
  5
15C
330
153
100
AcDbEntity
  8
Livello 1
 62
     7
370
     9
100
AcDbVertex
100
AcDb2dVertex
 10
69.43748424913368
 20
1.84185139927912
 30
0.0
  0
SEQEND
  5
15D
330
153
100
AcDbEntity
  8
Livello 1
370
     9
  0
POLYLINE
  5
15E
330
72
100
AcDbEntity
  8
Livello 1
 62
     7
370
     9
100
AcDb2dPolyline
 66
     1
 10
0.0
 20
0.0
 30
0.0
  0
VERTEX
  5
15F
330
15E
100
AcDbEntity
  8
Livello 1
 62
     7
370
     9
100
AcDbVertex
100
AcDb2dVertex
 10
69.43748424913368
 20
1.84185139927912
 30
0.0
  0
VERTEX
  5
160
330
15E
100
AcDbEntity
  8
Livello 1
 62
     7
370
     9
100
AcDbVertex
100
AcDb2dVertex
 10
80.37087373207741
 20
1.84185139927912
 30
0.0
  0
SEQEND
  5
161
330
15E
100
AcDbEntity
  8
Livello 1
370
     9
  0
POLYLINE
  5
162
330
72
100
AcDbEntity
  8
Livello 1
 62
     7
370
     9
100
AcDb2dPolyline
 66
     1
 10
0.0
 20
0.0
 30
0.0
  0
VERTEX
  5
163
330
162
100
AcDbEntity
  8
Livello 1
 62
     7
370
     9
100
AcDbVertex
100
AcDb2dVertex
 10
80.37087373207741
 20
1.272687174160995
 30
0.0
  0
VERTEX
  5
164
330
162
100
AcDbEntity
  8
Livello 1
 62
     7
370
     9
100
AcDbVertex
100
AcDb2dVertex
 10
80.37087373207741
 20
1.828932291209433
 30
0.0
  0
SEQEND
  5
165
330
162
100
AcDbEntity
  8
Livello 1
370
     9
  0
POLYLINE
  5
166
330
72
100
AcDbEntity
  8
Livello 1
 62
     7
370
     9
100
AcDb2dPolyline
 66
     1
 10
0.0
 20
0.0
 30
0.0
  0
VERTEX
  5
167
330
166
100
AcDbEntity
  8
Livello 1
 62
     7
370
     9
100
AcDbVertex
100
AcDb2dVertex
 10
80.37087373207741
 20
1.828932291209433
 30
0.0
  0
VERTEX
  5
168
330
166
100
AcDbEntity
  8
Livello 1
 62
     7
370
     9
100
AcDbVertex
100
AcDb2dVertex
 10
69.43748424913368
 20
1.828932291209433
 30
0.0
  0
SEQEND
  5
169
330
166
100
AcDbEntity
  8
Livello 1
370
     9
  0
POLYLINE
  5
16A
330
72
100
AcDbEntity
  8
Livello 1
 62
     7
370
     9
100
AcDb2dPolyline
 66
     1
 10
0.0
 20
0.0
 30
0.0
  0
VERTEX
  5
16B
330
16A
100
AcDbEntity
  8
Livello 1
 62
     7
370
     9
100
AcDbVertex
100
AcDb2dVertex
 10
69.43748424913368
 20
1.272687174160995
 30
0.0
  0
VERTEX
  5
16C
330
16A
100
AcDbEntity
  8
Livello 1
 62
     7
370
     9
100
AcDbVertex
100
AcDb2dVertex
 10
69.43748424913368
 20
1.828932291209433
 30
0.0
  0
SEQEND
  5
16D
330
16A
100
AcDbEntity
  8
Livello 1
370
     9
  0
POLYLINE
  5
16E
330
72
100
AcDbEntity
  8
Livello 1
 62
     7
370
     9
100
AcDb2dPolyline
 66
     1
 10
0.0
 20
0.0
 30
0.0
  0
VERTEX
  5
16F
330
16E
100
AcDbEntity
  8
Livello 1
 62
     7
370
     9
100
AcDbVertex
100
AcDb2dVertex
 10
69.43748424913368
 20
1.259699164181603
 30
0.0
  0
VERTEX
  5
170
330
16E
100
AcDbEntity
  8
Livello 1
 62
     7
370
     9
100
AcDbVertex
100
AcDb2dVertex
 10
69.43748424913368
 20
1.260009222775275
 30
0.0
  0
VERTEX
  5
171
330
16E
100
AcDbEntity
  8
Livello 1
 62
     7
370
     9
100
AcDbVertex
100
AcDb2dVertex
 10
69.43748424913368
 20
1.260698241872325
 30
0.0
  0
VERTEX
  5
172
330
16E
100
AcDbEntity
  8
Livello 1
 62
     7
370
     9
100
AcDbVertex
100
AcDb2dVertex
 10
69.43748424913368
 20
1.261904025292163
 30
0.0
  0
VERTEX
  5
173
330
16E
100
AcDbEntity
  8
Livello 1
 62
     7
370
     9
100
AcDbVertex
100
AcDb2dVertex
 10
69.43748424913368
 20
1.26352322017023
 30
0.0
  0
VERTEX
  5
174
330
16E
100
AcDbEntity
  8
Livello 1
 62
     7
370
     9
100
AcDbVertex
100
AcDb2dVertex
 10
69.43748424913368
 20
1.26545247364197
 30
0.0
  0
VERTEX
  5
175
330
16E
100
AcDbEntity
  8
Livello 1
 62
     7
370
     9
100
AcDbVertex
100
AcDb2dVertex
 10
69.43748424913368
 20
1.26765733475253
 30
0.0
  0
VERTEX
  5
176
330
16E
100
AcDbEntity
  8
Livello 1
 62
     7
370
     9
100
AcDbVertex
100
AcDb2dVertex
 10
69.43748424913368
 20
1.270103352547057
 30
0.0
  0
VERTEX
  5
177
330
16E
100
AcDbEntity
  8
Livello 1
 62
     7
370
     9
100
AcDbVertex
100
AcDb2dVertex
 10
69.43748424913368
 20
1.272687174160995
 30
0.0
  0
SEQEND
  5
178
330
16E
100
AcDbEntity
  8
Livello 1
370
     9
  0
POLYLINE
  5
179
330
72
100
AcDbEntity
  8
Livello 1
 62
     7
370
     9
100
AcDb2dPolyline
 66
     1
 10
0.0
 20
0.0
 30
0.0
  0
VERTEX
  5
17A
330
179
100
AcDbEntity
  8
Livello 1
 62
     7
370
     9
100
AcDbVertex
100
AcDb2dVertex
 10
80.37087373207741
 20
1.259699164181603
 30
0.0
  0
VERTEX
  5
17B
330
179
100
AcDbEntity
  8
Livello 1
 62
     7
370
     9
100
AcDbVertex
100
AcDb2dVertex
 10
69.43748424913368
 20
1.259699164181603
 30
0.0
  0
SEQEND
  5
17C
330
179
100
AcDbEntity
  8
Livello 1
370
     9
  0
POLYLINE
  5
17D
330
72
100
AcDbEntity
  8
Livello 1
 62
     7
370
     9
100
AcDb2dPolyline
 66
     1
 10
0.0
 20
0.0
 30
0.0
  0
VERTEX
  5
17E
330
17D
100
AcDbEntity
  8
Livello 1
 62
     7
370
     9
100
AcDbVertex
100
AcDb2dVertex
 10
80.37087373207741
 20
1.272687174160995
 30
0.0
  0
VERTEX
  5
17F
330
17D
100
AcDbEntity
  8
Livello 1
 62
     7
370
     9
100
AcDbVertex
100
AcDb2dVertex
 10
80.37087373207741
 20
1.270103352547057
 30
0.0
  0
VERTEX
  5
180
330
17D
100
AcDbEntity
  8
Livello 1
 62
     7
370
     9
100
AcDbVertex
100
AcDb2dVertex
 10
80.37087373207741
 20
1.26765733475253
 30
0.0
  0
VERTEX
  5
181
330
17D
100
AcDbEntity
  8
Livello 1
 62
     7
370
     9
100
AcDbVertex
100
AcDb2dVertex
 10
80.37087373207741
 20
1.26545247364197
 30
0.0
  0
VERTEX
  5
182
330
17D
100
AcDbEntity
  8
Livello 1
 62
     7
370
     9
100
AcDbVertex
100
AcDb2dVertex
 10
80.37087373207741
 20
1.26352322017023
 30
0.0
  0
VERTEX
  5
183
330
17D
100
AcDbEntity
  8
Livello 1
 62
     7
370
     9
100
AcDbVertex
100
AcDb2dVertex
 10
80.37087373207741
 20
1.261904025292163
 30
0.0
  0
VERTEX
  5
184
330
17D
100
AcDbEntity
  8
Livello 1
 62
     7
370
     9
100
AcDbVertex
100
AcDb2dVertex
 10
80.37087373207741
 20
1.260698241872325
 30
0.0
  0
VERTEX
  5
185
330
17D
100
AcDbEntity
  8
Livello 1
 62
     7
370
     9
100
AcDbVertex
100
AcDb2dVertex
 10
80.37087373207741
 20
1.260009222775275
 30
0.0
  0
VERTEX
  5
186
330
17D
100
AcDbEntity
  8
Livello 1
 62
     7
370
     9
100
AcDbVertex
100
AcDb2dVertex
 10
80.37087373207741
 20
1.259699164181603
 30
0.0
  0
SEQEND
  5
187
330
17D
100
AcDbEntity
  8
Livello 1
370
     9
  0
POLYLINE
  5
188
330
72
100
AcDbEntity
  8
Livello 1
 62
     7
370
     9
100
AcDb2dPolyline
 66
     1
 10
0.0
 20
0.0
 30
0.0
  0
VERTEX
  5
189
330
188
100
AcDbEntity
  8
Livello 1
 62
     7
370
     9
100
AcDbVertex
100
AcDb2dVertex
 10
69.43748424913368
 20
1.272687174160995
 30
0.0
  0
VERTEX
  5
18A
330
188
100
AcDbEntity
  8
Livello 1
 62
     7
370
     9
100
AcDbVertex
100
AcDb2dVertex
 10
80.37087373207741
 20
1.272687174160995
 30
0.0
  0
SEQEND
  5
18B
330
188
100
AcDbEntity
  8
Livello 1
370
     9
  0
POLYLINE
  5
18C
330
72
100
AcDbEntity
  8
Livello 1
 62
     7
370
     9
100
AcDb2dPolyline
 66
     1
 10
0.0
 20
0.0
 30
0.0
  0
VERTEX
  5
18D
330
18C
100
AcDbEntity
  8
Livello 1
 62
     7
370
     9
100
AcDbVertex
100
AcDb2dVertex
 10
69.33626734377704
 20
1.806504719600457
 30
0.0
  0
VERTEX
  5
18E
330
18C
100
AcDbEntity
  8
Livello 1
 62
     7
370
     9
100
AcDbVertex
100
AcDb2dVertex
 10
69.33626734377704
 20
1.808399522117344
 30
0.0
  0
VERTEX
  5
18F
330
18C
100
AcDbEntity
  8
Livello 1
 62
     7
370
     9
100
AcDbVertex
100
AcDb2dVertex
 10
69.33626734377704
 20
1.810190971769674
 30
0.0
  0
VERTEX
  5
190
330
18C
100
AcDbEntity
  8
Livello 1
 62
     7
370
     9
100
AcDbVertex
100
AcDb2dVertex
 10
69.33626734377704
 20
1.811844617602594
 30
0.0
  0
VERTEX
  5
191
330
18C
100
AcDbEntity
  8
Livello 1
 62
     7
370
     9
100
AcDbVertex
100
AcDb2dVertex
 10
69.33626734377704
 20
1.813326008661252
 30
0.0
  0
VERTEX
  5
192
330
18C
100
AcDbEntity
  8
Livello 1
 62
     7
370
     9
100
AcDbVertex
100
AcDb2dVertex
 10
69.33626734377704
 20
1.814531792081089
 30
0.0
  0
VERTEX
  5
193
330
18C
100
AcDbEntity
  8
Livello 1
 62
     7
370
     9
100
AcDbVertex
100
AcDb2dVertex
 10
69.33626734377704
 20
1.815427516907254
 30
0.0
  0
VERTEX
  5
194
330
18C
100
AcDbEntity
  8
Livello 1
 62
     7
370
     9
100
AcDbVertex
100
AcDb2dVertex
 10
69.33626734377704
 20
1.816013183139747
 30
0.0
  0
VERTEX
  5
195
330
18C
100
AcDbEntity
  8
Livello 1
 62
     7
370
     9
100
AcDbVertex
100
AcDb2dVertex
 10
69.33626734377704
 20
1.816185437914009
 30
0.0
  0
SEQEND
  5
196
330
18C
100
AcDbEntity
  8
Livello 1
370
     9
  0
POLYLINE
  5
197
330
72
100
AcDbEntity
  8
Livello 1
 62
     7
370
     9
100
AcDb2dPolyline
 66
     1
 10
0.0
 20
0.0
 30
0.0
  0
VERTEX
  5
198
330
197
100
AcDbEntity
  8
Livello 1
 62
     7
370
     9
100
AcDbVertex
100
AcDb2dVertex
 10
69.3372319705129
 20
1.816185437914009
 30
0.0
  0
VERTEX
  5
199
330
197
100
AcDbEntity
  8
Livello 1
 62
     7
370
     9
100
AcDbVertex
100
AcDb2dVertex
 10
69.33626734377704
 20
1.816185437914009
 30
0.0
  0
SEQEND
  5
19A
330
197
100
AcDbEntity
  8
Livello 1
370
     9
  0
POLYLINE
  5
19B
330
72
100
AcDbEntity
  8
Livello 1
 62
     7
370
     9
100
AcDb2dPolyline
 66
     1
 10
0.0
 20
0.0
 30
0.0
  0
VERTEX
  5
19C
330
19B
100
AcDbEntity
  8
Livello 1
 62
     7
370
     9
100
AcDbVertex
100
AcDb2dVertex
 10
69.33626734377704
 20
1.297457410699941
 30
0.0
  0
VERTEX
  5
19D
330
19B
100
AcDbEntity
  8
Livello 1
 62
     7
370
     9
100
AcDbVertex
100
AcDb2dVertex
 10
69.33626734377704
 20
1.806504719600457
 30
0.0
  0
SEQEND
  5
19E
330
19B
100
AcDbEntity
  8
Livello 1
370
     9
  0
POLYLINE
  5
19F
330
72
100
AcDbEntity
  8
Livello 1
 62
     7
370
     9
100
AcDb2dPolyline
 66
     1
 10
0.0
 20
0.0
 30
0.0
  0
VERTEX
  5
1A0
330
19F
100
AcDbEntity
  8
Livello 1
 62
     7
370
     9
100
AcDbVertex
100
AcDb2dVertex
 10
69.33626734377704
 20
1.287776692386389
 30
0.0
  0
VERTEX
  5
1A1
330
19F
100
AcDbEntity
  8
Livello 1
 62
     7
370
     9
100
AcDbVertex
100
AcDb2dVertex
 10
69.33626734377704
 20
1.287880045250946
 30
0.0
  0
VERTEX
  5
1A2
330
19F
100
AcDbEntity
  8
Livello 1
 62
     7
370
     9
100
AcDbVertex
100
AcDb2dVertex
 10
69.33626734377704
 20
1.288500162438291
 30
0.0
  0
VERTEX
  5
1A3
330
19F
100
AcDbEntity
  8
Livello 1
 62
     7
370
     9
100
AcDbVertex
100
AcDb2dVertex
 10
69.33626734377704
 20
1.289361436309604
 30
0.0
  0
VERTEX
  5
1A4
330
19F
100
AcDbEntity
  8
Livello 1
 62
     7
370
     9
100
AcDbVertex
100
AcDb2dVertex
 10
69.33626734377704
 20
1.290636121639146
 30
0.0
  0
VERTEX
  5
1A5
330
19F
100
AcDbEntity
  8
Livello 1
 62
     7
370
     9
100
AcDbVertex
100
AcDb2dVertex
 10
69.33626734377704
 20
1.292048610788099
 30
0.0
  0
VERTEX
  5
1A6
330
19F
100
AcDbEntity
  8
Livello 1
 62
     7
370
     9
100
AcDbVertex
100
AcDb2dVertex
 10
69.33626734377704
 20
1.293771158530724
 30
0.0
  0
VERTEX
  5
1A7
330
19F
100
AcDbEntity
  8
Livello 1
 62
     7
370
     9
100
AcDbVertex
100
AcDb2dVertex
 10
69.33626734377704
 20
1.295562608183054
 30
0.0
  0
VERTEX
  5
1A8
330
19F
100
AcDbEntity
  8
Livello 1
 62
     7
370
     9
100
AcDbVertex
100
AcDb2dVertex
 10
69.33626734377704
 20
1.297457410699941
 30
0.0
  0
SEQEND
  5
1A9
330
19F
100
AcDbEntity
  8
Livello 1
370
     9
  0
POLYLINE
  5
1AA
330
72
100
AcDbEntity
  8
Livello 1
 62
     7
370
     9
100
AcDb2dPolyline
 66
     1
 10
0.0
 20
0.0
 30
0.0
  0
VERTEX
  5
1AB
330
1AA
100
AcDbEntity
  8
Livello 1
 62
     7
370
     9
100
AcDbVertex
100
AcDb2dVertex
 10
69.3372319705129
 20
1.287776692386389
 30
0.0
  0
VERTEX
  5
1AC
330
1AA
100
AcDbEntity
  8
Livello 1
 62
     7
370
     9
100
AcDbVertex
100
AcDb2dVertex
 10
69.33626734377704
 20
1.287776692386389
 30
0.0
  0
SEQEND
  5
1AD
330
1AA
100
AcDbEntity
  8
Livello 1
370
     9
  0
POLYLINE
  5
1AE
330
72
100
AcDbEntity
  8
Livello 1
 62
     7
370
     9
100
AcDb2dPolyline
 66
     1
 10
0.0
 20
0.0
 30
0.0
  0
VERTEX
  5
1AF
330
1AE
100
AcDbEntity
  8
Livello 1
 62
     7
370
     9
100
AcDbVertex
100
AcDb2dVertex
 10
69.43748424913368
 20
1.837923990425935
 30
0.0
  0
VERTEX
  5
1B0
330
1AE
100
AcDbEntity
  8
Livello 1
 62
     7
370
     9
100
AcDbVertex
100
AcDb2dVertex
 10
69.4342803103324
 20
1.837923990425935
 30
0.0
  0
SEQEND
  5
1B1
330
1AE
100
AcDbEntity
  8
Livello 1
370
     9
  0
POLYLINE
  5
1B2
330
72
100
AcDbEntity
  8
Livello 1
 62
     7
370
     9
100
AcDb2dPolyline
 66
     1
 10
0.0
 20
0.0
 30
0.0
  0
VERTEX
  5
1B3
330
1B2
100
AcDbEntity
  8
Livello 1
 62
     7
370
     9
100
AcDbVertex
100
AcDb2dVertex
 10
69.43748424913368
 20
1.828932291209433
 30
0.0
  0
VERTEX
  5
1B4
330
1B2
100
AcDbEntity
  8
Livello 1
 62
     7
370
     9
100
AcDbVertex
100
AcDb2dVertex
 10
69.4342803103324
 20
1.828932291209433
 30
0.0
  0
SEQEND
  5
1B5
330
1B2
100
AcDbEntity
  8
Livello 1
370
     9
  0
POLYLINE
  5
1B6
330
72
100
AcDbEntity
  8
Livello 1
 62
     7
370
     9
100
AcDb2dPolyline
 66
     1
 10
0.0
 20
0.0
 30
0.0
  0
VERTEX
  5
1B7
330
1B6
100
AcDbEntity
  8
Livello 1
 62
     7
370
     9
100
AcDbVertex
100
AcDb2dVertex
 10
69.43748424913368
 20
1.263557671125083
 30
0.0
  0
VERTEX
  5
1B8
330
1B6
100
AcDbEntity
  8
Livello 1
 62
     7
370
     9
100
AcDbVertex
100
AcDb2dVertex
 10
69.4342803103324
 20
1.263557671125083
 30
0.0
  0
SEQEND
  5
1B9
330
1B6
100
AcDbEntity
  8
Livello 1
370
     9
  0
POLYLINE
  5
1BA
330
72
100
AcDbEntity
  8
Livello 1
 62
     7
370
     9
100
AcDb2dPolyline
 66
     1
 10
0.0
 20
0.0
 30
0.0
  0
VERTEX
  5
1BB
330
1BA
100
AcDbEntity
  8
Livello 1
 62
     7
370
     9
100
AcDbVertex
100
AcDb2dVertex
 10
69.43748424913368
 20
1.272687174160995
 30
0.0
  0
VERTEX
  5
1BC
330
1BA
100
AcDbEntity
  8
Livello 1
 62
     7
370
     9
100
AcDbVertex
100
AcDb2dVertex
 10
69.4342803103324
 20
1.272687174160995
 30
0.0
  0
SEQEND
  5
1BD
330
1BA
100
AcDbEntity
  8
Livello 1
370
     9
  0
POLYLINE
  5
1BE
330
72
100
AcDbEntity
  8
Livello 1
 62
     7
370
     9
100
AcDb2dPolyline
 66
     1
 10
0.0
 20
0.0
 30
0.0
  0
VERTEX
  5
1BF
330
1BE
100
AcDbEntity
  8
Livello 1
 62
     7
370
     9
100
AcDbVertex
100
AcDb2dVertex
 10
69.3372319705129
 20
1.828932291209433
 30
0.0
  0
VERTEX
  5
1C0
330
1BE
100
AcDbEntity
  8
Livello 1
 62
     7
370
     9
100
AcDbVertex
100
AcDb2dVertex
 10
69.3372319705129
 20
1.831412759958813
 30
0.0
  0
VERTEX
  5
1C1
330
1BE
100
AcDbEntity
  8
Livello 1
 62
     7
370
     9
100
AcDbVertex
100
AcDb2dVertex
 10
69.3372319705129
 20
1.833824326798488
 30
0.0
  0
VERTEX
  5
1C2
330
1BE
100
AcDbEntity
  8
Livello 1
 62
     7
370
     9
100
AcDbVertex
100
AcDb2dVertex
 10
69.3372319705129
 20
1.836098089818753
 30
0.0
  0
VERTEX
  5
1C3
330
1BE
100
AcDbEntity
  8
Livello 1
 62
     7
370
     9
100
AcDbVertex
100
AcDb2dVertex
 10
69.3372319705129
 20
1.838061794245345
 30
0.0
  0
VERTEX
  5
1C4
330
1BE
100
AcDbEntity
  8
Livello 1
 62
     7
370
     9
100
AcDbVertex
100
AcDb2dVertex
 10
69.3372319705129
 20
1.83964653816856
 30
0.0
  0
VERTEX
  5
1C5
330
1BE
100
AcDbEntity
  8
Livello 1
 62
     7
370
     9
100
AcDbVertex
100
AcDb2dVertex
 10
69.3372319705129
 20
1.840817870633545
 30
0.0
  0
VERTEX
  5
1C6
330
1BE
100
AcDbEntity
  8
Livello 1
 62
     7
370
     9
100
AcDbVertex
100
AcDb2dVertex
 10
69.3372319705129
 20
1.841610242595153
 30
0.0
  0
VERTEX
  5
1C7
330
1BE
100
AcDbEntity
  8
Livello 1
 62
     7
370
     9
100
AcDbVertex
100
AcDb2dVertex
 10
69.3372319705129
 20
1.84185139927912
 30
0.0
  0
SEQEND
  5
1C8
330
1BE
100
AcDbEntity
  8
Livello 1
370
     9
  0
POLYLINE
  5
1C9
330
72
100
AcDbEntity
  8
Livello 1
 62
     7
370
     9
100
AcDb2dPolyline
 66
     1
 10
0.0
 20
0.0
 30
0.0
  0
VERTEX
  5
1CA
330
1C9
100
AcDbEntity
  8
Livello 1
 62
     7
370
     9
100
AcDbVertex
100
AcDb2dVertex
 10
69.4342803103324
 20
1.84185139927912
 30
0.0
  0
VERTEX
  5
1CB
330
1C9
100
AcDbEntity
  8
Livello 1
 62
     7
370
     9
100
AcDbVertex
100
AcDb2dVertex
 10
69.4342803103324
 20
1.841610242595153
 30
0.0
  0
VERTEX
  5
1CC
330
1C9
100
AcDbEntity
  8
Livello 1
 62
     7
370
     9
100
AcDbVertex
100
AcDb2dVertex
 10
69.4342803103324
 20
1.840817870633545
 30
0.0
  0
VERTEX
  5
1CD
330
1C9
100
AcDbEntity
  8
Livello 1
 62
     7
370
     9
100
AcDbVertex
100
AcDb2dVertex
 10
69.4342803103324
 20
1.83964653816856
 30
0.0
  0
VERTEX
  5
1CE
330
1C9
100
AcDbEntity
  8
Livello 1
 62
     7
370
     9
100
AcDbVertex
100
AcDb2dVertex
 10
69.4342803103324
 20
1.838061794245345
 30
0.0
  0
VERTEX
  5
1CF
330
1C9
100
AcDbEntity
  8
Livello 1
 62
     7
370
     9
100
AcDbVertex
100
AcDb2dVertex
 10
69.4342803103324
 20
1.836098089818753
 30
0.0
  0
VERTEX
  5
1D0
330
1C9
100
AcDbEntity
  8
Livello 1
 62
     7
370
     9
100
AcDbVertex
100
AcDb2dVertex
 10
69.4342803103324
 20
1.833824326798488
 30
0.0
  0
VERTEX
  5
1D1
330
1C9
100
AcDbEntity
  8
Livello 1
 62
     7
370
     9
100
AcDbVertex
100
AcDb2dVertex
 10
69.4342803103324
 20
1.831412759958813
 30
0.0
  0
VERTEX
  5
1D2
330
1C9
100
AcDbEntity
  8
Livello 1
 62
     7
370
     9
100
AcDbVertex
100
AcDb2dVertex
 10
69.4342803103324
 20
1.828932291209433
 30
0.0
  0
SEQEND
  5
1D3
330
1C9
100
AcDbEntity
  8
Livello 1
370
     9
  0
POLYLINE
  5
1D4
330
72
100
AcDbEntity
  8
Livello 1
 62
     7
370
     9
100
AcDb2dPolyline
 66
     1
 10
0.0
 20
0.0
 30
0.0
  0
VERTEX
  5
1D5
330
1D4
100
AcDbEntity
  8
Livello 1
 62
     7
370
     9
100
AcDbVertex
100
AcDb2dVertex
 10
69.3372319705129
 20
1.84185139927912
 30
0.0
  0
VERTEX
  5
1D6
330
1D4
100
AcDbEntity
  8
Livello 1
 62
     7
370
     9
100
AcDbVertex
100
AcDb2dVertex
 10
69.4342803103324
 20
1.84185139927912
 30
0.0
  0
SEQEND
  5
1D7
330
1D4
100
AcDbEntity
  8
Livello 1
370
     9
  0
POLYLINE
  5
1D8
330
72
100
AcDbEntity
  8
Livello 1
 62
     7
370
     9
100
AcDb2dPolyline
 66
     1
 10
0.0
 20
0.0
 30
0.0
  0
VERTEX
  5
1D9
330
1D8
100
AcDbEntity
  8
Livello 1
 62
     7
370
     9
100
AcDbVertex
100
AcDb2dVertex
 10
69.3372319705129
 20
1.272687174160995
 30
0.0
  0
VERTEX
  5
1DA
330
1D8
100
AcDbEntity
  8
Livello 1
 62
     7
370
     9
100
AcDbVertex
100
AcDb2dVertex
 10
69.3372319705129
 20
1.828932291209433
 30
0.0
  0
SEQEND
  5
1DB
330
1D8
100
AcDbEntity
  8
Livello 1
370
     9
  0
POLYLINE
  5
1DC
330
72
100
AcDbEntity
  8
Livello 1
 62
     7
370
     9
100
AcDb2dPolyline
 66
     1
 10
0.0
 20
0.0
 30
0.0
  0
VERTEX
  5
1DD
330
1DC
100
AcDbEntity
  8
Livello 1
 62
     7
370
     9
100
AcDbVertex
100
AcDb2dVertex
 10
69.4342803103324
 20
1.272687174160995
 30
0.0
  0
VERTEX
  5
1DE
330
1DC
100
AcDbEntity
  8
Livello 1
 62
     7
370
     9
100
AcDbVertex
100
AcDb2dVertex
 10
69.4342803103324
 20
1.828932291209433
 30
0.0
  0
SEQEND
  5
1DF
330
1DC
100
AcDbEntity
  8
Livello 1
370
     9
  0
POLYLINE
  5
1E0
330
72
100
AcDbEntity
  8
Livello 1
 62
     7
370
     9
100
AcDb2dPolyline
 66
     1
 10
0.0
 20
0.0
 30
0.0
  0
VERTEX
  5
1E1
330
1E0
100
AcDbEntity
  8
Livello 1
 62
     7
370
     9
100
AcDbVertex
100
AcDb2dVertex
 10
69.4342803103324
 20
1.828932291209433
 30
0.0
  0
VERTEX
  5
1E2
330
1E0
100
AcDbEntity
  8
Livello 1
 62
     7
370
     9
100
AcDbVertex
100
AcDb2dVertex
 10
69.3372319705129
 20
1.828932291209433
 30
0.0
  0
SEQEND
  5
1E3
330
1E0
100
AcDbEntity
  8
Livello 1
370
     9
  0
POLYLINE
  5
1E4
330
72
100
AcDbEntity
  8
Livello 1
 62
     7
370
     9
100
AcDb2dPolyline
 66
     1
 10
0.0
 20
0.0
 30
0.0
  0
VERTEX
  5
1E5
330
1E4
100
AcDbEntity
  8
Livello 1
 62
     7
370
     9
100
AcDbVertex
100
AcDb2dVertex
 10
69.3372319705129
 20
1.259699164181603
 30
0.0
  0
VERTEX
  5
1E6
330
1E4
100
AcDbEntity
  8
Livello 1
 62
     7
370
     9
100
AcDbVertex
100
AcDb2dVertex
 10
69.3372319705129
 20
1.260009222775275
 30
0.0
  0
VERTEX
  5
1E7
330
1E4
100
AcDbEntity
  8
Livello 1
 62
     7
370
     9
100
AcDbVertex
100
AcDb2dVertex
 10
69.3372319705129
 20
1.260698241872325
 30
0.0
  0
VERTEX
  5
1E8
330
1E4
100
AcDbEntity
  8
Livello 1
 62
     7
370
     9
100
AcDbVertex
100
AcDb2dVertex
 10
69.3372319705129
 20
1.261904025292163
 30
0.0
  0
VERTEX
  5
1E9
330
1E4
100
AcDbEntity
  8
Livello 1
 62
     7
370
     9
100
AcDbVertex
100
AcDb2dVertex
 10
69.3372319705129
 20
1.26352322017023
 30
0.0
  0
VERTEX
  5
1EA
330
1E4
100
AcDbEntity
  8
Livello 1
 62
     7
370
     9
100
AcDbVertex
100
AcDb2dVertex
 10
69.3372319705129
 20
1.26545247364197
 30
0.0
  0
VERTEX
  5
1EB
330
1E4
100
AcDbEntity
  8
Livello 1
 62
     7
370
     9
100
AcDbVertex
100
AcDb2dVertex
 10
69.3372319705129
 20
1.26765733475253
 30
0.0
  0
VERTEX
  5
1EC
330
1E4
100
AcDbEntity
  8
Livello 1
 62
     7
370
     9
100
AcDbVertex
100
AcDb2dVertex
 10
69.3372319705129
 20
1.270103352547057
 30
0.0
  0
VERTEX
  5
1ED
330
1E4
100
AcDbEntity
  8
Livello 1
 62
     7
370
     9
100
AcDbVertex
100
AcDb2dVertex
 10
69.3372319705129
 20
1.272687174160995
 30
0.0
  0
SEQEND
  5
1EE
330
1E4
100
AcDbEntity
  8
Livello 1
370
     9
  0
POLYLINE
  5
1EF
330
72
100
AcDbEntity
  8
Livello 1
 62
     7
370
     9
100
AcDb2dPolyline
 66
     1
 10
0.0
 20
0.0
 30
0.0
  0
VERTEX
  5
1F0
330
1EF
100
AcDbEntity
  8
Livello 1
 62
     7
370
     9
100
AcDbVertex
100
AcDb2dVertex
 10
69.4342803103324
 20
1.259699164181603
 30
0.0
  0
VERTEX
  5
1F1
330
1EF
100
AcDbEntity
  8
Livello 1
 62
     7
370
     9
100
AcDbVertex
100
AcDb2dVertex
 10
69.3372319705129
 20
1.259699164181603
 30
0.0
  0
SEQEND
  5
1F2
330
1EF
100
AcDbEntity
  8
Livello 1
370
     9
  0
POLYLINE
  5
1F3
330
72
100
AcDbEntity
  8
Livello 1
 62
     7
370
     9
100
AcDb2dPolyline
 66
     1
 10
0.0
 20
0.0
 30
0.0
  0
VERTEX
  5
1F4
330
1F3
100
AcDbEntity
  8
Livello 1
 62
     7
370
     9
100
AcDbVertex
100
AcDb2dVertex
 10
69.4342803103324
 20
1.272687174160995
 30
0.0
  0
VERTEX
  5
1F5
330
1F3
100
AcDbEntity
  8
Livello 1
 62
     7
370
     9
100
AcDbVertex
100
AcDb2dVertex
 10
69.4342803103324
 20
1.270103352547057
 30
0.0
  0
VERTEX
  5
1F6
330
1F3
100
AcDbEntity
  8
Livello 1
 62
     7
370
     9
100
AcDbVertex
100
AcDb2dVertex
 10
69.4342803103324
 20
1.26765733475253
 30
0.0
  0
VERTEX
  5
1F7
330
1F3
100
AcDbEntity
  8
Livello 1
 62
     7
370
     9
100
AcDbVertex
100
AcDb2dVertex
 10
69.4342803103324
 20
1.26545247364197
 30
0.0
  0
VERTEX
  5
1F8
330
1F3
100
AcDbEntity
  8
Livello 1
 62
     7
370
     9
100
AcDbVertex
100
AcDb2dVertex
 10
69.4342803103324
 20
1.26352322017023
 30
0.0
  0
VERTEX
  5
1F9
330
1F3
100
AcDbEntity
  8
Livello 1
 62
     7
370
     9
100
AcDbVertex
100
AcDb2dVertex
 10
69.4342803103324
 20
1.261904025292163
 30
0.0
  0
VERTEX
  5
1FA
330
1F3
100
AcDbEntity
  8
Livello 1
 62
     7
370
     9
100
AcDbVertex
100
AcDb2dVertex
 10
69.4342803103324
 20
1.260698241872325
 30
0.0
  0
VERTEX
  5
1FB
330
1F3
100
AcDbEntity
  8
Livello 1
 62
     7
370
     9
100
AcDbVertex
100
AcDb2dVertex
 10
69.4342803103324
 20
1.260009222775275
 30
0.0
  0
VERTEX
  5
1FC
330
1F3
100
AcDbEntity
  8
Livello 1
 62
     7
370
     9
100
AcDbVertex
100
AcDb2dVertex
 10
69.4342803103324
 20
1.259699164181603
 30
0.0
  0
SEQEND
  5
1FD
330
1F3
100
AcDbEntity
  8
Livello 1
370
     9
  0
POLYLINE
  5
1FE
330
72
100
AcDbEntity
  8
Livello 1
 62
     7
370
     9
100
AcDb2dPolyline
 66
     1
 10
0.0
 20
0.0
 30
0.0
  0
VERTEX
  5
1FF
330
1FE
100
AcDbEntity
  8
Livello 1
 62
     7
370
     9
100
AcDbVertex
100
AcDb2dVertex
 10
69.3372319705129
 20
1.272687174160995
 30
0.0
  0
VERTEX
  5
200
330
1FE
100
AcDbEntity
  8
Livello 1
 62
     7
370
     9
100
AcDbVertex
100
AcDb2dVertex
 10
69.4342803103324
 20
1.272687174160995
 30
0.0
  0
SEQEND
  5
201
330
1FE
100
AcDbEntity
  8
Livello 1
370
     9
  0
POLYLINE
  5
202
330
72
100
AcDbEntity
  8
Livello 1
 62
     7
370
     9
100
AcDb2dPolyline
 66
     1
 10
0.0
 20
0.0
 30
0.0
  0
VERTEX
  5
203
330
202
100
AcDbEntity
  8
Livello 1
 62
     7
370
     9
100
AcDbVertex
100
AcDb2dVertex
 10
80.37087373207741
 20
1.837923990425935
 30
0.0
  0
VERTEX
  5
204
330
202
100
AcDbEntity
  8
Livello 1
 62
     7
370
     9
100
AcDbVertex
100
AcDb2dVertex
 10
80.37411212183355
 20
1.837923990425935
 30
0.0
  0
SEQEND
  5
205
330
202
100
AcDbEntity
  8
Livello 1
370
     9
  0
POLYLINE
  5
206
330
72
100
AcDbEntity
  8
Livello 1
 62
     7
370
     9
100
AcDb2dPolyline
 66
     1
 10
0.0
 20
0.0
 30
0.0
  0
VERTEX
  5
207
330
206
100
AcDbEntity
  8
Livello 1
 62
     7
370
     9
100
AcDbVertex
100
AcDb2dVertex
 10
80.37087373207741
 20
1.828932291209433
 30
0.0
  0
VERTEX
  5
208
330
206
100
AcDbEntity
  8
Livello 1
 62
     7
370
     9
100
AcDbVertex
100
AcDb2dVertex
 10
80.37411212183355
 20
1.828932291209433
 30
0.0
  0
SEQEND
  5
209
330
206
100
AcDbEntity
  8
Livello 1
370
     9
  0
POLYLINE
  5
20A
330
72
100
AcDbEntity
  8
Livello 1
 62
     7
370
     9
100
AcDb2dPolyline
 66
     1
 10
0.0
 20
0.0
 30
0.0
  0
VERTEX
  5
20B
330
20A
100
AcDbEntity
  8
Livello 1
 62
     7
370
     9
100
AcDbVertex
100
AcDb2dVertex
 10
80.37087373207741
 20
1.272687174160995
 30
0.0
  0
VERTEX
  5
20C
330
20A
100
AcDbEntity
  8
Livello 1
 62
     7
370
     9
100
AcDbVertex
100
AcDb2dVertex
 10
80.37411212183355
 20
1.272687174160995
 30
0.0
  0
SEQEND
  5
20D
330
20A
100
AcDbEntity
  8
Livello 1
370
     9
  0
POLYLINE
  5
20E
330
72
100
AcDbEntity
  8
Livello 1
 62
     7
370
     9
100
AcDb2dPolyline
 66
     1
 10
0.0
 20
0.0
 30
0.0
  0
VERTEX
  5
20F
330
20E
100
AcDbEntity
  8
Livello 1
 62
     7
370
     9
100
AcDbVertex
100
AcDb2dVertex
 10
80.37087373207741
 20
1.263557671125083
 30
0.0
  0
VERTEX
  5
210
330
20E
100
AcDbEntity
  8
Livello 1
 62
     7
370
     9
100
AcDbVertex
100
AcDb2dVertex
 10
80.37411212183355
 20
1.263557671125083
 30
0.0
  0
SEQEND
  5
211
330
20E
100
AcDbEntity
  8
Livello 1
370
     9
  0
POLYLINE
  5
212
330
72
100
AcDbEntity
  8
Livello 1
 62
     7
370
     9
100
AcDb2dPolyline
 66
     1
 10
0.0
 20
0.0
 30
0.0
  0
VERTEX
  5
213
330
212
100
AcDbEntity
  8
Livello 1
 62
     7
370
     9
100
AcDbVertex
100
AcDb2dVertex
 10
80.47116046165304
 20
1.84185139927912
 30
0.0
  0
VERTEX
  5
214
330
212
100
AcDbEntity
  8
Livello 1
 62
     7
370
     9
100
AcDbVertex
100
AcDb2dVertex
 10
80.47116046165304
 20
1.841610242595153
 30
0.0
  0
VERTEX
  5
215
330
212
100
AcDbEntity
  8
Livello 1
 62
     7
370
     9
100
AcDbVertex
100
AcDb2dVertex
 10
80.47116046165304
 20
1.840817870633545
 30
0.0
  0
VERTEX
  5
216
330
212
100
AcDbEntity
  8
Livello 1
 62
     7
370
     9
100
AcDbVertex
100
AcDb2dVertex
 10
80.47116046165304
 20
1.83964653816856
 30
0.0
  0
VERTEX
  5
217
330
212
100
AcDbEntity
  8
Livello 1
 62
     7
370
     9
100
AcDbVertex
100
AcDb2dVertex
 10
80.47116046165304
 20
1.838061794245345
 30
0.0
  0
VERTEX
  5
218
330
212
100
AcDbEntity
  8
Livello 1
 62
     7
370
     9
100
AcDbVertex
100
AcDb2dVertex
 10
80.47116046165304
 20
1.836098089818753
 30
0.0
  0
VERTEX
  5
219
330
212
100
AcDbEntity
  8
Livello 1
 62
     7
370
     9
100
AcDbVertex
100
AcDb2dVertex
 10
80.47116046165304
 20
1.833824326798488
 30
0.0
  0
VERTEX
  5
21A
330
212
100
AcDbEntity
  8
Livello 1
 62
     7
370
     9
100
AcDbVertex
100
AcDb2dVertex
 10
80.47116046165304
 20
1.831412759958813
 30
0.0
  0
VERTEX
  5
21B
330
212
100
AcDbEntity
  8
Livello 1
 62
     7
370
     9
100
AcDbVertex
100
AcDb2dVertex
 10
80.47116046165304
 20
1.828932291209433
 30
0.0
  0
SEQEND
  5
21C
330
212
100
AcDbEntity
  8
Livello 1
370
     9
  0
POLYLINE
  5
21D
330
72
100
AcDbEntity
  8
Livello 1
 62
     7
370
     9
100
AcDb2dPolyline
 66
     1
 10
0.0
 20
0.0
 30
0.0
  0
VERTEX
  5
21E
330
21D
100
AcDbEntity
  8
Livello 1
 62
     7
370
     9
100
AcDbVertex
100
AcDb2dVertex
 10
80.37411212183355
 20
1.828932291209433
 30
0.0
  0
VERTEX
  5
21F
330
21D
100
AcDbEntity
  8
Livello 1
 62
     7
370
     9
100
AcDbVertex
100
AcDb2dVertex
 10
80.37411212183355
 20
1.831412759958813
 30
0.0
  0
VERTEX
  5
220
330
21D
100
AcDbEntity
  8
Livello 1
 62
     7
370
     9
100
AcDbVertex
100
AcDb2dVertex
 10
80.37411212183355
 20
1.833824326798488
 30
0.0
  0
VERTEX
  5
221
330
21D
100
AcDbEntity
  8
Livello 1
 62
     7
370
     9
100
AcDbVertex
100
AcDb2dVertex
 10
80.37411212183355
 20
1.836098089818753
 30
0.0
  0
VERTEX
  5
222
330
21D
100
AcDbEntity
  8
Livello 1
 62
     7
370
     9
100
AcDbVertex
100
AcDb2dVertex
 10
80.37411212183355
 20
1.838061794245345
 30
0.0
  0
VERTEX
  5
223
330
21D
100
AcDbEntity
  8
Livello 1
 62
     7
370
     9
100
AcDbVertex
100
AcDb2dVertex
 10
80.37411212183355
 20
1.83964653816856
 30
0.0
  0
VERTEX
  5
224
330
21D
100
AcDbEntity
  8
Livello 1
 62
     7
370
     9
100
AcDbVertex
100
AcDb2dVertex
 10
80.37411212183355
 20
1.840817870633545
 30
0.0
  0
VERTEX
  5
225
330
21D
100
AcDbEntity
  8
Livello 1
 62
     7
370
     9
100
AcDbVertex
100
AcDb2dVertex
 10
80.37411212183355
 20
1.841610242595153
 30
0.0
  0
VERTEX
  5
226
330
21D
100
AcDbEntity
  8
Livello 1
 62
     7
370
     9
100
AcDbVertex
100
AcDb2dVertex
 10
80.37411212183355
 20
1.84185139927912
 30
0.0
  0
SEQEND
  5
227
330
21D
100
AcDbEntity
  8
Livello 1
370
     9
  0
POLYLINE
  5
228
330
72
100
AcDbEntity
  8
Livello 1
 62
     7
370
     9
100
AcDb2dPolyline
 66
     1
 10
0.0
 20
0.0
 30
0.0
  0
VERTEX
  5
229
330
228
100
AcDbEntity
  8
Livello 1
 62
     7
370
     9
100
AcDbVertex
100
AcDb2dVertex
 10
80.37411212183355
 20
1.84185139927912
 30
0.0
  0
VERTEX
  5
22A
330
228
100
AcDbEntity
  8
Livello 1
 62
     7
370
     9
100
AcDbVertex
100
AcDb2dVertex
 10
80.47116046165304
 20
1.84185139927912
 30
0.0
  0
SEQEND
  5
22B
330
228
100
AcDbEntity
  8
Livello 1
370
     9
  0
POLYLINE
  5
22C
330
72
100
AcDbEntity
  8
Livello 1
 62
     7
370
     9
100
AcDb2dPolyline
 66
     1
 10
0.0
 20
0.0
 30
0.0
  0
VERTEX
  5
22D
330
22C
100
AcDbEntity
  8
Livello 1
 62
     7
370
     9
100
AcDbVertex
100
AcDb2dVertex
 10
80.47116046165304
 20
1.828932291209433
 30
0.0
  0
VERTEX
  5
22E
330
22C
100
AcDbEntity
  8
Livello 1
 62
     7
370
     9
100
AcDbVertex
100
AcDb2dVertex
 10
80.47116046165304
 20
1.272687174160995
 30
0.0
  0
SEQEND
  5
22F
330
22C
100
AcDbEntity
  8
Livello 1
370
     9
  0
POLYLINE
  5
230
330
72
100
AcDbEntity
  8
Livello 1
 62
     7
370
     9
100
AcDb2dPolyline
 66
     1
 10
0.0
 20
0.0
 30
0.0
  0
VERTEX
  5
231
330
230
100
AcDbEntity
  8
Livello 1
 62
     7
370
     9
100
AcDbVertex
100
AcDb2dVertex
 10
80.37411212183355
 20
1.828932291209433
 30
0.0
  0
VERTEX
  5
232
330
230
100
AcDbEntity
  8
Livello 1
 62
     7
370
     9
100
AcDbVertex
100
AcDb2dVertex
 10
80.37411212183355
 20
1.272687174160995
 30
0.0
  0
SEQEND
  5
233
330
230
100
AcDbEntity
  8
Livello 1
370
     9
  0
POLYLINE
  5
234
330
72
100
AcDbEntity
  8
Livello 1
 62
     7
370
     9
100
AcDb2dPolyline
 66
     1
 10
0.0
 20
0.0
 30
0.0
  0
VERTEX
  5
235
330
234
100
AcDbEntity
  8
Livello 1
 62
     7
370
     9
100
AcDbVertex
100
AcDb2dVertex
 10
80.47116046165304
 20
1.828932291209433
 30
0.0
  0
VERTEX
  5
236
330
234
100
AcDbEntity
  8
Livello 1
 62
     7
370
     9
100
AcDbVertex
100
AcDb2dVertex
 10
80.37411212183355
 20
1.828932291209433
 30
0.0
  0
SEQEND
  5
237
330
234
100
AcDbEntity
  8
Livello 1
370
     9
  0
POLYLINE
  5
238
330
72
100
AcDbEntity
  8
Livello 1
 62
     7
370
     9
100
AcDb2dPolyline
 66
     1
 10
0.0
 20
0.0
 30
0.0
  0
VERTEX
  5
239
330
238
100
AcDbEntity
  8
Livello 1
 62
     7
370
     9
100
AcDbVertex
100
AcDb2dVertex
 10
80.47116046165304
 20
1.272687174160995
 30
0.0
  0
VERTEX
  5
23A
330
238
100
AcDbEntity
  8
Livello 1
 62
     7
370
     9
100
AcDbVertex
100
AcDb2dVertex
 10
80.47116046165304
 20
1.270103352547057
 30
0.0
  0
VERTEX
  5
23B
330
238
100
AcDbEntity
  8
Livello 1
 62
     7
370
     9
100
AcDbVertex
100
AcDb2dVertex
 10
80.47116046165304
 20
1.26765733475253
 30
0.0
  0
VERTEX
  5
23C
330
238
100
AcDbEntity
  8
Livello 1
 62
     7
370
     9
100
AcDbVertex
100
AcDb2dVertex
 10
80.47116046165304
 20
1.26545247364197
 30
0.0
  0
VERTEX
  5
23D
330
238
100
AcDbEntity
  8
Livello 1
 62
     7
370
     9
100
AcDbVertex
100
AcDb2dVertex
 10
80.47116046165304
 20
1.26352322017023
 30
0.0
  0
VERTEX
  5
23E
330
238
100
AcDbEntity
  8
Livello 1
 62
     7
370
     9
100
AcDbVertex
100
AcDb2dVertex
 10
80.47116046165304
 20
1.261904025292163
 30
0.0
  0
VERTEX
  5
23F
330
238
100
AcDbEntity
  8
Livello 1
 62
     7
370
     9
100
AcDbVertex
100
AcDb2dVertex
 10
80.47116046165304
 20
1.260698241872325
 30
0.0
  0
VERTEX
  5
240
330
238
100
AcDbEntity
  8
Livello 1
 62
     7
370
     9
100
AcDbVertex
100
AcDb2dVertex
 10
80.47116046165304
 20
1.260009222775275
 30
0.0
  0
VERTEX
  5
241
330
238
100
AcDbEntity
  8
Livello 1
 62
     7
370
     9
100
AcDbVertex
100
AcDb2dVertex
 10
80.47116046165304
 20
1.259699164181603
 30
0.0
  0
SEQEND
  5
242
330
238
100
AcDbEntity
  8
Livello 1
370
     9
  0
POLYLINE
  5
243
330
72
100
AcDbEntity
  8
Livello 1
 62
     7
370
     9
100
AcDb2dPolyline
 66
     1
 10
0.0
 20
0.0
 30
0.0
  0
VERTEX
  5
244
330
243
100
AcDbEntity
  8
Livello 1
 62
     7
370
     9
100
AcDbVertex
100
AcDb2dVertex
 10
80.37411212183355
 20
1.272687174160995
 30
0.0
  0
VERTEX
  5
245
330
243
100
AcDbEntity
  8
Livello 1
 62
     7
370
     9
100
AcDbVertex
100
AcDb2dVertex
 10
80.47116046165304
 20
1.272687174160995
 30
0.0
  0
SEQEND
  5
246
330
243
100
AcDbEntity
  8
Livello 1
370
     9
  0
POLYLINE
  5
247
330
72
100
AcDbEntity
  8
Livello 1
 62
     7
370
     9
100
AcDb2dPolyline
 66
     1
 10
0.0
 20
0.0
 30
0.0
  0
VERTEX
  5
248
330
247
100
AcDbEntity
  8
Livello 1
 62
     7
370
     9
100
AcDbVertex
100
AcDb2dVertex
 10
80.37411212183355
 20
1.259699164181603
 30
0.0
  0
VERTEX
  5
249
330
247
100
AcDbEntity
  8
Livello 1
 62
     7
370
     9
100
AcDbVertex
100
AcDb2dVertex
 10
80.37411212183355
 20
1.260009222775275
 30
0.0
  0
VERTEX
  5
24A
330
247
100
AcDbEntity
  8
Livello 1
 62
     7
370
     9
100
AcDbVertex
100
AcDb2dVertex
 10
80.37411212183355
 20
1.260698241872325
 30
0.0
  0
VERTEX
  5
24B
330
247
100
AcDbEntity
  8
Livello 1
 62
     7
370
     9
100
AcDbVertex
100
AcDb2dVertex
 10
80.37411212183355
 20
1.261904025292163
 30
0.0
  0
VERTEX
  5
24C
330
247
100
AcDbEntity
  8
Livello 1
 62
     7
370
     9
100
AcDbVertex
100
AcDb2dVertex
 10
80.37411212183355
 20
1.26352322017023
 30
0.0
  0
VERTEX
  5
24D
330
247
100
AcDbEntity
  8
Livello 1
 62
     7
370
     9
100
AcDbVertex
100
AcDb2dVertex
 10
80.37411212183355
 20
1.26545247364197
 30
0.0
  0
VERTEX
  5
24E
330
247
100
AcDbEntity
  8
Livello 1
 62
     7
370
     9
100
AcDbVertex
100
AcDb2dVertex
 10
80.37411212183355
 20
1.26765733475253
 30
0.0
  0
VERTEX
  5
24F
330
247
100
AcDbEntity
  8
Livello 1
 62
     7
370
     9
100
AcDbVertex
100
AcDb2dVertex
 10
80.37411212183355
 20
1.270103352547057
 30
0.0
  0
VERTEX
  5
250
330
247
100
AcDbEntity
  8
Livello 1
 62
     7
370
     9
100
AcDbVertex
100
AcDb2dVertex
 10
80.37411212183355
 20
1.272687174160995
 30
0.0
  0
SEQEND
  5
251
330
247
100
AcDbEntity
  8
Livello 1
370
     9
  0
POLYLINE
  5
252
330
72
100
AcDbEntity
  8
Livello 1
 62
     7
370
     9
100
AcDb2dPolyline
 66
     1
 10
0.0
 20
0.0
 30
0.0
  0
VERTEX
  5
253
330
252
100
AcDbEntity
  8
Livello 1
 62
     7
370
     9
100
AcDbVertex
100
AcDb2dVertex
 10
80.47116046165304
 20
1.259699164181603
 30
0.0
  0
VERTEX
  5
254
330
252
100
AcDbEntity
  8
Livello 1
 62
     7
370
     9
100
AcDbVertex
100
AcDb2dVertex
 10
80.37411212183355
 20
1.259699164181603
 30
0.0
  0
SEQEND
  5
255
330
252
100
AcDbEntity
  8
Livello 1
370
     9
  0
POLYLINE
  5
256
330
72
100
AcDbEntity
  8
Livello 1
 62
     7
370
     9
100
AcDb2dPolyline
 66
     1
 10
0.0
 20
0.0
 30
0.0
  0
VERTEX
  5
257
330
256
100
AcDbEntity
  8
Livello 1
 62
     7
370
     9
100
AcDbVertex
100
AcDb2dVertex
 10
69.3605208159932
 20
6.945484753037934
 30
0.0
  0
VERTEX
  5
258
330
256
100
AcDbEntity
  8
Livello 1
 62
     7
370
     9
100
AcDbVertex
100
AcDb2dVertex
 10
69.3605208159932
 20
6.945174694444261
 30
0.0
  0
VERTEX
  5
259
330
256
100
AcDbEntity
  8
Livello 1
 62
     7
370
     9
100
AcDbVertex
100
AcDb2dVertex
 10
69.36062416885775
 20
6.944933537760294
 30
0.0
  0
VERTEX
  5
25A
330
256
100
AcDbEntity
  8
Livello 1
 62
     7
370
     9
100
AcDbVertex
100
AcDb2dVertex
 10
69.36083087458687
 20
6.944571802734343
 30
0.0
  0
VERTEX
  5
25B
330
256
100
AcDbEntity
  8
Livello 1
 62
     7
370
     9
100
AcDbVertex
100
AcDb2dVertex
 10
69.36100312936114
 20
6.944330646050375
 30
0.0
  0
VERTEX
  5
25C
330
256
100
AcDbEntity
  8
Livello 1
 62
     7
370
     9
100
AcDbVertex
100
AcDb2dVertex
 10
69.36120983509025
 20
6.944141165798686
 30
0.0
  0
VERTEX
  5
25D
330
256
100
AcDbEntity
  8
Livello 1
 62
     7
370
     9
100
AcDbVertex
100
AcDb2dVertex
 10
69.36151989368392
 20
6.943934460069571
 30
0.0
  0
VERTEX
  5
25E
330
256
100
AcDbEntity
  8
Livello 1
 62
     7
370
     9
100
AcDbVertex
100
AcDb2dVertex
 10
69.36176105036789
 20
6.943900009114719
 30
0.0
  0
VERTEX
  5
25F
330
256
100
AcDbEntity
  8
Livello 1
 62
     7
370
     9
100
AcDbVertex
100
AcDb2dVertex
 10
69.36217446182611
 20
6.943900009114719
 30
0.0
  0
SEQEND
  5
260
330
256
100
AcDbEntity
  8
Livello 1
370
     9
  0
POLYLINE
  5
261
330
72
100
AcDbEntity
  8
Livello 1
 62
     7
370
     9
100
AcDb2dPolyline
 66
     1
 10
0.0
 20
0.0
 30
0.0
  0
VERTEX
  5
262
330
261
100
AcDbEntity
  8
Livello 1
 62
     7
370
     9
100
AcDbVertex
100
AcDb2dVertex
 10
69.42294594618592
 20
6.943900009114719
 30
0.0
  0
VERTEX
  5
263
330
261
100
AcDbEntity
  8
Livello 1
 62
     7
370
     9
100
AcDbVertex
100
AcDb2dVertex
 10
69.42322155382475
 20
6.943900009114719
 30
0.0
  0
VERTEX
  5
264
330
261
100
AcDbEntity
  8
Livello 1
 62
     7
370
     9
100
AcDbVertex
100
AcDb2dVertex
 10
69.42360051432813
 20
6.943934460069571
 30
0.0
  0
VERTEX
  5
265
330
261
100
AcDbEntity
  8
Livello 1
 62
     7
370
     9
100
AcDbVertex
100
AcDb2dVertex
 10
69.42387612196694
 20
6.944141165798686
 30
0.0
  0
VERTEX
  5
266
330
261
100
AcDbEntity
  8
Livello 1
 62
     7
370
     9
100
AcDbVertex
100
AcDb2dVertex
 10
69.42404837674121
 20
6.944330646050375
 30
0.0
  0
VERTEX
  5
267
330
261
100
AcDbEntity
  8
Livello 1
 62
     7
370
     9
100
AcDbVertex
100
AcDb2dVertex
 10
69.42428953342517
 20
6.944571802734343
 30
0.0
  0
VERTEX
  5
268
330
261
100
AcDbEntity
  8
Livello 1
 62
     7
370
     9
100
AcDbVertex
100
AcDb2dVertex
 10
69.42442733724458
 20
6.944933537760294
 30
0.0
  0
VERTEX
  5
269
330
261
100
AcDbEntity
  8
Livello 1
 62
     7
370
     9
100
AcDbVertex
100
AcDb2dVertex
 10
69.424565141064
 20
6.945174694444261
 30
0.0
  0
VERTEX
  5
26A
330
261
100
AcDbEntity
  8
Livello 1
 62
     7
370
     9
100
AcDbVertex
100
AcDb2dVertex
 10
69.424565141064
 20
6.945484753037934
 30
0.0
  0
SEQEND
  5
26B
330
261
100
AcDbEntity
  8
Livello 1
370
     9
  0
POLYLINE
  5
26C
330
72
100
AcDbEntity
  8
Livello 1
 62
     7
370
     9
100
AcDb2dPolyline
 66
     1
 10
0.0
 20
0.0
 30
0.0
  0
VERTEX
  5
26D
330
26C
100
AcDbEntity
  8
Livello 1
 62
     7
370
     9
100
AcDbVertex
100
AcDb2dVertex
 10
69.34694713978132
 20
6.945484753037934
 30
0.0
  0
VERTEX
  5
26E
330
26C
100
AcDbEntity
  8
Livello 1
 62
     7
370
     9
100
AcDbVertex
100
AcDb2dVertex
 10
69.34698159073616
 20
6.945174694444261
 30
0.0
  0
VERTEX
  5
26F
330
26C
100
AcDbEntity
  8
Livello 1
 62
     7
370
     9
100
AcDbVertex
100
AcDb2dVertex
 10
69.34705049264588
 20
6.944933537760294
 30
0.0
  0
VERTEX
  5
270
330
26C
100
AcDbEntity
  8
Livello 1
 62
     7
370
     9
100
AcDbVertex
100
AcDb2dVertex
 10
69.34722274742013
 20
6.944571802734343
 30
0.0
  0
VERTEX
  5
271
330
26C
100
AcDbEntity
  8
Livello 1
 62
     7
370
     9
100
AcDbVertex
100
AcDb2dVertex
 10
69.34739500219439
 20
6.944330646050375
 30
0.0
  0
VERTEX
  5
272
330
26C
100
AcDbEntity
  8
Livello 1
 62
     7
370
     9
100
AcDbVertex
100
AcDb2dVertex
 10
69.34763615887836
 20
6.944141165798686
 30
0.0
  0
VERTEX
  5
273
330
26C
100
AcDbEntity
  8
Livello 1
 62
     7
370
     9
100
AcDbVertex
100
AcDb2dVertex
 10
69.34791176651719
 20
6.943934460069571
 30
0.0
  0
VERTEX
  5
274
330
26C
100
AcDbEntity
  8
Livello 1
 62
     7
370
     9
100
AcDbVertex
100
AcDb2dVertex
 10
69.34822182511085
 20
6.943900009114719
 30
0.0
  0
VERTEX
  5
275
330
26C
100
AcDbEntity
  8
Livello 1
 62
     7
370
     9
100
AcDbVertex
100
AcDb2dVertex
 10
69.34853188370452
 20
6.943900009114719
 30
0.0
  0
SEQEND
  5
276
330
26C
100
AcDbEntity
  8
Livello 1
370
     9
  0
POLYLINE
  5
277
330
72
100
AcDbEntity
  8
Livello 1
 62
     7
370
     9
100
AcDb2dPolyline
 66
     1
 10
0.0
 20
0.0
 30
0.0
  0
VERTEX
  5
278
330
277
100
AcDbEntity
  8
Livello 1
 62
     7
370
     9
100
AcDbVertex
100
AcDb2dVertex
 10
69.424565141064
 20
6.945484753037934
 30
0.0
  0
VERTEX
  5
279
330
277
100
AcDbEntity
  8
Livello 1
 62
     7
370
     9
100
AcDbVertex
100
AcDb2dVertex
 10
69.424565141064
 20
7.093933917497349
 30
0.0
  0
SEQEND
  5
27A
330
277
100
AcDbEntity
  8
Livello 1
370
     9
  0
POLYLINE
  5
27B
330
72
100
AcDbEntity
  8
Livello 1
 62
     7
370
     9
100
AcDb2dPolyline
 66
     1
 10
0.0
 20
0.0
 30
0.0
  0
VERTEX
  5
27C
330
27B
100
AcDbEntity
  8
Livello 1
 62
     7
370
     9
100
AcDbVertex
100
AcDb2dVertex
 10
69.34694713978132
 20
7.093933917497349
 30
0.0
  0
VERTEX
  5
27D
330
27B
100
AcDbEntity
  8
Livello 1
 62
     7
370
     9
100
AcDbVertex
100
AcDb2dVertex
 10
69.34694713978132
 20
6.945484753037934
 30
0.0
  0
SEQEND
  5
27E
330
27B
100
AcDbEntity
  8
Livello 1
370
     9
  0
POLYLINE
  5
27F
330
72
100
AcDbEntity
  8
Livello 1
 62
     7
370
     9
100
AcDb2dPolyline
 66
     1
 10
0.0
 20
0.0
 30
0.0
  0
VERTEX
  5
280
330
27F
100
AcDbEntity
  8
Livello 1
 62
     7
370
     9
100
AcDbVertex
100
AcDb2dVertex
 10
69.424565141064
 20
7.093933917497349
 30
0.0
  0
VERTEX
  5
281
330
27F
100
AcDbEntity
  8
Livello 1
 62
     7
370
     9
100
AcDbVertex
100
AcDb2dVertex
 10
69.42466849392855
 20
7.094967446142924
 30
0.0
  0
VERTEX
  5
282
330
27F
100
AcDbEntity
  8
Livello 1
 62
     7
370
     9
100
AcDbVertex
100
AcDb2dVertex
 10
69.42490965061252
 20
7.095914847401368
 30
0.0
  0
VERTEX
  5
283
330
27F
100
AcDbEntity
  8
Livello 1
 62
     7
370
     9
100
AcDbVertex
100
AcDb2dVertex
 10
69.42546086589016
 20
7.096793346750107
 30
0.0
  0
VERTEX
  5
284
330
27F
100
AcDbEntity
  8
Livello 1
 62
     7
370
     9
100
AcDbVertex
100
AcDb2dVertex
 10
69.4260809830775
 20
7.097568493234288
 30
0.0
  0
VERTEX
  5
285
330
27F
100
AcDbEntity
  8
Livello 1
 62
     7
370
     9
100
AcDbVertex
100
AcDb2dVertex
 10
69.4268733550391
 20
7.098205835899059
 30
0.0
  0
VERTEX
  5
286
330
27F
100
AcDbEntity
  8
Livello 1
 62
     7
370
     9
100
AcDbVertex
100
AcDb2dVertex
 10
69.42773462891043
 20
7.098739825699273
 30
0.0
  0
VERTEX
  5
287
330
27F
100
AcDbEntity
  8
Livello 1
 62
     7
370
     9
100
AcDbVertex
100
AcDb2dVertex
 10
69.4286992556463
 20
7.098980982383241
 30
0.0
  0
VERTEX
  5
288
330
27F
100
AcDbEntity
  8
Livello 1
 62
     7
370
     9
100
AcDbVertex
100
AcDb2dVertex
 10
69.42973278429187
 20
7.09911878620265
 30
0.0
  0
SEQEND
  5
289
330
27F
100
AcDbEntity
  8
Livello 1
370
     9
  0
POLYLINE
  5
28A
330
72
100
AcDbEntity
  8
Livello 1
 62
     7
370
     9
100
AcDb2dPolyline
 66
     1
 10
0.0
 20
0.0
 30
0.0
  0
VERTEX
  5
28B
330
28A
100
AcDbEntity
  8
Livello 1
 62
     7
370
     9
100
AcDbVertex
100
AcDb2dVertex
 10
69.34177949655344
 20
7.09911878620265
 30
0.0
  0
VERTEX
  5
28C
330
28A
100
AcDbEntity
  8
Livello 1
 62
     7
370
     9
100
AcDbVertex
100
AcDb2dVertex
 10
69.342813025199
 20
7.098980982383241
 30
0.0
  0
VERTEX
  5
28D
330
28A
100
AcDbEntity
  8
Livello 1
 62
     7
370
     9
100
AcDbVertex
100
AcDb2dVertex
 10
69.34374320098003
 20
7.098739825699273
 30
0.0
  0
VERTEX
  5
28E
330
28A
100
AcDbEntity
  8
Livello 1
 62
     7
370
     9
100
AcDbVertex
100
AcDb2dVertex
 10
69.3446389258062
 20
7.098205835899059
 30
0.0
  0
VERTEX
  5
28F
330
28A
100
AcDbEntity
  8
Livello 1
 62
     7
370
     9
100
AcDbVertex
100
AcDb2dVertex
 10
69.34539684681295
 20
7.097568493234288
 30
0.0
  0
VERTEX
  5
290
330
28A
100
AcDbEntity
  8
Livello 1
 62
     7
370
     9
100
AcDbVertex
100
AcDb2dVertex
 10
69.34605141495516
 20
7.096793346750107
 30
0.0
  0
VERTEX
  5
291
330
28A
100
AcDbEntity
  8
Livello 1
 62
     7
370
     9
100
AcDbVertex
100
AcDb2dVertex
 10
69.34649927736824
 20
7.095914847401368
 30
0.0
  0
VERTEX
  5
292
330
28A
100
AcDbEntity
  8
Livello 1
 62
     7
370
     9
100
AcDbVertex
100
AcDb2dVertex
 10
69.34680933596191
 20
7.094967446142924
 30
0.0
  0
VERTEX
  5
293
330
28A
100
AcDbEntity
  8
Livello 1
 62
     7
370
     9
100
AcDbVertex
100
AcDb2dVertex
 10
69.34694713978132
 20
7.093933917497349
 30
0.0
  0
SEQEND
  5
294
330
28A
100
AcDbEntity
  8
Livello 1
370
     9
  0
POLYLINE
  5
295
330
72
100
AcDbEntity
  8
Livello 1
 62
     7
370
     9
100
AcDb2dPolyline
 66
     1
 10
0.0
 20
0.0
 30
0.0
  0
VERTEX
  5
296
330
295
100
AcDbEntity
  8
Livello 1
 62
     7
370
     9
100
AcDbVertex
100
AcDb2dVertex
 10
69.43235105686065
 20
7.09911878620265
 30
0.0
  0
VERTEX
  5
297
330
295
100
AcDbEntity
  8
Livello 1
 62
     7
370
     9
100
AcDbVertex
100
AcDb2dVertex
 10
69.43331568359653
 20
7.099222139067208
 30
0.0
  0
VERTEX
  5
298
330
295
100
AcDbEntity
  8
Livello 1
 62
     7
370
     9
100
AcDbVertex
100
AcDb2dVertex
 10
69.4342803103324
 20
7.099480521228601
 30
0.0
  0
VERTEX
  5
299
330
295
100
AcDbEntity
  8
Livello 1
 62
     7
370
     9
100
AcDbVertex
100
AcDb2dVertex
 10
69.43521048611342
 20
7.099928383641684
 30
0.0
  0
VERTEX
  5
29A
330
295
100
AcDbEntity
  8
Livello 1
 62
     7
370
     9
100
AcDbVertex
100
AcDb2dVertex
 10
69.43600285807503
 20
7.10063462821616
 30
0.0
  0
VERTEX
  5
29B
330
295
100
AcDbEntity
  8
Livello 1
 62
     7
370
     9
100
AcDbVertex
100
AcDb2dVertex
 10
69.43662297526237
 20
7.101409774700342
 30
0.0
  0
VERTEX
  5
29C
330
295
100
AcDbEntity
  8
Livello 1
 62
     7
370
     9
100
AcDbVertex
100
AcDb2dVertex
 10
69.4371052886303
 20
7.102305499526507
 30
0.0
  0
VERTEX
  5
29D
330
295
100
AcDbEntity
  8
Livello 1
 62
     7
370
     9
100
AcDbVertex
100
AcDb2dVertex
 10
69.43741534722398
 20
7.10325290078495
 30
0.0
  0
VERTEX
  5
29E
330
295
100
AcDbEntity
  8
Livello 1
 62
     7
370
     9
100
AcDbVertex
100
AcDb2dVertex
 10
69.43748424913368
 20
7.104269203953099
 30
0.0
  0
SEQEND
  5
29F
330
295
100
AcDbEntity
  8
Livello 1
370
     9
  0
POLYLINE
  5
2A0
330
72
100
AcDbEntity
  8
Livello 1
 62
     7
370
     9
100
AcDb2dPolyline
 66
     1
 10
0.0
 20
0.0
 30
0.0
  0
VERTEX
  5
2A1
330
2A0
100
AcDbEntity
  8
Livello 1
 62
     7
370
     9
100
AcDbVertex
100
AcDb2dVertex
 10
69.33399358075677
 20
7.104269203953099
 30
0.0
  0
VERTEX
  5
2A2
330
2A0
100
AcDbEntity
  8
Livello 1
 62
     7
370
     9
100
AcDbVertex
100
AcDb2dVertex
 10
69.33409693362132
 20
7.10325290078495
 30
0.0
  0
VERTEX
  5
2A3
330
2A0
100
AcDbEntity
  8
Livello 1
 62
     7
370
     9
100
AcDbVertex
100
AcDb2dVertex
 10
69.33437254126015
 20
7.102305499526507
 30
0.0
  0
VERTEX
  5
2A4
330
2A0
100
AcDbEntity
  8
Livello 1
 62
     7
370
     9
100
AcDbVertex
100
AcDb2dVertex
 10
69.33485485462809
 20
7.101409774700342
 30
0.0
  0
VERTEX
  5
2A5
330
2A0
100
AcDbEntity
  8
Livello 1
 62
     7
370
     9
100
AcDbVertex
100
AcDb2dVertex
 10
69.33550942277029
 20
7.10063462821616
 30
0.0
  0
VERTEX
  5
2A6
330
2A0
100
AcDbEntity
  8
Livello 1
 62
     7
370
     9
100
AcDbVertex
100
AcDb2dVertex
 10
69.33626734377704
 20
7.099928383641684
 30
0.0
  0
VERTEX
  5
2A7
330
2A0
100
AcDbEntity
  8
Livello 1
 62
     7
370
     9
100
AcDbVertex
100
AcDb2dVertex
 10
69.3371630686032
 20
7.099480521228601
 30
0.0
  0
VERTEX
  5
2A8
330
2A0
100
AcDbEntity
  8
Livello 1
 62
     7
370
     9
100
AcDbVertex
100
AcDb2dVertex
 10
69.33816214629393
 20
7.099222139067208
 30
0.0
  0
VERTEX
  5
2A9
330
2A0
100
AcDbEntity
  8
Livello 1
 62
     7
370
     9
100
AcDbVertex
100
AcDb2dVertex
 10
69.33912677302979
 20
7.09911878620265
 30
0.0
  0
SEQEND
  5
2AA
330
2A0
100
AcDbEntity
  8
Livello 1
370
     9
  0
POLYLINE
  5
2AB
330
72
100
AcDbEntity
  8
Livello 1
 62
     7
370
     9
100
AcDb2dPolyline
 66
     1
 10
0.0
 20
0.0
 30
0.0
  0
VERTEX
  5
2AC
330
2AB
100
AcDbEntity
  8
Livello 1
 62
     7
370
     9
100
AcDbVertex
100
AcDb2dVertex
 10
69.43748424913368
 20
7.104269203953099
 30
0.0
  0
VERTEX
  5
2AD
330
2AB
100
AcDbEntity
  8
Livello 1
 62
     7
370
     9
100
AcDbVertex
100
AcDb2dVertex
 10
69.43748424913368
 20
7.11041869939427
 30
0.0
  0
SEQEND
  5
2AE
330
2AB
100
AcDbEntity
  8
Livello 1
370
     9
  0
POLYLINE
  5
2AF
330
72
100
AcDbEntity
  8
Livello 1
 62
     7
370
     9
100
AcDb2dPolyline
 66
     1
 10
0.0
 20
0.0
 30
0.0
  0
VERTEX
  5
2B0
330
2AF
100
AcDbEntity
  8
Livello 1
 62
     7
370
     9
100
AcDbVertex
100
AcDb2dVertex
 10
69.33399358075677
 20
7.11041869939427
 30
0.0
  0
VERTEX
  5
2B1
330
2AF
100
AcDbEntity
  8
Livello 1
 62
     7
370
     9
100
AcDbVertex
100
AcDb2dVertex
 10
69.33399358075677
 20
7.104269203953099
 30
0.0
  0
SEQEND
  5
2B2
330
2AF
100
AcDbEntity
  8
Livello 1
370
     9
  0
POLYLINE
  5
2B3
330
72
100
AcDbEntity
  8
Livello 1
 62
     7
370
     9
100
AcDb2dPolyline
 66
     1
 10
0.0
 20
0.0
 30
0.0
  0
VERTEX
  5
2B4
330
2B3
100
AcDbEntity
  8
Livello 1
 62
     7
370
     9
100
AcDbVertex
100
AcDb2dVertex
 10
69.3356472265897
 20
7.112037894272337
 30
0.0
  0
VERTEX
  5
2B5
330
2B3
100
AcDbEntity
  8
Livello 1
 62
     7
370
     9
100
AcDbVertex
100
AcDb2dVertex
 10
69.33530271704117
 20
7.112037894272337
 30
0.0
  0
VERTEX
  5
2B6
330
2B3
100
AcDbEntity
  8
Livello 1
 62
     7
370
     9
100
AcDbVertex
100
AcDb2dVertex
 10
69.33499265844749
 20
7.111900090452927
 30
0.0
  0
VERTEX
  5
2B7
330
2B3
100
AcDbEntity
  8
Livello 1
 62
     7
370
     9
100
AcDbVertex
100
AcDb2dVertex
 10
69.33468259985382
 20
7.111745061156091
 30
0.0
  0
VERTEX
  5
2B8
330
2B3
100
AcDbEntity
  8
Livello 1
 62
     7
370
     9
100
AcDbVertex
100
AcDb2dVertex
 10
69.33447589412471
 20
7.111572806381829
 30
0.0
  0
VERTEX
  5
2B9
330
2B3
100
AcDbEntity
  8
Livello 1
 62
     7
370
     9
100
AcDbVertex
100
AcDb2dVertex
 10
69.33423473744074
 20
7.111331649697861
 30
0.0
  0
VERTEX
  5
2BA
330
2B3
100
AcDbEntity
  8
Livello 1
 62
     7
370
     9
100
AcDbVertex
100
AcDb2dVertex
 10
69.33409693362132
 20
7.111056042059041
 30
0.0
  0
VERTEX
  5
2BB
330
2B3
100
AcDbEntity
  8
Livello 1
 62
     7
370
     9
100
AcDbVertex
100
AcDb2dVertex
 10
69.33402803171163
 20
7.110728757987943
 30
0.0
  0
VERTEX
  5
2BC
330
2B3
100
AcDbEntity
  8
Livello 1
 62
     7
370
     9
100
AcDbVertex
100
AcDb2dVertex
 10
69.33399358075677
 20
7.11041869939427
 30
0.0
  0
SEQEND
  5
2BD
330
2B3
100
AcDbEntity
  8
Livello 1
370
     9
  0
POLYLINE
  5
2BE
330
72
100
AcDbEntity
  8
Livello 1
 62
     7
370
     9
100
AcDb2dPolyline
 66
     1
 10
0.0
 20
0.0
 30
0.0
  0
VERTEX
  5
2BF
330
2BE
100
AcDbEntity
  8
Livello 1
 62
     7
370
     9
100
AcDbVertex
100
AcDb2dVertex
 10
69.43748424913368
 20
7.11041869939427
 30
0.0
  0
VERTEX
  5
2C0
330
2BE
100
AcDbEntity
  8
Livello 1
 62
     7
370
     9
100
AcDbVertex
100
AcDb2dVertex
 10
69.43748424913368
 20
7.110728757987943
 30
0.0
  0
VERTEX
  5
2C1
330
2BE
100
AcDbEntity
  8
Livello 1
 62
     7
370
     9
100
AcDbVertex
100
AcDb2dVertex
 10
69.43734644531428
 20
7.111056042059041
 30
0.0
  0
VERTEX
  5
2C2
330
2BE
100
AcDbEntity
  8
Livello 1
 62
     7
370
     9
100
AcDbVertex
100
AcDb2dVertex
 10
69.43720864149486
 20
7.111331649697861
 30
0.0
  0
VERTEX
  5
2C3
330
2BE
100
AcDbEntity
  8
Livello 1
 62
     7
370
     9
100
AcDbVertex
100
AcDb2dVertex
 10
69.43703638672059
 20
7.111572806381829
 30
0.0
  0
VERTEX
  5
2C4
330
2BE
100
AcDbEntity
  8
Livello 1
 62
     7
370
     9
100
AcDbVertex
100
AcDb2dVertex
 10
69.43676077908178
 20
7.111745061156091
 30
0.0
  0
VERTEX
  5
2C5
330
2BE
100
AcDbEntity
  8
Livello 1
 62
     7
370
     9
100
AcDbVertex
100
AcDb2dVertex
 10
69.43648517144295
 20
7.111900090452927
 30
0.0
  0
VERTEX
  5
2C6
330
2BE
100
AcDbEntity
  8
Livello 1
 62
     7
370
     9
100
AcDbVertex
100
AcDb2dVertex
 10
69.43617511284928
 20
7.112037894272337
 30
0.0
  0
VERTEX
  5
2C7
330
2BE
100
AcDbEntity
  8
Livello 1
 62
     7
370
     9
100
AcDbVertex
100
AcDb2dVertex
 10
69.43586505425561
 20
7.112037894272337
 30
0.0
  0
SEQEND
  5
2C8
330
2BE
100
AcDbEntity
  8
Livello 1
370
     9
  0
POLYLINE
  5
2C9
330
72
100
AcDbEntity
  8
Livello 1
 62
     7
370
     9
100
AcDb2dPolyline
 66
     1
 10
0.0
 20
0.0
 30
0.0
  0
VERTEX
  5
2CA
330
2C9
100
AcDbEntity
  8
Livello 1
 62
     7
370
     9
100
AcDbVertex
100
AcDb2dVertex
 10
80.44852618431494
 20
2.094928113625573
 30
0.0
  0
VERTEX
  5
2CB
330
2C9
100
AcDbEntity
  8
Livello 1
 62
     7
370
     9
100
AcDbVertex
100
AcDb2dVertex
 10
80.40966550724133
 20
2.094928113625573
 30
0.0
  0
VERTEX
  5
2CC
330
2C9
100
AcDbEntity
  8
Livello 1
 62
     7
370
     9
100
AcDbVertex
100
AcDb2dVertex
 10
80.40966550724133
 20
1.84185139927912
 30
0.0
  0
SEQEND
  5
2CD
330
2C9
100
AcDbEntity
  8
Livello 1
370
     9
  0
POLYLINE
  5
2CE
330
72
100
AcDbEntity
  8
Livello 1
 62
     7
370
     9
100
AcDb2dPolyline
 66
     1
 10
0.0
 20
0.0
 30
0.0
  0
VERTEX
  5
2CF
330
2CE
100
AcDbEntity
  8
Livello 1
 62
     7
370
     9
100
AcDbVertex
100
AcDb2dVertex
 10
80.44852618431494
 20
1.84185139927912
 30
0.0
  0
VERTEX
  5
2D0
330
2CE
100
AcDbEntity
  8
Livello 1
 62
     7
370
     9
100
AcDbVertex
100
AcDb2dVertex
 10
80.44852618431494
 20
2.094928113625573
 30
0.0
  0
SEQEND
  5
2D1
330
2CE
100
AcDbEntity
  8
Livello 1
370
     9
  0
POLYLINE
  5
2D2
330
72
100
AcDbEntity
  8
Livello 1
 62
     7
370
     9
100
AcDb2dPolyline
 66
     1
 10
0.0
 20
0.0
 30
0.0
  0
VERTEX
  5
2D3
330
2D2
100
AcDbEntity
  8
Livello 1
 62
     7
370
     9
100
AcDbVertex
100
AcDb2dVertex
 10
69.38956297093385
 20
1.84185139927912
 30
0.0
  0
VERTEX
  5
2D4
330
2D2
100
AcDbEntity
  8
Livello 1
 62
     7
370
     9
100
AcDbVertex
100
AcDb2dVertex
 10
69.38956297093385
 20
6.943900009114719
 30
0.0
  0
SEQEND
  5
2D5
330
2D2
100
AcDbEntity
  8
Livello 1
370
     9
  0
POLYLINE
  5
2D6
330
72
100
AcDbEntity
  8
Livello 1
 62
     7
370
     9
100
AcDb2dPolyline
 66
     1
 10
0.0
 20
0.0
 30
0.0
  0
VERTEX
  5
2D7
330
2D6
100
AcDbEntity
  8
Livello 1
 62
     7
370
     9
100
AcDbVertex
100
AcDb2dVertex
 10
69.38184595704689
 20
6.943900009114719
 30
0.0
  0
VERTEX
  5
2D8
330
2D6
100
AcDbEntity
  8
Livello 1
 62
     7
370
     9
100
AcDbVertex
100
AcDb2dVertex
 10
69.38184595704689
 20
1.84185139927912
 30
0.0
  0
SEQEND
  5
2D9
330
2D6
100
AcDbEntity
  8
Livello 1
370
     9
  0
POLYLINE
  5
2DA
330
72
100
AcDbEntity
  8
Livello 1
 62
     7
370
     9
100
AcDb2dPolyline
 66
     1
 10
0.0
 20
0.0
 30
0.0
  0
VERTEX
  5
2DB
330
2DA
100
AcDbEntity
  8
Livello 1
 62
     7
370
     9
100
AcDbVertex
100
AcDb2dVertex
 10
67.69209552344155
 20
6.743877765241113
 30
0.0
  0
VERTEX
  5
2DC
330
2DA
100
AcDbEntity
  8
Livello 1
 62
     7
370
     9
100
AcDbVertex
100
AcDb2dVertex
 10
67.69209552344155
 20
6.74458400981559
 30
0.0
  0
VERTEX
  5
2DD
330
2DA
100
AcDbEntity
  8
Livello 1
 62
     7
370
     9
100
AcDbVertex
100
AcDb2dVertex
 10
67.691992170577
 20
6.745221352480361
 30
0.0
  0
VERTEX
  5
2DE
330
2DA
100
AcDbEntity
  8
Livello 1
 62
     7
370
     9
100
AcDbVertex
100
AcDb2dVertex
 10
67.69171656293818
 20
6.745858695145132
 30
0.0
  0
VERTEX
  5
2DF
330
2DA
100
AcDbEntity
  8
Livello 1
 62
     7
370
     9
100
AcDbVertex
100
AcDb2dVertex
 10
67.6912687005251
 20
6.746341008513067
 30
0.0
  0
VERTEX
  5
2E0
330
2DA
100
AcDbEntity
  8
Livello 1
 62
     7
370
     9
100
AcDbVertex
100
AcDb2dVertex
 10
67.6907519362023
 20
6.746806096403576
 30
0.0
  0
VERTEX
  5
2E1
330
2DA
100
AcDbEntity
  8
Livello 1
 62
     7
370
     9
100
AcDbVertex
100
AcDb2dVertex
 10
67.69020072092466
 20
6.747185056906953
 30
0.0
  0
VERTEX
  5
2E2
330
2DA
100
AcDbEntity
  8
Livello 1
 62
     7
370
     9
100
AcDbVertex
100
AcDb2dVertex
 10
67.68954615278247
 20
6.747374537158642
 30
0.0
  0
VERTEX
  5
2E3
330
2DA
100
AcDbEntity
  8
Livello 1
 62
     7
370
     9
100
AcDbVertex
100
AcDb2dVertex
 10
67.68885713368542
 20
6.747443439068347
 30
0.0
  0
SEQEND
  5
2E4
330
2DA
100
AcDbEntity
  8
Livello 1
370
     9
  0
POLYLINE
  5
2E5
330
72
100
AcDbEntity
  8
Livello 1
 62
     7
370
     9
100
AcDb2dPolyline
 66
     1
 10
0.0
 20
0.0
 30
0.0
  0
VERTEX
  5
2E6
330
2E5
100
AcDbEntity
  8
Livello 1
 62
     7
370
     9
100
AcDbVertex
100
AcDb2dVertex
 10
67.59945690584318
 20
6.747443439068347
 30
0.0
  0
VERTEX
  5
2E7
330
2E5
100
AcDbEntity
  8
Livello 1
 62
     7
370
     9
100
AcDbVertex
100
AcDb2dVertex
 10
67.59880233770099
 20
6.747374537158642
 30
0.0
  0
VERTEX
  5
2E8
330
2E5
100
AcDbEntity
  8
Livello 1
 62
     7
370
     9
100
AcDbVertex
100
AcDb2dVertex
 10
67.59811331860394
 20
6.747185056906953
 30
0.0
  0
VERTEX
  5
2E9
330
2E5
100
AcDbEntity
  8
Livello 1
 62
     7
370
     9
100
AcDbVertex
100
AcDb2dVertex
 10
67.5975621033263
 20
6.746806096403576
 30
0.0
  0
VERTEX
  5
2EA
330
2E5
100
AcDbEntity
  8
Livello 1
 62
     7
370
     9
100
AcDbVertex
100
AcDb2dVertex
 10
67.59701088804866
 20
6.746341008513067
 30
0.0
  0
VERTEX
  5
2EB
330
2E5
100
AcDbEntity
  8
Livello 1
 62
     7
370
     9
100
AcDbVertex
100
AcDb2dVertex
 10
67.59666637850013
 20
6.745858695145132
 30
0.0
  0
VERTEX
  5
2EC
330
2E5
100
AcDbEntity
  8
Livello 1
 62
     7
370
     9
100
AcDbVertex
100
AcDb2dVertex
 10
67.59635631990646
 20
6.745221352480361
 30
0.0
  0
VERTEX
  5
2ED
330
2E5
100
AcDbEntity
  8
Livello 1
 62
     7
370
     9
100
AcDbVertex
100
AcDb2dVertex
 10
67.59621851608705
 20
6.74458400981559
 30
0.0
  0
VERTEX
  5
2EE
330
2E5
100
AcDbEntity
  8
Livello 1
 62
     7
370
     9
100
AcDbVertex
100
AcDb2dVertex
 10
67.59621851608705
 20
6.743877765241113
 30
0.0
  0
SEQEND
  5
2EF
330
2E5
100
AcDbEntity
  8
Livello 1
370
     9
  0
POLYLINE
  5
2F0
330
72
100
AcDbEntity
  8
Livello 1
 62
     7
370
     9
100
AcDb2dPolyline
 66
     1
 10
0.0
 20
0.0
 30
0.0
  0
VERTEX
  5
2F1
330
2F0
100
AcDbEntity
  8
Livello 1
 62
     7
370
     9
100
AcDbVertex
100
AcDb2dVertex
 10
67.59621851608705
 20
6.743877765241113
 30
0.0
  0
VERTEX
  5
2F2
330
2F0
100
AcDbEntity
  8
Livello 1
 62
     7
370
     9
100
AcDbVertex
100
AcDb2dVertex
 10
67.60796629169175
 20
6.627640243568784
 30
0.0
  0
SEQEND
  5
2F3
330
2F0
100
AcDbEntity
  8
Livello 1
370
     9
  0
POLYLINE
  5
2F4
330
72
100
AcDbEntity
  8
Livello 1
 62
     7
370
     9
100
AcDb2dPolyline
 66
     1
 10
0.0
 20
0.0
 30
0.0
  0
VERTEX
  5
2F5
330
2F4
100
AcDbEntity
  8
Livello 1
 62
     7
370
     9
100
AcDbVertex
100
AcDb2dVertex
 10
67.68034774783685
 20
6.627640243568784
 30
0.0
  0
VERTEX
  5
2F6
330
2F4
100
AcDbEntity
  8
Livello 1
 62
     7
370
     9
100
AcDbVertex
100
AcDb2dVertex
 10
67.69209552344155
 20
6.743877765241113
 30
0.0
  0
SEQEND
  5
2F7
330
2F4
100
AcDbEntity
  8
Livello 1
370
     9
  0
POLYLINE
  5
2F8
330
72
100
AcDbEntity
  8
Livello 1
 62
     7
370
     9
100
AcDb2dPolyline
 66
     1
 10
0.0
 20
0.0
 30
0.0
  0
VERTEX
  5
2F9
330
2F8
100
AcDbEntity
  8
Livello 1
 62
     7
370
     9
100
AcDbVertex
100
AcDb2dVertex
 10
67.67707490712587
 20
6.624711912406322
 30
0.0
  0
VERTEX
  5
2FA
330
2F8
100
AcDbEntity
  8
Livello 1
 62
     7
370
     9
100
AcDbVertex
100
AcDb2dVertex
 10
67.67769502431321
 20
6.624746363361174
 30
0.0
  0
VERTEX
  5
2FB
330
2F8
100
AcDbEntity
  8
Livello 1
 62
     7
370
     9
100
AcDbVertex
100
AcDb2dVertex
 10
67.6782806905457
 20
6.624884167180584
 30
0.0
  0
VERTEX
  5
2FC
330
2F8
100
AcDbEntity
  8
Livello 1
 62
     7
370
     9
100
AcDbVertex
100
AcDb2dVertex
 10
67.6788663567782
 20
6.625194225774257
 30
0.0
  0
VERTEX
  5
2FD
330
2F8
100
AcDbEntity
  8
Livello 1
 62
     7
370
     9
100
AcDbVertex
100
AcDb2dVertex
 10
67.67931421919128
 20
6.62559041175506
 30
0.0
  0
VERTEX
  5
2FE
330
2F8
100
AcDbEntity
  8
Livello 1
 62
     7
370
     9
100
AcDbVertex
100
AcDb2dVertex
 10
67.67969317969465
 20
6.625986597735864
 30
0.0
  0
VERTEX
  5
2FF
330
2F8
100
AcDbEntity
  8
Livello 1
 62
     7
370
     9
100
AcDbVertex
100
AcDb2dVertex
 10
67.68010659115288
 20
6.626468911103799
 30
0.0
  0
VERTEX
  5
300
330
2F8
100
AcDbEntity
  8
Livello 1
 62
     7
370
     9
100
AcDbVertex
100
AcDb2dVertex
 10
67.68020994401745
 20
6.627071802813718
 30
0.0
  0
VERTEX
  5
301
330
2F8
100
AcDbEntity
  8
Livello 1
 62
     7
370
     9
100
AcDbVertex
100
AcDb2dVertex
 10
67.68034774783685
 20
6.627640243568784
 30
0.0
  0
SEQEND
  5
302
330
2F8
100
AcDbEntity
  8
Livello 1
370
     9
  0
POLYLINE
  5
303
330
72
100
AcDbEntity
  8
Livello 1
 62
     7
370
     9
100
AcDb2dPolyline
 66
     1
 10
0.0
 20
0.0
 30
0.0
  0
VERTEX
  5
304
330
303
100
AcDbEntity
  8
Livello 1
 62
     7
370
     9
100
AcDbVertex
100
AcDb2dVertex
 10
67.60796629169175
 20
6.627640243568784
 30
0.0
  0
VERTEX
  5
305
330
303
100
AcDbEntity
  8
Livello 1
 62
     7
370
     9
100
AcDbVertex
100
AcDb2dVertex
 10
67.60810409551117
 20
6.627071802813718
 30
0.0
  0
VERTEX
  5
306
330
303
100
AcDbEntity
  8
Livello 1
 62
     7
370
     9
100
AcDbVertex
100
AcDb2dVertex
 10
67.60827635028542
 20
6.626468911103799
 30
0.0
  0
VERTEX
  5
307
330
303
100
AcDbEntity
  8
Livello 1
 62
     7
370
     9
100
AcDbVertex
100
AcDb2dVertex
 10
67.6085864088791
 20
6.625986597735864
 30
0.0
  0
VERTEX
  5
308
330
303
100
AcDbEntity
  8
Livello 1
 62
     7
370
     9
100
AcDbVertex
100
AcDb2dVertex
 10
67.60896536938247
 20
6.62559041175506
 30
0.0
  0
VERTEX
  5
309
330
303
100
AcDbEntity
  8
Livello 1
 62
     7
370
     9
100
AcDbVertex
100
AcDb2dVertex
 10
67.60951658466011
 20
6.625194225774257
 30
0.0
  0
VERTEX
  5
30A
330
303
100
AcDbEntity
  8
Livello 1
 62
     7
370
     9
100
AcDbVertex
100
AcDb2dVertex
 10
67.60999889802805
 20
6.624884167180584
 30
0.0
  0
VERTEX
  5
30B
330
303
100
AcDbEntity
  8
Livello 1
 62
     7
370
     9
100
AcDbVertex
100
AcDb2dVertex
 10
67.61061901521539
 20
6.624746363361174
 30
0.0
  0
VERTEX
  5
30C
330
303
100
AcDbEntity
  8
Livello 1
 62
     7
370
     9
100
AcDbVertex
100
AcDb2dVertex
 10
67.61123913240274
 20
6.624711912406322
 30
0.0
  0
SEQEND
  5
30D
330
303
100
AcDbEntity
  8
Livello 1
370
     9
  0
POLYLINE
  5
30E
330
72
100
AcDbEntity
  8
Livello 1
 62
     7
370
     9
100
AcDb2dPolyline
 66
     1
 10
0.0
 20
0.0
 30
0.0
  0
VERTEX
  5
30F
330
30E
100
AcDbEntity
  8
Livello 1
 62
     7
370
     9
100
AcDbVertex
100
AcDb2dVertex
 10
67.63821423005224
 20
6.627640243568784
 30
0.0
  0
VERTEX
  5
310
330
30E
100
AcDbEntity
  8
Livello 1
 62
     7
370
     9
100
AcDbVertex
100
AcDb2dVertex
 10
67.63821423005224
 20
2.109673122302443
 30
0.0
  0
SEQEND
  5
311
330
30E
100
AcDbEntity
  8
Livello 1
370
     9
  0
POLYLINE
  5
312
330
72
100
AcDbEntity
  8
Livello 1
 62
     7
370
     9
100
AcDb2dPolyline
 66
     1
 10
0.0
 20
0.0
 30
0.0
  0
VERTEX
  5
313
330
312
100
AcDbEntity
  8
Livello 1
 62
     7
370
     9
100
AcDbVertex
100
AcDb2dVertex
 10
67.65774792145362
 20
1.84722574823611
 30
0.0
  0
VERTEX
  5
314
330
312
100
AcDbEntity
  8
Livello 1
 62
     7
370
     9
100
AcDbVertex
100
AcDb2dVertex
 10
67.65774792145362
 20
2.108329535063195
 30
0.0
  0
SEQEND
  5
315
330
312
100
AcDbEntity
  8
Livello 1
370
     9
  0
POLYLINE
  5
316
330
72
100
AcDbEntity
  8
Livello 1
 62
     7
370
     9
100
AcDb2dPolyline
 66
     1
 10
0.0
 20
0.0
 30
0.0
  0
VERTEX
  5
317
330
316
100
AcDbEntity
  8
Livello 1
 62
     7
370
     9
100
AcDbVertex
100
AcDb2dVertex
 10
67.61857718578632
 20
2.108363986018048
 30
0.0
  0
VERTEX
  5
318
330
316
100
AcDbEntity
  8
Livello 1
 62
     7
370
     9
100
AcDbVertex
100
AcDb2dVertex
 10
67.61857718578632
 20
1.84722574823611
 30
0.0
  0
SEQEND
  5
319
330
316
100
AcDbEntity
  8
Livello 1
370
     9
  0
POLYLINE
  5
31A
330
72
100
AcDbEntity
  8
Livello 1
 62
     7
370
     9
100
AcDb2dPolyline
 66
     1
 10
0.0
 20
0.0
 30
0.0
  0
VERTEX
  5
31B
330
31A
100
AcDbEntity
  8
Livello 1
 62
     7
370
     9
100
AcDbVertex
100
AcDb2dVertex
 10
67.27262069715754
 20
1.2727560760707
 30
0.0
  0
VERTEX
  5
31C
330
31A
100
AcDbEntity
  8
Livello 1
 62
     7
370
     9
100
AcDbVertex
100
AcDb2dVertex
 10
67.2728618538415
 20
1.270206705411615
 30
0.0
  0
VERTEX
  5
31D
330
31A
100
AcDbEntity
  8
Livello 1
 62
     7
370
     9
100
AcDbVertex
100
AcDb2dVertex
 10
67.27361977484826
 20
1.267691785707383
 30
0.0
  0
VERTEX
  5
31E
330
31A
100
AcDbEntity
  8
Livello 1
 62
     7
370
     9
100
AcDbVertex
100
AcDb2dVertex
 10
67.27482555826809
 20
1.26545247364197
 30
0.0
  0
VERTEX
  5
31F
330
31A
100
AcDbEntity
  8
Livello 1
 62
     7
370
     9
100
AcDbVertex
100
AcDb2dVertex
 10
67.27647920410101
 20
1.263454318260525
 30
0.0
  0
VERTEX
  5
320
330
31A
100
AcDbEntity
  8
Livello 1
 62
     7
370
     9
100
AcDbVertex
100
AcDb2dVertex
 10
67.27844290852761
 20
1.26186957433731
 30
0.0
  0
VERTEX
  5
321
330
31A
100
AcDbEntity
  8
Livello 1
 62
     7
370
     9
100
AcDbVertex
100
AcDb2dVertex
 10
67.28071667154788
 20
1.260663790917473
 30
0.0
  0
VERTEX
  5
322
330
31A
100
AcDbEntity
  8
Livello 1
 62
     7
370
     9
100
AcDbVertex
100
AcDb2dVertex
 10
67.2831626893424
 20
1.259974771820423
 30
0.0
  0
VERTEX
  5
323
330
31A
100
AcDbEntity
  8
Livello 1
 62
     7
370
     9
100
AcDbVertex
100
AcDb2dVertex
 10
67.28567760904663
 20
1.25966471322675
 30
0.0
  0
SEQEND
  5
324
330
31A
100
AcDbEntity
  8
Livello 1
370
     9
  0
POLYLINE
  5
325
330
72
100
AcDbEntity
  8
Livello 1
 62
     7
370
     9
100
AcDb2dPolyline
 66
     1
 10
0.0
 20
0.0
 30
0.0
  0
VERTEX
  5
326
330
325
100
AcDbEntity
  8
Livello 1
 62
     7
370
     9
100
AcDbVertex
100
AcDb2dVertex
 10
67.28567760904663
 20
1.84722574823611
 30
0.0
  0
VERTEX
  5
327
330
325
100
AcDbEntity
  8
Livello 1
 62
     7
370
     9
100
AcDbVertex
100
AcDb2dVertex
 10
67.2831626893424
 20
1.84695014059729
 30
0.0
  0
VERTEX
  5
328
330
325
100
AcDbEntity
  8
Livello 1
 62
     7
370
     9
100
AcDbVertex
100
AcDb2dVertex
 10
67.28071667154788
 20
1.846226670545388
 30
0.0
  0
VERTEX
  5
329
330
325
100
AcDbEntity
  8
Livello 1
 62
     7
370
     9
100
AcDbVertex
100
AcDb2dVertex
 10
67.27844290852761
 20
1.844986436170698
 30
0.0
  0
VERTEX
  5
32A
330
325
100
AcDbEntity
  8
Livello 1
 62
     7
370
     9
100
AcDbVertex
100
AcDb2dVertex
 10
67.27647920410101
 20
1.843401692247483
 30
0.0
  0
VERTEX
  5
32B
330
325
100
AcDbEntity
  8
Livello 1
 62
     7
370
     9
100
AcDbVertex
100
AcDb2dVertex
 10
67.27482555826809
 20
1.84143798782089
 30
0.0
  0
VERTEX
  5
32C
330
325
100
AcDbEntity
  8
Livello 1
 62
     7
370
     9
100
AcDbVertex
100
AcDb2dVertex
 10
67.27361977484826
 20
1.839164224800625
 30
0.0
  0
VERTEX
  5
32D
330
325
100
AcDbEntity
  8
Livello 1
 62
     7
370
     9
100
AcDbVertex
100
AcDb2dVertex
 10
67.2728618538415
 20
1.836718207006098
 30
0.0
  0
VERTEX
  5
32E
330
325
100
AcDbEntity
  8
Livello 1
 62
     7
370
     9
100
AcDbVertex
100
AcDb2dVertex
 10
67.27262069715754
 20
1.834203287301866
 30
0.0
  0
SEQEND
  5
32F
330
325
100
AcDbEntity
  8
Livello 1
370
     9
  0
POLYLINE
  5
330
330
72
100
AcDbEntity
  8
Livello 1
 62
     7
370
     9
100
AcDb2dPolyline
 66
     1
 10
0.0
 20
0.0
 30
0.0
  0
VERTEX
  5
331
330
330
100
AcDbEntity
  8
Livello 1
 62
     7
370
     9
100
AcDbVertex
100
AcDb2dVertex
 10
67.99071640010301
 20
1.84722574823611
 30
0.0
  0
VERTEX
  5
332
330
330
100
AcDbEntity
  8
Livello 1
 62
     7
370
     9
100
AcDbVertex
100
AcDb2dVertex
 10
67.28567760904663
 20
1.84722574823611
 30
0.0
  0
SEQEND
  5
333
330
330
100
AcDbEntity
  8
Livello 1
370
     9
  0
POLYLINE
  5
334
330
72
100
AcDbEntity
  8
Livello 1
 62
     7
370
     9
100
AcDb2dPolyline
 66
     1
 10
0.0
 20
0.0
 30
0.0
  0
VERTEX
  5
335
330
334
100
AcDbEntity
  8
Livello 1
 62
     7
370
     9
100
AcDbVertex
100
AcDb2dVertex
 10
67.99071640010301
 20
1.25966471322675
 30
0.0
  0
VERTEX
  5
336
330
334
100
AcDbEntity
  8
Livello 1
 62
     7
370
     9
100
AcDbVertex
100
AcDb2dVertex
 10
67.99330022171695
 20
1.259974771820423
 30
0.0
  0
VERTEX
  5
337
330
334
100
AcDbEntity
  8
Livello 1
 62
     7
370
     9
100
AcDbVertex
100
AcDb2dVertex
 10
67.99574623951148
 20
1.260663790917473
 30
0.0
  0
VERTEX
  5
338
330
334
100
AcDbEntity
  8
Livello 1
 62
     7
370
     9
100
AcDbVertex
100
AcDb2dVertex
 10
67.99802000253175
 20
1.26186957433731
 30
0.0
  0
VERTEX
  5
339
330
334
100
AcDbEntity
  8
Livello 1
 62
     7
370
     9
100
AcDbVertex
100
AcDb2dVertex
 10
67.99998370695833
 20
1.263454318260525
 30
0.0
  0
VERTEX
  5
33A
330
334
100
AcDbEntity
  8
Livello 1
 62
     7
370
     9
100
AcDbVertex
100
AcDb2dVertex
 10
68.00156845088155
 20
1.26545247364197
 30
0.0
  0
VERTEX
  5
33B
330
334
100
AcDbEntity
  8
Livello 1
 62
     7
370
     9
100
AcDbVertex
100
AcDb2dVertex
 10
68.00280868525624
 20
1.267691785707383
 30
0.0
  0
VERTEX
  5
33C
330
334
100
AcDbEntity
  8
Livello 1
 62
     7
370
     9
100
AcDbVertex
100
AcDb2dVertex
 10
68.0034977043533
 20
1.270206705411615
 30
0.0
  0
VERTEX
  5
33D
330
334
100
AcDbEntity
  8
Livello 1
 62
     7
370
     9
100
AcDbVertex
100
AcDb2dVertex
 10
68.0038422139018
 20
1.2727560760707
 30
0.0
  0
SEQEND
  5
33E
330
334
100
AcDbEntity
  8
Livello 1
370
     9
  0
POLYLINE
  5
33F
330
72
100
AcDbEntity
  8
Livello 1
 62
     7
370
     9
100
AcDb2dPolyline
 66
     1
 10
0.0
 20
0.0
 30
0.0
  0
VERTEX
  5
340
330
33F
100
AcDbEntity
  8
Livello 1
 62
     7
370
     9
100
AcDbVertex
100
AcDb2dVertex
 10
67.27262069715754
 20
1.834203287301866
 30
0.0
  0
VERTEX
  5
341
330
33F
100
AcDbEntity
  8
Livello 1
 62
     7
370
     9
100
AcDbVertex
100
AcDb2dVertex
 10
67.27262069715754
 20
1.2727560760707
 30
0.0
  0
SEQEND
  5
342
330
33F
100
AcDbEntity
  8
Livello 1
370
     9
  0
POLYLINE
  5
343
330
72
100
AcDbEntity
  8
Livello 1
 62
     7
370
     9
100
AcDb2dPolyline
 66
     1
 10
0.0
 20
0.0
 30
0.0
  0
VERTEX
  5
344
330
343
100
AcDbEntity
  8
Livello 1
 62
     7
370
     9
100
AcDbVertex
100
AcDb2dVertex
 10
68.0038422139018
 20
1.834203287301866
 30
0.0
  0
VERTEX
  5
345
330
343
100
AcDbEntity
  8
Livello 1
 62
     7
370
     9
100
AcDbVertex
100
AcDb2dVertex
 10
68.0034977043533
 20
1.836718207006098
 30
0.0
  0
VERTEX
  5
346
330
343
100
AcDbEntity
  8
Livello 1
 62
     7
370
     9
100
AcDbVertex
100
AcDb2dVertex
 10
68.00280868525624
 20
1.839164224800625
 30
0.0
  0
VERTEX
  5
347
330
343
100
AcDbEntity
  8
Livello 1
 62
     7
370
     9
100
AcDbVertex
100
AcDb2dVertex
 10
68.00156845088155
 20
1.84143798782089
 30
0.0
  0
VERTEX
  5
348
330
343
100
AcDbEntity
  8
Livello 1
 62
     7
370
     9
100
AcDbVertex
100
AcDb2dVertex
 10
67.99998370695833
 20
1.843401692247483
 30
0.0
  0
VERTEX
  5
349
330
343
100
AcDbEntity
  8
Livello 1
 62
     7
370
     9
100
AcDbVertex
100
AcDb2dVertex
 10
67.99802000253175
 20
1.844986436170698
 30
0.0
  0
VERTEX
  5
34A
330
343
100
AcDbEntity
  8
Livello 1
 62
     7
370
     9
100
AcDbVertex
100
AcDb2dVertex
 10
67.99574623951148
 20
1.846226670545388
 30
0.0
  0
VERTEX
  5
34B
330
343
100
AcDbEntity
  8
Livello 1
 62
     7
370
     9
100
AcDbVertex
100
AcDb2dVertex
 10
67.99330022171695
 20
1.84695014059729
 30
0.0
  0
VERTEX
  5
34C
330
343
100
AcDbEntity
  8
Livello 1
 62
     7
370
     9
100
AcDbVertex
100
AcDb2dVertex
 10
67.99071640010301
 20
1.84722574823611
 30
0.0
  0
SEQEND
  5
34D
330
343
100
AcDbEntity
  8
Livello 1
370
     9
  0
POLYLINE
  5
34E
330
72
100
AcDbEntity
  8
Livello 1
 62
     7
370
     9
100
AcDb2dPolyline
 66
     1
 10
0.0
 20
0.0
 30
0.0
  0
VERTEX
  5
34F
330
34E
100
AcDbEntity
  8
Livello 1
 62
     7
370
     9
100
AcDbVertex
100
AcDb2dVertex
 10
67.28567760904663
 20
1.25966471322675
 30
0.0
  0
VERTEX
  5
350
330
34E
100
AcDbEntity
  8
Livello 1
 62
     7
370
     9
100
AcDbVertex
100
AcDb2dVertex
 10
67.99071640010301
 20
1.25966471322675
 30
0.0
  0
SEQEND
  5
351
330
34E
100
AcDbEntity
  8
Livello 1
370
     9
  0
POLYLINE
  5
352
330
72
100
AcDbEntity
  8
Livello 1
 62
     7
370
     9
100
AcDb2dPolyline
 66
     1
 10
0.0
 20
0.0
 30
0.0
  0
VERTEX
  5
353
330
352
100
AcDbEntity
  8
Livello 1
 62
     7
370
     9
100
AcDbVertex
100
AcDb2dVertex
 10
68.0038422139018
 20
1.2727560760707
 30
0.0
  0
VERTEX
  5
354
330
352
100
AcDbEntity
  8
Livello 1
 62
     7
370
     9
100
AcDbVertex
100
AcDb2dVertex
 10
68.0038422139018
 20
1.834203287301866
 30
0.0
  0
SEQEND
  5
355
330
352
100
AcDbEntity
  8
Livello 1
370
     9
  0
POLYLINE
  5
356
330
72
100
AcDbEntity
  8
Livello 1
 62
     7
370
     9
100
AcDb2dPolyline
 66
     1
 10
0.0
 20
0.0
 30
0.0
  0
VERTEX
  5
357
330
356
100
AcDbEntity
  8
Livello 1
 62
     7
370
     9
100
AcDbVertex
100
AcDb2dVertex
 10
67.67707490712587
 20
6.624711912406322
 30
0.0
  0
VERTEX
  5
358
330
356
100
AcDbEntity
  8
Livello 1
 62
     7
370
     9
100
AcDbVertex
100
AcDb2dVertex
 10
67.67593802561574
 20
6.624711912406322
 30
0.0
  0
VERTEX
  5
359
330
356
100
AcDbEntity
  8
Livello 1
 62
     7
370
     9
100
AcDbVertex
100
AcDb2dVertex
 10
67.67225177344652
 20
6.624711912406322
 30
0.0
  0
VERTEX
  5
35A
330
356
100
AcDbEntity
  8
Livello 1
 62
     7
370
     9
100
AcDbVertex
100
AcDb2dVertex
 10
67.66667071876041
 20
6.624711912406322
 30
0.0
  0
VERTEX
  5
35B
330
356
100
AcDbEntity
  8
Livello 1
 62
     7
370
     9
100
AcDbVertex
100
AcDb2dVertex
 10
67.65933266537682
 20
6.624711912406322
 30
0.0
  0
VERTEX
  5
35C
330
356
100
AcDbEntity
  8
Livello 1
 62
     7
370
     9
100
AcDbVertex
100
AcDb2dVertex
 10
67.65085773048311
 20
6.624711912406322
 30
0.0
  0
VERTEX
  5
35D
330
356
100
AcDbEntity
  8
Livello 1
 62
     7
370
     9
100
AcDbVertex
100
AcDb2dVertex
 10
67.64217608986029
 20
6.624711912406322
 30
0.0
  0
SEQEND
  5
35E
330
356
100
AcDbEntity
  8
Livello 1
370
     9
  0
POLYLINE
  5
35F
330
72
100
AcDbEntity
  8
Livello 1
 62
     7
370
     9
100
AcDb2dPolyline
 66
     1
 10
0.0
 20
0.0
 30
0.0
  0
VERTEX
  5
360
330
35F
100
AcDbEntity
  8
Livello 1
 62
     7
370
     9
100
AcDbVertex
100
AcDb2dVertex
 10
67.63432127215391
 20
6.624711912406322
 30
0.0
  0
VERTEX
  5
361
330
35F
100
AcDbEntity
  8
Livello 1
 62
     7
370
     9
100
AcDbVertex
100
AcDb2dVertex
 10
67.63311548873408
 20
6.624711912406322
 30
0.0
  0
VERTEX
  5
362
330
35F
100
AcDbEntity
  8
Livello 1
 62
     7
370
     9
100
AcDbVertex
100
AcDb2dVertex
 10
67.62515731816315
 20
6.624711912406322
 30
0.0
  0
VERTEX
  5
363
330
35F
100
AcDbEntity
  8
Livello 1
 62
     7
370
     9
100
AcDbVertex
100
AcDb2dVertex
 10
67.61857718578632
 20
6.624711912406322
 30
0.0
  0
VERTEX
  5
364
330
35F
100
AcDbEntity
  8
Livello 1
 62
     7
370
     9
100
AcDbVertex
100
AcDb2dVertex
 10
67.61399520879094
 20
6.624711912406322
 30
0.0
  0
VERTEX
  5
365
330
35F
100
AcDbEntity
  8
Livello 1
 62
     7
370
     9
100
AcDbVertex
100
AcDb2dVertex
 10
67.61148028908671
 20
6.624711912406322
 30
0.0
  0
VERTEX
  5
366
330
35F
100
AcDbEntity
  8
Livello 1
 62
     7
370
     9
100
AcDbVertex
100
AcDb2dVertex
 10
67.61123913240274
 20
6.624711912406322
 30
0.0
  0
SEQEND
  5
367
330
35F
100
AcDbEntity
  8
Livello 1
370
     9
  0
POLYLINE
  5
368
330
72
100
AcDbEntity
  8
Livello 1
 62
     7
370
     9
100
AcDb2dPolyline
 66
     1
 10
0.0
 20
0.0
 30
0.0
  0
VERTEX
  5
369
330
368
100
AcDbEntity
  8
Livello 1
 62
     7
370
     9
100
AcDbVertex
100
AcDb2dVertex
 10
67.87530570134714
 20
7.112037894272337
 30
0.0
  0
VERTEX
  5
36A
330
368
100
AcDbEntity
  8
Livello 1
 62
     7
370
     9
100
AcDbVertex
100
AcDb2dVertex
 10
67.68878823177572
 20
7.112037894272337
 30
0.0
  0
SEQEND
  5
36B
330
368
100
AcDbEntity
  8
Livello 1
370
     9
  0
POLYLINE
  5
36C
330
72
100
AcDbEntity
  8
Livello 1
 62
     7
370
     9
100
AcDb2dPolyline
 66
     1
 10
0.0
 20
0.0
 30
0.0
  0
VERTEX
  5
36D
330
36C
100
AcDbEntity
  8
Livello 1
 62
     7
370
     9
100
AcDbVertex
100
AcDb2dVertex
 10
67.68878823177572
 20
7.112037894272337
 30
0.0
  0
VERTEX
  5
36E
330
36C
100
AcDbEntity
  8
Livello 1
 62
     7
370
     9
100
AcDbVertex
100
AcDb2dVertex
 10
67.39988252438266
 20
7.112037894272337
 30
0.0
  0
SEQEND
  5
36F
330
36C
100
AcDbEntity
  8
Livello 1
370
     9
  0
POLYLINE
  5
370
330
72
100
AcDbEntity
  8
Livello 1
 62
     7
370
     9
100
AcDb2dPolyline
 66
     1
 10
0.0
 20
0.0
 30
0.0
  0
VERTEX
  5
371
330
370
100
AcDbEntity
  8
Livello 1
 62
     7
370
     9
100
AcDbVertex
100
AcDb2dVertex
 10
67.39988252438266
 20
7.101099716106669
 30
0.0
  0
VERTEX
  5
372
330
370
100
AcDbEntity
  8
Livello 1
 62
     7
370
     9
100
AcDbVertex
100
AcDb2dVertex
 10
67.39988252438266
 20
7.102374401436212
 30
0.0
  0
VERTEX
  5
373
330
370
100
AcDbEntity
  8
Livello 1
 62
     7
370
     9
100
AcDbVertex
100
AcDb2dVertex
 10
67.39988252438266
 20
7.103597410333475
 30
0.0
  0
VERTEX
  5
374
330
370
100
AcDbEntity
  8
Livello 1
 62
     7
370
     9
100
AcDbVertex
100
AcDb2dVertex
 10
67.39988252438266
 20
7.104734291843608
 30
0.0
  0
VERTEX
  5
375
330
370
100
AcDbEntity
  8
Livello 1
 62
     7
370
     9
100
AcDbVertex
100
AcDb2dVertex
 10
67.39988252438266
 20
7.105716144056903
 30
0.0
  0
VERTEX
  5
376
330
370
100
AcDbEntity
  8
Livello 1
 62
     7
370
     9
100
AcDbVertex
100
AcDb2dVertex
 10
67.39988252438266
 20
7.106525741495937
 30
0.0
  0
VERTEX
  5
377
330
370
100
AcDbEntity
  8
Livello 1
 62
     7
370
     9
100
AcDbVertex
100
AcDb2dVertex
 10
67.39988252438266
 20
7.107128633205856
 30
0.0
  0
VERTEX
  5
378
330
370
100
AcDbEntity
  8
Livello 1
 62
     7
370
     9
100
AcDbVertex
100
AcDb2dVertex
 10
67.39988252438266
 20
7.107490368231807
 30
0.0
  0
VERTEX
  5
379
330
370
100
AcDbEntity
  8
Livello 1
 62
     7
370
     9
100
AcDbVertex
100
AcDb2dVertex
 10
67.39988252438266
 20
7.107628172051218
 30
0.0
  0
SEQEND
  5
37A
330
370
100
AcDbEntity
  8
Livello 1
370
     9
  0
POLYLINE
  5
37B
330
72
100
AcDbEntity
  8
Livello 1
 62
     7
370
     9
100
AcDb2dPolyline
 66
     1
 10
0.0
 20
0.0
 30
0.0
  0
VERTEX
  5
37C
330
37B
100
AcDbEntity
  8
Livello 1
 62
     7
370
     9
100
AcDbVertex
100
AcDb2dVertex
 10
67.39988252438266
 20
7.101099716106669
 30
0.0
  0
VERTEX
  5
37D
330
37B
100
AcDbEntity
  8
Livello 1
 62
     7
370
     9
100
AcDbVertex
100
AcDb2dVertex
 10
67.39988252438266
 20
6.758553872008278
 30
0.0
  0
SEQEND
  5
37E
330
37B
100
AcDbEntity
  8
Livello 1
370
     9
  0
POLYLINE
  5
37F
330
72
100
AcDbEntity
  8
Livello 1
 62
     7
370
     9
100
AcDb2dPolyline
 66
     1
 10
0.0
 20
0.0
 30
0.0
  0
VERTEX
  5
380
330
37F
100
AcDbEntity
  8
Livello 1
 62
     7
370
     9
100
AcDbVertex
100
AcDb2dVertex
 10
67.41101018280003
 20
6.747443439068347
 30
0.0
  0
VERTEX
  5
381
330
37F
100
AcDbEntity
  8
Livello 1
 62
     7
370
     9
100
AcDbVertex
100
AcDb2dVertex
 10
67.40880532168946
 20
6.747684595752315
 30
0.0
  0
VERTEX
  5
382
330
37F
100
AcDbEntity
  8
Livello 1
 62
     7
370
     9
100
AcDbVertex
100
AcDb2dVertex
 10
67.40677271535316
 20
6.748287487462234
 30
0.0
  0
VERTEX
  5
383
330
37F
100
AcDbEntity
  8
Livello 1
 62
     7
370
     9
100
AcDbVertex
100
AcDb2dVertex
 10
67.40477455997171
 20
6.749338241585234
 30
0.0
  0
VERTEX
  5
384
330
37F
100
AcDbEntity
  8
Livello 1
 62
     7
370
     9
100
AcDbVertex
100
AcDb2dVertex
 10
67.40318981604851
 20
6.750681828824482
 30
0.0
  0
VERTEX
  5
385
330
37F
100
AcDbEntity
  8
Livello 1
 62
     7
370
     9
100
AcDbVertex
100
AcDb2dVertex
 10
67.40177732689955
 20
6.752387151089681
 30
0.0
  0
VERTEX
  5
386
330
37F
100
AcDbEntity
  8
Livello 1
 62
     7
370
     9
100
AcDbVertex
100
AcDb2dVertex
 10
67.40077824920883
 20
6.754281953606568
 30
0.0
  0
VERTEX
  5
387
330
37F
100
AcDbEntity
  8
Livello 1
 62
     7
370
     9
100
AcDbVertex
100
AcDb2dVertex
 10
67.40012368106663
 20
6.756400687329997
 30
0.0
  0
VERTEX
  5
388
330
37F
100
AcDbEntity
  8
Livello 1
 62
     7
370
     9
100
AcDbVertex
100
AcDb2dVertex
 10
67.39988252438266
 20
6.758553872008278
 30
0.0
  0
SEQEND
  5
389
330
37F
100
AcDbEntity
  8
Livello 1
370
     9
  0
POLYLINE
  5
38A
330
72
100
AcDbEntity
  8
Livello 1
 62
     7
370
     9
100
AcDb2dPolyline
 66
     1
 10
0.0
 20
0.0
 30
0.0
  0
VERTEX
  5
38B
330
38A
100
AcDbEntity
  8
Livello 1
 62
     7
370
     9
100
AcDbVertex
100
AcDb2dVertex
 10
67.87647703381212
 20
6.758553872008278
 30
0.0
  0
VERTEX
  5
38C
330
38A
100
AcDbEntity
  8
Livello 1
 62
     7
370
     9
100
AcDbVertex
100
AcDb2dVertex
 10
67.87647703381212
 20
7.101099716106669
 30
0.0
  0
SEQEND
  5
38D
330
38A
100
AcDbEntity
  8
Livello 1
370
     9
  0
POLYLINE
  5
38E
330
72
100
AcDbEntity
  8
Livello 1
 62
     7
370
     9
100
AcDb2dPolyline
 66
     1
 10
0.0
 20
0.0
 30
0.0
  0
VERTEX
  5
38F
330
38E
100
AcDbEntity
  8
Livello 1
 62
     7
370
     9
100
AcDbVertex
100
AcDb2dVertex
 10
67.87647703381212
 20
7.107628172051218
 30
0.0
  0
VERTEX
  5
390
330
38E
100
AcDbEntity
  8
Livello 1
 62
     7
370
     9
100
AcDbVertex
100
AcDb2dVertex
 10
67.87647703381212
 20
7.107490368231807
 30
0.0
  0
VERTEX
  5
391
330
38E
100
AcDbEntity
  8
Livello 1
 62
     7
370
     9
100
AcDbVertex
100
AcDb2dVertex
 10
67.87647703381212
 20
7.107128633205856
 30
0.0
  0
VERTEX
  5
392
330
38E
100
AcDbEntity
  8
Livello 1
 62
     7
370
     9
100
AcDbVertex
100
AcDb2dVertex
 10
67.87647703381212
 20
7.106525741495937
 30
0.0
  0
VERTEX
  5
393
330
38E
100
AcDbEntity
  8
Livello 1
 62
     7
370
     9
100
AcDbVertex
100
AcDb2dVertex
 10
67.87647703381212
 20
7.105716144056903
 30
0.0
  0
VERTEX
  5
394
330
38E
100
AcDbEntity
  8
Livello 1
 62
     7
370
     9
100
AcDbVertex
100
AcDb2dVertex
 10
67.87647703381212
 20
7.104734291843608
 30
0.0
  0
VERTEX
  5
395
330
38E
100
AcDbEntity
  8
Livello 1
 62
     7
370
     9
100
AcDbVertex
100
AcDb2dVertex
 10
67.87647703381212
 20
7.103597410333475
 30
0.0
  0
VERTEX
  5
396
330
38E
100
AcDbEntity
  8
Livello 1
 62
     7
370
     9
100
AcDbVertex
100
AcDb2dVertex
 10
67.87647703381212
 20
7.102374401436212
 30
0.0
  0
VERTEX
  5
397
330
38E
100
AcDbEntity
  8
Livello 1
 62
     7
370
     9
100
AcDbVertex
100
AcDb2dVertex
 10
67.87647703381212
 20
7.101099716106669
 30
0.0
  0
SEQEND
  5
398
330
38E
100
AcDbEntity
  8
Livello 1
370
     9
  0
POLYLINE
  5
399
330
72
100
AcDbEntity
  8
Livello 1
 62
     7
370
     9
100
AcDb2dPolyline
 66
     1
 10
0.0
 20
0.0
 30
0.0
  0
VERTEX
  5
39A
330
399
100
AcDbEntity
  8
Livello 1
 62
     7
370
     9
100
AcDbVertex
100
AcDb2dVertex
 10
67.41101018280003
 20
6.747443439068347
 30
0.0
  0
VERTEX
  5
39B
330
399
100
AcDbEntity
  8
Livello 1
 62
     7
370
     9
100
AcDbVertex
100
AcDb2dVertex
 10
67.63432127215391
 20
6.747443439068347
 30
0.0
  0
SEQEND
  5
39C
330
399
100
AcDbEntity
  8
Livello 1
370
     9
  0
POLYLINE
  5
39D
330
72
100
AcDbEntity
  8
Livello 1
 62
     7
370
     9
100
AcDb2dPolyline
 66
     1
 10
0.0
 20
0.0
 30
0.0
  0
VERTEX
  5
39E
330
39D
100
AcDbEntity
  8
Livello 1
 62
     7
370
     9
100
AcDbVertex
100
AcDb2dVertex
 10
67.64217608986029
 20
6.747443439068347
 30
0.0
  0
VERTEX
  5
39F
330
39D
100
AcDbEntity
  8
Livello 1
 62
     7
370
     9
100
AcDbVertex
100
AcDb2dVertex
 10
67.86541827730447
 20
6.747443439068347
 30
0.0
  0
SEQEND
  5
3A0
330
39D
100
AcDbEntity
  8
Livello 1
370
     9
  0
POLYLINE
  5
3A1
330
72
100
AcDbEntity
  8
Livello 1
 62
     7
370
     9
100
AcDb2dPolyline
 66
     1
 10
0.0
 20
0.0
 30
0.0
  0
VERTEX
  5
3A2
330
3A1
100
AcDbEntity
  8
Livello 1
 62
     7
370
     9
100
AcDbVertex
100
AcDb2dVertex
 10
67.87647703381212
 20
6.758553872008278
 30
0.0
  0
VERTEX
  5
3A3
330
3A1
100
AcDbEntity
  8
Livello 1
 62
     7
370
     9
100
AcDbVertex
100
AcDb2dVertex
 10
67.87627032808301
 20
6.756400687329997
 30
0.0
  0
VERTEX
  5
3A4
330
3A1
100
AcDbEntity
  8
Livello 1
 62
     7
370
     9
100
AcDbVertex
100
AcDb2dVertex
 10
67.87565021089567
 20
6.754281953606568
 30
0.0
  0
VERTEX
  5
3A5
330
3A1
100
AcDbEntity
  8
Livello 1
 62
     7
370
     9
100
AcDbVertex
100
AcDb2dVertex
 10
67.87461668225009
 20
6.752387151089681
 30
0.0
  0
VERTEX
  5
3A6
330
3A1
100
AcDbEntity
  8
Livello 1
 62
     7
370
     9
100
AcDbVertex
100
AcDb2dVertex
 10
67.87320419310115
 20
6.750681828824482
 30
0.0
  0
VERTEX
  5
3A7
330
3A1
100
AcDbEntity
  8
Livello 1
 62
     7
370
     9
100
AcDbVertex
100
AcDb2dVertex
 10
67.87155054726821
 20
6.749338241585234
 30
0.0
  0
VERTEX
  5
3A8
330
3A1
100
AcDbEntity
  8
Livello 1
 62
     7
370
     9
100
AcDbVertex
100
AcDb2dVertex
 10
67.86965574475133
 20
6.748287487462234
 30
0.0
  0
VERTEX
  5
3A9
330
3A1
100
AcDbEntity
  8
Livello 1
 62
     7
370
     9
100
AcDbVertex
100
AcDb2dVertex
 10
67.86758868746018
 20
6.747684595752315
 30
0.0
  0
VERTEX
  5
3AA
330
3A1
100
AcDbEntity
  8
Livello 1
 62
     7
370
     9
100
AcDbVertex
100
AcDb2dVertex
 10
67.86541827730447
 20
6.747443439068347
 30
0.0
  0
SEQEND
  5
3AB
330
3A1
100
AcDbEntity
  8
Livello 1
370
     9
  0
POLYLINE
  5
3AC
330
72
100
AcDbEntity
  8
Livello 1
 62
     7
370
     9
100
AcDb2dPolyline
 66
     1
 10
0.0
 20
0.0
 30
0.0
  0
VERTEX
  5
3AD
330
3AC
100
AcDbEntity
  8
Livello 1
 62
     7
370
     9
100
AcDbVertex
100
AcDb2dVertex
 10
67.61857718578632
 20
2.108363986018048
 30
0.0
  0
VERTEX
  5
3AE
330
3AC
100
AcDbEntity
  8
Livello 1
 62
     7
370
     9
100
AcDbVertex
100
AcDb2dVertex
 10
67.61888724437999
 20
2.108570691747163
 30
0.0
  0
VERTEX
  5
3AF
330
3AC
100
AcDbEntity
  8
Livello 1
 62
     7
370
     9
100
AcDbVertex
100
AcDb2dVertex
 10
67.6196796163416
 20
2.108742946521425
 30
0.0
  0
VERTEX
  5
3B0
330
3AC
100
AcDbEntity
  8
Livello 1
 62
     7
370
     9
100
AcDbVertex
100
AcDb2dVertex
 10
67.62109210549056
 20
2.108984103205393
 30
0.0
  0
VERTEX
  5
3B1
330
3AC
100
AcDbEntity
  8
Livello 1
 62
     7
370
     9
100
AcDbVertex
100
AcDb2dVertex
 10
67.62298690800745
 20
2.109156357979655
 30
0.0
  0
VERTEX
  5
3B2
330
3AC
100
AcDbEntity
  8
Livello 1
 62
     7
370
     9
100
AcDbVertex
100
AcDb2dVertex
 10
67.62539847484712
 20
2.10936306370877
 30
0.0
  0
VERTEX
  5
3B3
330
3AC
100
AcDbEntity
  8
Livello 1
 62
     7
370
     9
100
AcDbVertex
100
AcDb2dVertex
 10
67.62815455123531
 20
2.109466416573328
 30
0.0
  0
VERTEX
  5
3B4
330
3AC
100
AcDbEntity
  8
Livello 1
 62
     7
370
     9
100
AcDbVertex
100
AcDb2dVertex
 10
67.63122068621719
 20
2.109604220392738
 30
0.0
  0
VERTEX
  5
3B5
330
3AC
100
AcDbEntity
  8
Livello 1
 62
     7
370
     9
100
AcDbVertex
100
AcDb2dVertex
 10
67.63432127215391
 20
2.109673122302443
 30
0.0
  0
SEQEND
  5
3B6
330
3AC
100
AcDbEntity
  8
Livello 1
370
     9
  0
POLYLINE
  5
3B7
330
72
100
AcDbEntity
  8
Livello 1
 62
     7
370
     9
100
AcDb2dPolyline
 66
     1
 10
0.0
 20
0.0
 30
0.0
  0
VERTEX
  5
3B8
330
3B7
100
AcDbEntity
  8
Livello 1
 62
     7
370
     9
100
AcDbVertex
100
AcDb2dVertex
 10
67.64217608986029
 20
2.109673122302443
 30
0.0
  0
VERTEX
  5
3B9
330
3B7
100
AcDbEntity
  8
Livello 1
 62
     7
370
     9
100
AcDbVertex
100
AcDb2dVertex
 10
67.64462210765481
 20
2.109604220392738
 30
0.0
  0
VERTEX
  5
3BA
330
3B7
100
AcDbEntity
  8
Livello 1
 62
     7
370
     9
100
AcDbVertex
100
AcDb2dVertex
 10
67.64775714454639
 20
2.109466416573328
 30
0.0
  0
VERTEX
  5
3BB
330
3B7
100
AcDbEntity
  8
Livello 1
 62
     7
370
     9
100
AcDbVertex
100
AcDb2dVertex
 10
67.65054767188944
 20
2.10936306370877
 30
0.0
  0
VERTEX
  5
3BC
330
3B7
100
AcDbEntity
  8
Livello 1
 62
     7
370
     9
100
AcDbVertex
100
AcDb2dVertex
 10
67.65295923872911
 20
2.109156357979655
 30
0.0
  0
VERTEX
  5
3BD
330
3B7
100
AcDbEntity
  8
Livello 1
 62
     7
370
     9
100
AcDbVertex
100
AcDb2dVertex
 10
67.65502629602027
 20
2.108984103205393
 30
0.0
  0
VERTEX
  5
3BE
330
3B7
100
AcDbEntity
  8
Livello 1
 62
     7
370
     9
100
AcDbVertex
100
AcDb2dVertex
 10
67.65650768707893
 20
2.108742946521425
 30
0.0
  0
VERTEX
  5
3BF
330
3B7
100
AcDbEntity
  8
Livello 1
 62
     7
370
     9
100
AcDbVertex
100
AcDb2dVertex
 10
67.65743786285994
 20
2.108570691747163
 30
0.0
  0
VERTEX
  5
3C0
330
3B7
100
AcDbEntity
  8
Livello 1
 62
     7
370
     9
100
AcDbVertex
100
AcDb2dVertex
 10
67.65774792145362
 20
2.108329535063195
 30
0.0
  0
SEQEND
  5
3C1
330
3B7
100
AcDbEntity
  8
Livello 1
370
     9
  0
POLYLINE
  5
3C2
330
72
100
AcDbEntity
  8
Livello 1
 62
     7
370
     9
100
AcDb2dPolyline
 66
     1
 10
0.0
 20
0.0
 30
0.0
  0
VERTEX
  5
3C3
330
3C2
100
AcDbEntity
  8
Livello 1
 62
     7
370
     9
100
AcDbVertex
100
AcDb2dVertex
 10
67.69209552344155
 20
6.743877765241113
 30
0.0
  0
VERTEX
  5
3C4
330
3C2
100
AcDbEntity
  8
Livello 1
 62
     7
370
     9
100
AcDbVertex
100
AcDb2dVertex
 10
67.69088974002172
 20
6.743877765241113
 30
0.0
  0
VERTEX
  5
3C5
330
3C2
100
AcDbEntity
  8
Livello 1
 62
     7
370
     9
100
AcDbVertex
100
AcDb2dVertex
 10
67.68737574262676
 20
6.743877765241113
 30
0.0
  0
VERTEX
  5
3C6
330
3C2
100
AcDbEntity
  8
Livello 1
 62
     7
370
     9
100
AcDbVertex
100
AcDb2dVertex
 10
67.6816913350761
 20
6.743877765241113
 30
0.0
  0
VERTEX
  5
3C7
330
3C2
100
AcDbEntity
  8
Livello 1
 62
     7
370
     9
100
AcDbVertex
100
AcDb2dVertex
 10
67.67407767405369
 20
6.743877765241113
 30
0.0
  0
VERTEX
  5
3C8
330
3C2
100
AcDbEntity
  8
Livello 1
 62
     7
370
     9
100
AcDbVertex
100
AcDb2dVertex
 10
67.66498262197264
 20
6.743877765241113
 30
0.0
  0
VERTEX
  5
3C9
330
3C2
100
AcDbEntity
  8
Livello 1
 62
     7
370
     9
100
AcDbVertex
100
AcDb2dVertex
 10
67.65481959029115
 20
6.743877765241113
 30
0.0
  0
VERTEX
  5
3CA
330
3C2
100
AcDbEntity
  8
Livello 1
 62
     7
370
     9
100
AcDbVertex
100
AcDb2dVertex
 10
67.64413979428687
 20
6.743877765241113
 30
0.0
  0
VERTEX
  5
3CB
330
3C2
100
AcDbEntity
  8
Livello 1
 62
     7
370
     9
100
AcDbVertex
100
AcDb2dVertex
 10
67.64217608986029
 20
6.743877765241113
 30
0.0
  0
SEQEND
  5
3CC
330
3C2
100
AcDbEntity
  8
Livello 1
370
     9
  0
POLYLINE
  5
3CD
330
72
100
AcDbEntity
  8
Livello 1
 62
     7
370
     9
100
AcDb2dPolyline
 66
     1
 10
0.0
 20
0.0
 30
0.0
  0
VERTEX
  5
3CE
330
3CD
100
AcDbEntity
  8
Livello 1
 62
     7
370
     9
100
AcDbVertex
100
AcDb2dVertex
 10
67.63432127215391
 20
6.743877765241113
 30
0.0
  0
VERTEX
  5
3CF
330
3CD
100
AcDbEntity
  8
Livello 1
 62
     7
370
     9
100
AcDbVertex
100
AcDb2dVertex
 10
67.6334599982826
 20
6.743877765241113
 30
0.0
  0
VERTEX
  5
3D0
330
3CD
100
AcDbEntity
  8
Livello 1
 62
     7
370
     9
100
AcDbVertex
100
AcDb2dVertex
 10
67.62336586851082
 20
6.743877765241113
 30
0.0
  0
VERTEX
  5
3D1
330
3CD
100
AcDbEntity
  8
Livello 1
 62
     7
370
     9
100
AcDbVertex
100
AcDb2dVertex
 10
67.61430526738461
 20
6.743877765241113
 30
0.0
  0
VERTEX
  5
3D2
330
3CD
100
AcDbEntity
  8
Livello 1
 62
     7
370
     9
100
AcDbVertex
100
AcDb2dVertex
 10
67.6066916063622
 20
6.743877765241113
 30
0.0
  0
VERTEX
  5
3D3
330
3CD
100
AcDbEntity
  8
Livello 1
 62
     7
370
     9
100
AcDbVertex
100
AcDb2dVertex
 10
67.60100719881154
 20
6.743877765241113
 30
0.0
  0
VERTEX
  5
3D4
330
3CD
100
AcDbEntity
  8
Livello 1
 62
     7
370
     9
100
AcDbVertex
100
AcDb2dVertex
 10
67.59738984855204
 20
6.743877765241113
 30
0.0
  0
VERTEX
  5
3D5
330
3CD
100
AcDbEntity
  8
Livello 1
 62
     7
370
     9
100
AcDbVertex
100
AcDb2dVertex
 10
67.59621851608705
 20
6.743877765241113
 30
0.0
  0
SEQEND
  5
3D6
330
3CD
100
AcDbEntity
  8
Livello 1
370
     9
  0
POLYLINE
  5
3D7
330
72
100
AcDbEntity
  8
Livello 1
 62
     7
370
     9
100
AcDb2dPolyline
 66
     1
 10
0.0
 20
0.0
 30
0.0
  0
VERTEX
  5
3D8
330
3D7
100
AcDbEntity
  8
Livello 1
 62
     7
370
     9
100
AcDbVertex
100
AcDb2dVertex
 10
67.68034774783685
 20
6.627640243568784
 30
0.0
  0
VERTEX
  5
3D9
330
3D7
100
AcDbEntity
  8
Livello 1
 62
     7
370
     9
100
AcDbVertex
100
AcDb2dVertex
 10
67.67910751346216
 20
6.627640243568784
 30
0.0
  0
VERTEX
  5
3DA
330
3D7
100
AcDbEntity
  8
Livello 1
 62
     7
370
     9
100
AcDbVertex
100
AcDb2dVertex
 10
67.67555906511235
 20
6.627640243568784
 30
0.0
  0
VERTEX
  5
3DB
330
3D7
100
AcDbEntity
  8
Livello 1
 62
     7
370
     9
100
AcDbVertex
100
AcDb2dVertex
 10
67.66980575565199
 20
6.627640243568784
 30
0.0
  0
VERTEX
  5
3DC
330
3D7
100
AcDbEntity
  8
Livello 1
 62
     7
370
     9
100
AcDbVertex
100
AcDb2dVertex
 10
67.66226099653929
 20
6.627640243568784
 30
0.0
  0
VERTEX
  5
3DD
330
3D7
100
AcDbEntity
  8
Livello 1
 62
     7
370
     9
100
AcDbVertex
100
AcDb2dVertex
 10
67.6535449049616
 20
6.627640243568784
 30
0.0
  0
VERTEX
  5
3DE
330
3D7
100
AcDbEntity
  8
Livello 1
 62
     7
370
     9
100
AcDbVertex
100
AcDb2dVertex
 10
67.64413979428687
 20
6.627640243568784
 30
0.0
  0
VERTEX
  5
3DF
330
3D7
100
AcDbEntity
  8
Livello 1
 62
     7
370
     9
100
AcDbVertex
100
AcDb2dVertex
 10
67.64217608986029
 20
6.627640243568784
 30
0.0
  0
SEQEND
  5
3E0
330
3D7
100
AcDbEntity
  8
Livello 1
370
     9
  0
POLYLINE
  5
3E1
330
72
100
AcDbEntity
  8
Livello 1
 62
     7
370
     9
100
AcDb2dPolyline
 66
     1
 10
0.0
 20
0.0
 30
0.0
  0
VERTEX
  5
3E2
330
3E1
100
AcDbEntity
  8
Livello 1
 62
     7
370
     9
100
AcDbVertex
100
AcDb2dVertex
 10
67.63432127215391
 20
6.627640243568784
 30
0.0
  0
VERTEX
  5
3E3
330
3E1
100
AcDbEntity
  8
Livello 1
 62
     7
370
     9
100
AcDbVertex
100
AcDb2dVertex
 10
67.62605304298931
 20
6.627640243568784
 30
0.0
  0
VERTEX
  5
3E4
330
3E1
100
AcDbEntity
  8
Livello 1
 62
     7
370
     9
100
AcDbVertex
100
AcDb2dVertex
 10
67.61857718578632
 20
6.627640243568784
 30
0.0
  0
VERTEX
  5
3E5
330
3E1
100
AcDbEntity
  8
Livello 1
 62
     7
370
     9
100
AcDbVertex
100
AcDb2dVertex
 10
67.61282387632596
 20
6.627640243568784
 30
0.0
  0
VERTEX
  5
3E6
330
3E1
100
AcDbEntity
  8
Livello 1
 62
     7
370
     9
100
AcDbVertex
100
AcDb2dVertex
 10
67.60917207511159
 20
6.627640243568784
 30
0.0
  0
VERTEX
  5
3E7
330
3E1
100
AcDbEntity
  8
Livello 1
 62
     7
370
     9
100
AcDbVertex
100
AcDb2dVertex
 10
67.60796629169175
 20
6.627640243568784
 30
0.0
  0
SEQEND
  5
3E8
330
3E1
100
AcDbEntity
  8
Livello 1
370
     9
  0
POLYLINE
  5
3E9
330
72
100
AcDbEntity
  8
Livello 1
 62
     7
370
     9
100
AcDb2dPolyline
 66
     1
 10
0.0
 20
0.0
 30
0.0
  0
VERTEX
  5
3EA
330
3E9
100
AcDbEntity
  8
Livello 1
 62
     7
370
     9
100
AcDbVertex
100
AcDb2dVertex
 10
79.84198267318186
 20
7.111917315930354
 30
0.0
  0
VERTEX
  5
3EB
330
3E9
100
AcDbEntity
  8
Livello 1
 62
     7
370
     9
100
AcDbVertex
100
AcDb2dVertex
 10
79.8390543420194
 20
7.106801349134757
 30
0.0
  0
SEQEND
  5
3EC
330
3E9
100
AcDbEntity
  8
Livello 1
370
     9
  0
POLYLINE
  5
3ED
330
72
100
AcDbEntity
  8
Livello 1
 62
     7
370
     9
100
AcDb2dPolyline
 66
     1
 10
0.0
 20
0.0
 30
0.0
  0
VERTEX
  5
3EE
330
3ED
100
AcDbEntity
  8
Livello 1
 62
     7
370
     9
100
AcDbVertex
100
AcDb2dVertex
 10
79.96690183547702
 20
7.106801349134757
 30
0.0
  0
VERTEX
  5
3EF
330
3ED
100
AcDbEntity
  8
Livello 1
 62
     7
370
     9
100
AcDbVertex
100
AcDb2dVertex
 10
79.96400795526941
 20
7.111917315930354
 30
0.0
  0
SEQEND
  5
3F0
330
3ED
100
AcDbEntity
  8
Livello 1
370
     9
  0
POLYLINE
  5
3F1
330
72
100
AcDbEntity
  8
Livello 1
 62
     7
370
     9
100
AcDb2dPolyline
 66
     1
 10
0.0
 20
0.0
 30
0.0
  0
VERTEX
  5
3F2
330
3F1
100
AcDbEntity
  8
Livello 1
 62
     7
370
     9
100
AcDbVertex
100
AcDb2dVertex
 10
79.96400795526941
 20
7.111917315930354
 30
0.0
  0
VERTEX
  5
3F3
330
3F1
100
AcDbEntity
  8
Livello 1
 62
     7
370
     9
100
AcDbVertex
100
AcDb2dVertex
 10
79.96373234763058
 20
7.112279050956305
 30
0.0
  0
VERTEX
  5
3F4
330
3F1
100
AcDbEntity
  8
Livello 1
 62
     7
370
     9
100
AcDbVertex
100
AcDb2dVertex
 10
79.96342228903691
 20
7.112589109549977
 30
0.0
  0
VERTEX
  5
3F5
330
3F1
100
AcDbEntity
  8
Livello 1
 62
     7
370
     9
100
AcDbVertex
100
AcDb2dVertex
 10
79.96311223044324
 20
7.112881942666223
 30
0.0
  0
VERTEX
  5
3F6
330
3F1
100
AcDbEntity
  8
Livello 1
 62
     7
370
     9
100
AcDbVertex
100
AcDb2dVertex
 10
79.96273326993986
 20
7.113123099350191
 30
0.0
  0
VERTEX
  5
3F7
330
3F1
100
AcDbEntity
  8
Livello 1
 62
     7
370
     9
100
AcDbVertex
100
AcDb2dVertex
 10
79.96235430943649
 20
7.113329805079306
 30
0.0
  0
VERTEX
  5
3F8
330
3F1
100
AcDbEntity
  8
Livello 1
 62
     7
370
     9
100
AcDbVertex
100
AcDb2dVertex
 10
79.96194089797825
 20
7.113519285330995
 30
0.0
  0
VERTEX
  5
3F9
330
3F1
100
AcDbEntity
  8
Livello 1
 62
     7
370
     9
100
AcDbVertex
100
AcDb2dVertex
 10
79.96156193747488
 20
7.113553736285847
 30
0.0
  0
VERTEX
  5
3FA
330
3F1
100
AcDbEntity
  8
Livello 1
 62
     7
370
     9
100
AcDbVertex
100
AcDb2dVertex
 10
79.9610451731521
 20
7.113622638195552
 30
0.0
  0
SEQEND
  5
3FB
330
3F1
100
AcDbEntity
  8
Livello 1
370
     9
  0
POLYLINE
  5
3FC
330
72
100
AcDbEntity
  8
Livello 1
 62
     7
370
     9
100
AcDb2dPolyline
 66
     1
 10
0.0
 20
0.0
 30
0.0
  0
VERTEX
  5
3FD
330
3FC
100
AcDbEntity
  8
Livello 1
 62
     7
370
     9
100
AcDbVertex
100
AcDb2dVertex
 10
79.84491100434433
 20
7.113622638195552
 30
0.0
  0
VERTEX
  5
3FE
330
3FC
100
AcDbEntity
  8
Livello 1
 62
     7
370
     9
100
AcDbVertex
100
AcDb2dVertex
 10
79.84449759288609
 20
7.113553736285847
 30
0.0
  0
VERTEX
  5
3FF
330
3FC
100
AcDbEntity
  8
Livello 1
 62
     7
370
     9
100
AcDbVertex
100
AcDb2dVertex
 10
79.84408418142786
 20
7.113519285330995
 30
0.0
  0
VERTEX
  5
400
330
3FC
100
AcDbEntity
  8
Livello 1
 62
     7
370
     9
100
AcDbVertex
100
AcDb2dVertex
 10
79.84363631901478
 20
7.113329805079306
 30
0.0
  0
VERTEX
  5
401
330
3FC
100
AcDbEntity
  8
Livello 1
 62
     7
370
     9
100
AcDbVertex
100
AcDb2dVertex
 10
79.84325735851141
 20
7.113123099350191
 30
0.0
  0
VERTEX
  5
402
330
3FC
100
AcDbEntity
  8
Livello 1
 62
     7
370
     9
100
AcDbVertex
100
AcDb2dVertex
 10
79.84284394705317
 20
7.112881942666223
 30
0.0
  0
VERTEX
  5
403
330
3FC
100
AcDbEntity
  8
Livello 1
 62
     7
370
     9
100
AcDbVertex
100
AcDb2dVertex
 10
79.8425338884595
 20
7.112589109549977
 30
0.0
  0
VERTEX
  5
404
330
3FC
100
AcDbEntity
  8
Livello 1
 62
     7
370
     9
100
AcDbVertex
100
AcDb2dVertex
 10
79.84218937891097
 20
7.112279050956305
 30
0.0
  0
VERTEX
  5
405
330
3FC
100
AcDbEntity
  8
Livello 1
 62
     7
370
     9
100
AcDbVertex
100
AcDb2dVertex
 10
79.84198267318186
 20
7.111917315930354
 30
0.0
  0
SEQEND
  5
406
330
3FC
100
AcDbEntity
  8
Livello 1
370
     9
  0
POLYLINE
  5
407
330
72
100
AcDbEntity
  8
Livello 1
 62
     7
370
     9
100
AcDb2dPolyline
 66
     1
 10
0.0
 20
0.0
 30
0.0
  0
VERTEX
  5
408
330
407
100
AcDbEntity
  8
Livello 1
 62
     7
370
     9
100
AcDbVertex
100
AcDb2dVertex
 10
78.07413192492591
 20
7.111917315930354
 30
0.0
  0
VERTEX
  5
409
330
407
100
AcDbEntity
  8
Livello 1
 62
     7
370
     9
100
AcDbVertex
100
AcDb2dVertex
 10
78.07116914280859
 20
7.106801349134757
 30
0.0
  0
SEQEND
  5
40A
330
407
100
AcDbEntity
  8
Livello 1
370
     9
  0
POLYLINE
  5
40B
330
72
100
AcDbEntity
  8
Livello 1
 62
     7
370
     9
100
AcDb2dPolyline
 66
     1
 10
0.0
 20
0.0
 30
0.0
  0
VERTEX
  5
40C
330
40B
100
AcDbEntity
  8
Livello 1
 62
     7
370
     9
100
AcDbVertex
100
AcDb2dVertex
 10
78.07709470704322
 20
7.113622638195552
 30
0.0
  0
VERTEX
  5
40D
330
40B
100
AcDbEntity
  8
Livello 1
 62
     7
370
     9
100
AcDbVertex
100
AcDb2dVertex
 10
78.07661239367529
 20
7.113553736285847
 30
0.0
  0
VERTEX
  5
40E
330
40B
100
AcDbEntity
  8
Livello 1
 62
     7
370
     9
100
AcDbVertex
100
AcDb2dVertex
 10
78.07616453126221
 20
7.113519285330995
 30
0.0
  0
VERTEX
  5
40F
330
40B
100
AcDbEntity
  8
Livello 1
 62
     7
370
     9
100
AcDbVertex
100
AcDb2dVertex
 10
78.07575111980397
 20
7.113329805079306
 30
0.0
  0
VERTEX
  5
410
330
40B
100
AcDbEntity
  8
Livello 1
 62
     7
370
     9
100
AcDbVertex
100
AcDb2dVertex
 10
78.07540661025544
 20
7.113123099350191
 30
0.0
  0
VERTEX
  5
411
330
40B
100
AcDbEntity
  8
Livello 1
 62
     7
370
     9
100
AcDbVertex
100
AcDb2dVertex
 10
78.07499319879722
 20
7.112881942666223
 30
0.0
  0
VERTEX
  5
412
330
40B
100
AcDbEntity
  8
Livello 1
 62
     7
370
     9
100
AcDbVertex
100
AcDb2dVertex
 10
78.07464868924869
 20
7.112589109549977
 30
0.0
  0
VERTEX
  5
413
330
40B
100
AcDbEntity
  8
Livello 1
 62
     7
370
     9
100
AcDbVertex
100
AcDb2dVertex
 10
78.07433863065502
 20
7.112279050956305
 30
0.0
  0
VERTEX
  5
414
330
40B
100
AcDbEntity
  8
Livello 1
 62
     7
370
     9
100
AcDbVertex
100
AcDb2dVertex
 10
78.07413192492591
 20
7.111917315930354
 30
0.0
  0
SEQEND
  5
415
330
40B
100
AcDbEntity
  8
Livello 1
370
     9
  0
POLYLINE
  5
416
330
72
100
AcDbEntity
  8
Livello 1
 62
     7
370
     9
100
AcDb2dPolyline
 66
     1
 10
0.0
 20
0.0
 30
0.0
  0
VERTEX
  5
417
330
416
100
AcDbEntity
  8
Livello 1
 62
     7
370
     9
100
AcDbVertex
100
AcDb2dVertex
 10
78.01973386721382
 20
7.106801349134757
 30
0.0
  0
VERTEX
  5
418
330
416
100
AcDbEntity
  8
Livello 1
 62
     7
370
     9
100
AcDbVertex
100
AcDb2dVertex
 10
78.01973386721382
 20
6.775245359634313
 30
0.0
  0
SEQEND
  5
419
330
416
100
AcDbEntity
  8
Livello 1
370
     9
  0
POLYLINE
  5
41A
330
72
100
AcDbEntity
  8
Livello 1
 62
     7
370
     9
100
AcDb2dPolyline
 66
     1
 10
0.0
 20
0.0
 30
0.0
  0
VERTEX
  5
41B
330
41A
100
AcDbEntity
  8
Livello 1
 62
     7
370
     9
100
AcDbVertex
100
AcDb2dVertex
 10
78.01973386721382
 20
6.775245359634313
 30
0.0
  0
VERTEX
  5
41C
330
41A
100
AcDbEntity
  8
Livello 1
 62
     7
370
     9
100
AcDbVertex
100
AcDb2dVertex
 10
80.01837156202666
 20
6.775245359634313
 30
0.0
  0
SEQEND
  5
41D
330
41A
100
AcDbEntity
  8
Livello 1
370
     9
  0
POLYLINE
  5
41E
330
72
100
AcDbEntity
  8
Livello 1
 62
     7
370
     9
100
AcDb2dPolyline
 66
     1
 10
0.0
 20
0.0
 30
0.0
  0
VERTEX
  5
41F
330
41E
100
AcDbEntity
  8
Livello 1
 62
     7
370
     9
100
AcDbVertex
100
AcDb2dVertex
 10
80.01837156202666
 20
6.775245359634313
 30
0.0
  0
VERTEX
  5
420
330
41E
100
AcDbEntity
  8
Livello 1
 62
     7
370
     9
100
AcDbVertex
100
AcDb2dVertex
 10
80.01837156202666
 20
7.106801349134757
 30
0.0
  0
SEQEND
  5
421
330
41E
100
AcDbEntity
  8
Livello 1
370
     9
  0
POLYLINE
  5
422
330
72
100
AcDbEntity
  8
Livello 1
 62
     7
370
     9
100
AcDb2dPolyline
 66
     1
 10
0.0
 20
0.0
 30
0.0
  0
VERTEX
  5
423
330
422
100
AcDbEntity
  8
Livello 1
 62
     7
370
     9
100
AcDbVertex
100
AcDb2dVertex
 10
80.01837156202666
 20
7.106801349134757
 30
0.0
  0
VERTEX
  5
424
330
422
100
AcDbEntity
  8
Livello 1
 62
     7
370
     9
100
AcDbVertex
100
AcDb2dVertex
 10
78.01973386721382
 20
7.106801349134757
 30
0.0
  0
SEQEND
  5
425
330
422
100
AcDbEntity
  8
Livello 1
370
     9
  0
POLYLINE
  5
426
330
72
100
AcDbEntity
  8
Livello 1
 62
     7
370
     9
100
AcDb2dPolyline
 66
     1
 10
0.0
 20
0.0
 30
0.0
  0
VERTEX
  5
427
330
426
100
AcDbEntity
  8
Livello 1
 62
     7
370
     9
100
AcDbVertex
100
AcDb2dVertex
 10
80.01837156202666
 20
6.765116778907679
 30
0.0
  0
VERTEX
  5
428
330
426
100
AcDbEntity
  8
Livello 1
 62
     7
370
     9
100
AcDbVertex
100
AcDb2dVertex
 10
78.01973386721382
 20
6.765116778907679
 30
0.0
  0
SEQEND
  5
429
330
426
100
AcDbEntity
  8
Livello 1
370
     9
  0
POLYLINE
  5
42A
330
72
100
AcDbEntity
  8
Livello 1
 62
     7
370
     9
100
AcDb2dPolyline
 66
     1
 10
0.0
 20
0.0
 30
0.0
  0
VERTEX
  5
42B
330
42A
100
AcDbEntity
  8
Livello 1
 62
     7
370
     9
100
AcDbVertex
100
AcDb2dVertex
 10
80.01837156202666
 20
6.771869166058768
 30
0.0
  0
VERTEX
  5
42C
330
42A
100
AcDbEntity
  8
Livello 1
 62
     7
370
     9
100
AcDbVertex
100
AcDb2dVertex
 10
80.01837156202666
 20
6.765116778907679
 30
0.0
  0
SEQEND
  5
42D
330
42A
100
AcDbEntity
  8
Livello 1
370
     9
  0
POLYLINE
  5
42E
330
72
100
AcDbEntity
  8
Livello 1
 62
     7
370
     9
100
AcDb2dPolyline
 66
     1
 10
0.0
 20
0.0
 30
0.0
  0
VERTEX
  5
42F
330
42E
100
AcDbEntity
  8
Livello 1
 62
     7
370
     9
100
AcDbVertex
100
AcDb2dVertex
 10
78.01973386721382
 20
6.765116778907679
 30
0.0
  0
VERTEX
  5
430
330
42E
100
AcDbEntity
  8
Livello 1
 62
     7
370
     9
100
AcDbVertex
100
AcDb2dVertex
 10
78.01973386721382
 20
6.771869166058768
 30
0.0
  0
SEQEND
  5
431
330
42E
100
AcDbEntity
  8
Livello 1
370
     9
  0
POLYLINE
  5
432
330
72
100
AcDbEntity
  8
Livello 1
 62
     7
370
     9
100
AcDb2dPolyline
 66
     1
 10
0.0
 20
0.0
 30
0.0
  0
VERTEX
  5
433
330
432
100
AcDbEntity
  8
Livello 1
 62
     7
370
     9
100
AcDbVertex
100
AcDb2dVertex
 10
80.00817407939032
 20
7.110229219142581
 30
0.0
  0
VERTEX
  5
434
330
432
100
AcDbEntity
  8
Livello 1
 62
     7
370
     9
100
AcDbVertex
100
AcDb2dVertex
 10
80.02174775560219
 20
7.110229219142581
 30
0.0
  0
SEQEND
  5
435
330
432
100
AcDbEntity
  8
Livello 1
370
     9
  0
POLYLINE
  5
436
330
72
100
AcDbEntity
  8
Livello 1
 62
     7
370
     9
100
AcDb2dPolyline
 66
     1
 10
0.0
 20
0.0
 30
0.0
  0
VERTEX
  5
437
330
436
100
AcDbEntity
  8
Livello 1
 62
     7
370
     9
100
AcDbVertex
100
AcDb2dVertex
 10
80.00817407939032
 20
7.106801349134757
 30
0.0
  0
VERTEX
  5
438
330
436
100
AcDbEntity
  8
Livello 1
 62
     7
370
     9
100
AcDbVertex
100
AcDb2dVertex
 10
80.00817407939032
 20
7.110229219142581
 30
0.0
  0
SEQEND
  5
439
330
436
100
AcDbEntity
  8
Livello 1
370
     9
  0
POLYLINE
  5
43A
330
72
100
AcDbEntity
  8
Livello 1
 62
     7
370
     9
100
AcDb2dPolyline
 66
     1
 10
0.0
 20
0.0
 30
0.0
  0
VERTEX
  5
43B
330
43A
100
AcDbEntity
  8
Livello 1
 62
     7
370
     9
100
AcDbVertex
100
AcDb2dVertex
 10
78.029965800805
 20
7.110229219142581
 30
0.0
  0
VERTEX
  5
43C
330
43A
100
AcDbEntity
  8
Livello 1
 62
     7
370
     9
100
AcDbVertex
100
AcDb2dVertex
 10
78.029965800805
 20
7.106801349134757
 30
0.0
  0
SEQEND
  5
43D
330
43A
100
AcDbEntity
  8
Livello 1
370
     9
  0
POLYLINE
  5
43E
330
72
100
AcDbEntity
  8
Livello 1
 62
     7
370
     9
100
AcDb2dPolyline
 66
     1
 10
0.0
 20
0.0
 30
0.0
  0
VERTEX
  5
43F
330
43E
100
AcDbEntity
  8
Livello 1
 62
     7
370
     9
100
AcDbVertex
100
AcDb2dVertex
 10
80.02174775560219
 20
6.771869166058768
 30
0.0
  0
VERTEX
  5
440
330
43E
100
AcDbEntity
  8
Livello 1
 62
     7
370
     9
100
AcDbVertex
100
AcDb2dVertex
 10
78.01635767363827
 20
6.771869166058768
 30
0.0
  0
SEQEND
  5
441
330
43E
100
AcDbEntity
  8
Livello 1
370
     9
  0
POLYLINE
  5
442
330
72
100
AcDbEntity
  8
Livello 1
 62
     7
370
     9
100
AcDb2dPolyline
 66
     1
 10
0.0
 20
0.0
 30
0.0
  0
VERTEX
  5
443
330
442
100
AcDbEntity
  8
Livello 1
 62
     7
370
     9
100
AcDbVertex
100
AcDb2dVertex
 10
80.02174775560219
 20
7.110229219142581
 30
0.0
  0
VERTEX
  5
444
330
442
100
AcDbEntity
  8
Livello 1
 62
     7
370
     9
100
AcDbVertex
100
AcDb2dVertex
 10
80.02174775560219
 20
6.771869166058768
 30
0.0
  0
SEQEND
  5
445
330
442
100
AcDbEntity
  8
Livello 1
370
     9
  0
POLYLINE
  5
446
330
72
100
AcDbEntity
  8
Livello 1
 62
     7
370
     9
100
AcDb2dPolyline
 66
     1
 10
0.0
 20
0.0
 30
0.0
  0
VERTEX
  5
447
330
446
100
AcDbEntity
  8
Livello 1
 62
     7
370
     9
100
AcDbVertex
100
AcDb2dVertex
 10
78.01635767363827
 20
7.110229219142581
 30
0.0
  0
VERTEX
  5
448
330
446
100
AcDbEntity
  8
Livello 1
 62
     7
370
     9
100
AcDbVertex
100
AcDb2dVertex
 10
78.029965800805
 20
7.110229219142581
 30
0.0
  0
SEQEND
  5
449
330
446
100
AcDbEntity
  8
Livello 1
370
     9
  0
POLYLINE
  5
44A
330
72
100
AcDbEntity
  8
Livello 1
 62
     7
370
     9
100
AcDb2dPolyline
 66
     1
 10
0.0
 20
0.0
 30
0.0
  0
VERTEX
  5
44B
330
44A
100
AcDbEntity
  8
Livello 1
 62
     7
370
     9
100
AcDbVertex
100
AcDb2dVertex
 10
78.01635767363827
 20
6.771869166058768
 30
0.0
  0
VERTEX
  5
44C
330
44A
100
AcDbEntity
  8
Livello 1
 62
     7
370
     9
100
AcDbVertex
100
AcDb2dVertex
 10
78.01635767363827
 20
7.110229219142581
 30
0.0
  0
SEQEND
  5
44D
330
44A
100
AcDbEntity
  8
Livello 1
370
     9
  0
POLYLINE
  5
44E
330
72
100
AcDbEntity
  8
Livello 1
 62
     7
370
     9
100
AcDb2dPolyline
 66
     1
 10
0.0
 20
0.0
 30
0.0
  0
VERTEX
  5
44F
330
44E
100
AcDbEntity
  8
Livello 1
 62
     7
370
     9
100
AcDbVertex
100
AcDb2dVertex
 10
79.84491100434433
 20
7.113622638195552
 30
0.0
  0
VERTEX
  5
450
330
44E
100
AcDbEntity
  8
Livello 1
 62
     7
370
     9
100
AcDbVertex
100
AcDb2dVertex
 10
79.84611678776416
 20
7.113622638195552
 30
0.0
  0
VERTEX
  5
451
330
44E
100
AcDbEntity
  8
Livello 1
 62
     7
370
     9
100
AcDbVertex
100
AcDb2dVertex
 10
79.84959633420426
 20
7.113622638195552
 30
0.0
  0
VERTEX
  5
452
330
44E
100
AcDbEntity
  8
Livello 1
 62
     7
370
     9
100
AcDbVertex
100
AcDb2dVertex
 10
79.85534964366462
 20
7.113622638195552
 30
0.0
  0
VERTEX
  5
453
330
44E
100
AcDbEntity
  8
Livello 1
 62
     7
370
     9
100
AcDbVertex
100
AcDb2dVertex
 10
79.86303220659674
 20
7.113622638195552
 30
0.0
  0
VERTEX
  5
454
330
44E
100
AcDbEntity
  8
Livello 1
 62
     7
370
     9
100
AcDbVertex
100
AcDb2dVertex
 10
79.87229951345206
 20
7.113622638195552
 30
0.0
  0
VERTEX
  5
455
330
44E
100
AcDbEntity
  8
Livello 1
 62
     7
370
     9
100
AcDbVertex
100
AcDb2dVertex
 10
79.88284150563692
 20
7.113622638195552
 30
0.0
  0
VERTEX
  5
456
330
44E
100
AcDbEntity
  8
Livello 1
 62
     7
370
     9
100
AcDbVertex
100
AcDb2dVertex
 10
79.89421032073825
 20
7.113622638195552
 30
0.0
  0
VERTEX
  5
457
330
44E
100
AcDbEntity
  8
Livello 1
 62
     7
370
     9
100
AcDbVertex
100
AcDb2dVertex
 10
79.90595809634294
 20
7.113622638195552
 30
0.0
  0
VERTEX
  5
458
330
44E
100
AcDbEntity
  8
Livello 1
 62
     7
370
     9
100
AcDbVertex
100
AcDb2dVertex
 10
79.91756806812825
 20
7.113622638195552
 30
0.0
  0
VERTEX
  5
459
330
44E
100
AcDbEntity
  8
Livello 1
 62
     7
370
     9
100
AcDbVertex
100
AcDb2dVertex
 10
79.92855792272618
 20
7.113622638195552
 30
0.0
  0
VERTEX
  5
45A
330
44E
100
AcDbEntity
  8
Livello 1
 62
     7
370
     9
100
AcDbVertex
100
AcDb2dVertex
 10
79.93851424867856
 20
7.113622638195552
 30
0.0
  0
VERTEX
  5
45B
330
44E
100
AcDbEntity
  8
Livello 1
 62
     7
370
     9
100
AcDbVertex
100
AcDb2dVertex
 10
79.94709253643683
 20
7.113622638195552
 30
0.0
  0
VERTEX
  5
45C
330
44E
100
AcDbEntity
  8
Livello 1
 62
     7
370
     9
100
AcDbVertex
100
AcDb2dVertex
 10
79.95377602167822
 20
7.113622638195552
 30
0.0
  0
VERTEX
  5
45D
330
44E
100
AcDbEntity
  8
Livello 1
 62
     7
370
     9
100
AcDbVertex
100
AcDb2dVertex
 10
79.9583579986736
 20
7.113622638195552
 30
0.0
  0
VERTEX
  5
45E
330
44E
100
AcDbEntity
  8
Livello 1
 62
     7
370
     9
100
AcDbVertex
100
AcDb2dVertex
 10
79.96073511455842
 20
7.113622638195552
 30
0.0
  0
VERTEX
  5
45F
330
44E
100
AcDbEntity
  8
Livello 1
 62
     7
370
     9
100
AcDbVertex
100
AcDb2dVertex
 10
79.9610451731521
 20
7.113622638195552
 30
0.0
  0
SEQEND
  5
460
330
44E
100
AcDbEntity
  8
Livello 1
370
     9
  0
POLYLINE
  5
461
330
72
100
AcDbEntity
  8
Livello 1
 62
     7
370
     9
100
AcDb2dPolyline
 66
     1
 10
0.0
 20
0.0
 30
0.0
  0
VERTEX
  5
462
330
461
100
AcDbEntity
  8
Livello 1
 62
     7
370
     9
100
AcDbVertex
100
AcDb2dVertex
 10
78.07709470704322
 20
7.113622638195552
 30
0.0
  0
VERTEX
  5
463
330
461
100
AcDbEntity
  8
Livello 1
 62
     7
370
     9
100
AcDbVertex
100
AcDb2dVertex
 10
78.07826603950821
 20
7.113622638195552
 30
0.0
  0
VERTEX
  5
464
330
461
100
AcDbEntity
  8
Livello 1
 62
     7
370
     9
100
AcDbVertex
100
AcDb2dVertex
 10
78.08171113499345
 20
7.113622638195552
 30
0.0
  0
VERTEX
  5
465
330
461
100
AcDbEntity
  8
Livello 1
 62
     7
370
     9
100
AcDbVertex
100
AcDb2dVertex
 10
78.08746444445383
 20
7.113622638195552
 30
0.0
  0
VERTEX
  5
466
330
461
100
AcDbEntity
  8
Livello 1
 62
     7
370
     9
100
AcDbVertex
100
AcDb2dVertex
 10
78.09511255643108
 20
7.113622638195552
 30
0.0
  0
VERTEX
  5
467
330
461
100
AcDbEntity
  8
Livello 1
 62
     7
370
     9
100
AcDbVertex
100
AcDb2dVertex
 10
78.10444876519611
 20
7.113622638195552
 30
0.0
  0
VERTEX
  5
468
330
461
100
AcDbEntity
  8
Livello 1
 62
     7
370
     9
100
AcDbVertex
100
AcDb2dVertex
 10
79.78107338500264
 20
7.113622638195552
 30
0.0
  0
VERTEX
  5
469
330
461
100
AcDbEntity
  8
Livello 1
 62
     7
370
     9
100
AcDbVertex
100
AcDb2dVertex
 10
79.79240774914912
 20
7.113622638195552
 30
0.0
  0
VERTEX
  5
46A
330
461
100
AcDbEntity
  8
Livello 1
 62
     7
370
     9
100
AcDbVertex
100
AcDb2dVertex
 10
79.80418997570867
 20
7.113622638195552
 30
0.0
  0
VERTEX
  5
46B
330
461
100
AcDbEntity
  8
Livello 1
 62
     7
370
     9
100
AcDbVertex
100
AcDb2dVertex
 10
79.81576549653911
 20
7.113622638195552
 30
0.0
  0
VERTEX
  5
46C
330
461
100
AcDbEntity
  8
Livello 1
 62
     7
370
     9
100
AcDbVertex
100
AcDb2dVertex
 10
79.82675535113705
 20
7.113622638195552
 30
0.0
  0
VERTEX
  5
46D
330
461
100
AcDbEntity
  8
Livello 1
 62
     7
370
     9
100
AcDbVertex
100
AcDb2dVertex
 10
79.83674612804428
 20
7.113622638195552
 30
0.0
  0
VERTEX
  5
46E
330
461
100
AcDbEntity
  8
Livello 1
 62
     7
370
     9
100
AcDbVertex
100
AcDb2dVertex
 10
79.84491100434433
 20
7.113622638195552
 30
0.0
  0
SEQEND
  5
46F
330
461
100
AcDbEntity
  8
Livello 1
370
     9
  0
POLYLINE
  5
470
330
72
100
AcDbEntity
  8
Livello 1
 62
     7
370
     9
100
AcDb2dPolyline
 66
     1
 10
0.0
 20
0.0
 30
0.0
  0
VERTEX
  5
471
330
470
100
AcDbEntity
  8
Livello 1
 62
     7
370
     9
100
AcDbVertex
100
AcDb2dVertex
 10
79.96400795526941
 20
7.111917315930354
 30
0.0
  0
VERTEX
  5
472
330
470
100
AcDbEntity
  8
Livello 1
 62
     7
370
     9
100
AcDbVertex
100
AcDb2dVertex
 10
79.96273326993986
 20
7.111917315930354
 30
0.0
  0
VERTEX
  5
473
330
470
100
AcDbEntity
  8
Livello 1
 62
     7
370
     9
100
AcDbVertex
100
AcDb2dVertex
 10
79.95904701777064
 20
7.111917315930354
 30
0.0
  0
VERTEX
  5
474
330
470
100
AcDbEntity
  8
Livello 1
 62
     7
370
     9
100
AcDbVertex
100
AcDb2dVertex
 10
79.95305255162631
 20
7.111917315930354
 30
0.0
  0
VERTEX
  5
475
330
470
100
AcDbEntity
  8
Livello 1
 62
     7
370
     9
100
AcDbVertex
100
AcDb2dVertex
 10
79.94499102819083
 20
7.111917315930354
 30
0.0
  0
VERTEX
  5
476
330
470
100
AcDbEntity
  8
Livello 1
 62
     7
370
     9
100
AcDbVertex
100
AcDb2dVertex
 10
79.93527585892242
 20
7.111917315930354
 30
0.0
  0
VERTEX
  5
477
330
470
100
AcDbEntity
  8
Livello 1
 62
     7
370
     9
100
AcDbVertex
100
AcDb2dVertex
 10
79.92414820050507
 20
7.111917315930354
 30
0.0
  0
VERTEX
  5
478
330
470
100
AcDbEntity
  8
Livello 1
 62
     7
370
     9
100
AcDbVertex
100
AcDb2dVertex
 10
79.9122281701261
 20
7.111917315930354
 30
0.0
  0
VERTEX
  5
479
330
470
100
AcDbEntity
  8
Livello 1
 62
     7
370
     9
100
AcDbVertex
100
AcDb2dVertex
 10
79.89989472828891
 20
7.111917315930354
 30
0.0
  0
VERTEX
  5
47A
330
470
100
AcDbEntity
  8
Livello 1
 62
     7
370
     9
100
AcDbVertex
100
AcDb2dVertex
 10
79.88769909027113
 20
7.111917315930354
 30
0.0
  0
VERTEX
  5
47B
330
470
100
AcDbEntity
  8
Livello 1
 62
     7
370
     9
100
AcDbVertex
100
AcDb2dVertex
 10
79.87612356944068
 20
7.111917315930354
 30
0.0
  0
VERTEX
  5
47C
330
470
100
AcDbEntity
  8
Livello 1
 62
     7
370
     9
100
AcDbVertex
100
AcDb2dVertex
 10
79.86565047916552
 20
7.111917315930354
 30
0.0
  0
VERTEX
  5
47D
330
470
100
AcDbEntity
  8
Livello 1
 62
     7
370
     9
100
AcDbVertex
100
AcDb2dVertex
 10
79.85665877994903
 20
7.111917315930354
 30
0.0
  0
VERTEX
  5
47E
330
470
100
AcDbEntity
  8
Livello 1
 62
     7
370
     9
100
AcDbVertex
100
AcDb2dVertex
 10
79.84963078515912
 20
7.111917315930354
 30
0.0
  0
VERTEX
  5
47F
330
470
100
AcDbEntity
  8
Livello 1
 62
     7
370
     9
100
AcDbVertex
100
AcDb2dVertex
 10
79.84480765147977
 20
7.111917315930354
 30
0.0
  0
VERTEX
  5
480
330
470
100
AcDbEntity
  8
Livello 1
 62
     7
370
     9
100
AcDbVertex
100
AcDb2dVertex
 10
79.84229273177553
 20
7.111917315930354
 30
0.0
  0
VERTEX
  5
481
330
470
100
AcDbEntity
  8
Livello 1
 62
     7
370
     9
100
AcDbVertex
100
AcDb2dVertex
 10
79.84198267318186
 20
7.111917315930354
 30
0.0
  0
SEQEND
  5
482
330
470
100
AcDbEntity
  8
Livello 1
370
     9
  0
POLYLINE
  5
483
330
72
100
AcDbEntity
  8
Livello 1
 62
     7
370
     9
100
AcDb2dPolyline
 66
     1
 10
0.0
 20
0.0
 30
0.0
  0
VERTEX
  5
484
330
483
100
AcDbEntity
  8
Livello 1
 62
     7
370
     9
100
AcDbVertex
100
AcDb2dVertex
 10
79.84198267318186
 20
7.111917315930354
 30
0.0
  0
VERTEX
  5
485
330
483
100
AcDbEntity
  8
Livello 1
 62
     7
370
     9
100
AcDbVertex
100
AcDb2dVertex
 10
79.83354218924299
 20
7.111917315930354
 30
0.0
  0
VERTEX
  5
486
330
483
100
AcDbEntity
  8
Livello 1
 62
     7
370
     9
100
AcDbVertex
100
AcDb2dVertex
 10
79.82238007987078
 20
7.111917315930354
 30
0.0
  0
VERTEX
  5
487
330
483
100
AcDbEntity
  8
Livello 1
 62
     7
370
     9
100
AcDbVertex
100
AcDb2dVertex
 10
79.81046004949182
 20
7.111917315930354
 30
0.0
  0
VERTEX
  5
488
330
483
100
AcDbEntity
  8
Livello 1
 62
     7
370
     9
100
AcDbVertex
100
AcDb2dVertex
 10
79.79809215669978
 20
7.111917315930354
 30
0.0
  0
VERTEX
  5
489
330
483
100
AcDbEntity
  8
Livello 1
 62
     7
370
     9
100
AcDbVertex
100
AcDb2dVertex
 10
79.785896518682
 20
7.111917315930354
 30
0.0
  0
VERTEX
  5
48A
330
483
100
AcDbEntity
  8
Livello 1
 62
     7
370
     9
100
AcDbVertex
100
AcDb2dVertex
 10
78.10827282118473
 20
7.111917315930354
 30
0.0
  0
VERTEX
  5
48B
330
483
100
AcDbEntity
  8
Livello 1
 62
     7
370
     9
100
AcDbVertex
100
AcDb2dVertex
 10
78.09776527995471
 20
7.111917315930354
 30
0.0
  0
VERTEX
  5
48C
330
483
100
AcDbEntity
  8
Livello 1
 62
     7
370
     9
100
AcDbVertex
100
AcDb2dVertex
 10
78.08884248264792
 20
7.111917315930354
 30
0.0
  0
VERTEX
  5
48D
330
483
100
AcDbEntity
  8
Livello 1
 62
     7
370
     9
100
AcDbVertex
100
AcDb2dVertex
 10
78.08178003690315
 20
7.111917315930354
 30
0.0
  0
VERTEX
  5
48E
330
483
100
AcDbEntity
  8
Livello 1
 62
     7
370
     9
100
AcDbVertex
100
AcDb2dVertex
 10
78.07692245226896
 20
7.111917315930354
 30
0.0
  0
VERTEX
  5
48F
330
483
100
AcDbEntity
  8
Livello 1
 62
     7
370
     9
100
AcDbVertex
100
AcDb2dVertex
 10
78.07444198351958
 20
7.111917315930354
 30
0.0
  0
VERTEX
  5
490
330
483
100
AcDbEntity
  8
Livello 1
 62
     7
370
     9
100
AcDbVertex
100
AcDb2dVertex
 10
78.07413192492591
 20
7.111917315930354
 30
0.0
  0
SEQEND
  5
491
330
483
100
AcDbEntity
  8
Livello 1
370
     9
  0
SPLINE
  5
492
330
72
100
AcDbEntity
  8
Livello 1
 62
     7
370
     9
100
AcDbSpline
210
0.0
220
0.0
230
1.0
 70
     8
 71
     3
 72
    17
 73
    13
 74
     0
 42
0.0000000001
 43
0.0000000001
 40
0.0
 40
0.0
 40
0.0
 40
0.0
 40
1.0
 40
1.0
 40
1.0
 40
2.0
 40
2.0
 40
2.0
 40
3.0
 40
3.0
 40
3.0
 40
4.0
 40
4.0
 40
4.0
 40
4.0
 10
79.68543753433211
 20
6.765116778907679
 30
0.0
 10
79.68543753433211
 20
6.564612221666138
 30
0.0
 10
79.63710284467405
 20
6.246957192448677
 30
0.0
 10
79.82038192448934
 20
5.935486109627239
 30
0.0
 10
79.9632844852175
 20
5.692658554349404
 30
0.0
 10
80.48252927675436
 20
5.626805554148854
 30
0.0
 10
80.48252927675436
 20
5.046582572523076
 30
0.0
 10
80.48252927675436
 20
4.53905110563607
 30
0.0
 10
80.25253470215908
 20
3.951111110123333
 30
0.0
 10
80.25253470215908
 20
3.545416665780312
 30
0.0
 10
80.25253470215908
 20
2.707569443767552
 30
0.0
 10
80.43553817433555
 20
2.560946179915319
 30
0.0
 10
80.43553817433555
 20
2.100130207808301
 30
0.0
  0
POLYLINE
  5
493
330
72
100
AcDbEntity
  8
Livello 1
 62
     7
370
     9
100
AcDb2dPolyline
 66
     1
 10
0.0
 20
0.0
 30
0.0
  0
VERTEX
  5
494
330
493
100
AcDbEntity
  8
Livello 1
 62
     7
370
     9
100
AcDbVertex
100
AcDb2dVertex
 10
80.42695988657728
 20
6.963950464838873
 30
0.0
  0
VERTEX
  5
495
330
493
100
AcDbEntity
  8
Livello 1
 62
     7
370
     9
100
AcDbVertex
100
AcDb2dVertex
 10
80.42695988657728
 20
2.094928113625573
 30
0.0
  0
SEQEND
  5
496
330
493
100
AcDbEntity
  8
Livello 1
370
     9
  0
INSERT
  5
498
330
72
100
AcDbEntity
  8
Livello 1
100
AcDbBlockReference
  2
block 5
 10
0.0
 20
0.0
 30
0.0
  0
ENDBLK
  5
75
330
72
100
AcDbEntity
  8
0
100
AcDbBlockEnd
  0
BLOCK
  5
499
330
497
100
AcDbEntity
  8
0
100
AcDbBlockBegin
  2
block 5
 70
     0
 71
     0
 10
0.0
 20
0.0
 30
0.0
  3
block 5
  1

  0
POLYLINE
  5
49B
330
497
100
AcDbEntity
  8
Livello 1
 62
     7
370
     9
100
AcDb2dPolyline
 66
     1
 10
0.0
 20
0.0
 30
0.0
  0
VERTEX
  5
49C
330
49B
100
AcDbEntity
  8
Livello 1
 62
     7
370
     9
100
AcDbVertex
100
AcDb2dVertex
 10
67.64072914975648
 20
6.943900009114719
 30
0.0
  0
VERTEX
  5
49D
330
49B
100
AcDbEntity
  8
Livello 1
 62
     7
370
     9
100
AcDbVertex
100
AcDb2dVertex
 10
67.64072914975648
 20
1.846192219590535
 30
0.0
  0
SEQEND
  5
49E
330
49B
100
AcDbEntity
  8
Livello 1
370
     9
  0
ENDBLK
  5
49A
330
497
100
AcDbEntity
  8
0
100
AcDbBlockEnd
  0
BLOCK
  5
4B0
330
4AE
100
AcDbEntity
  8
0
100
AcDbBlockBegin
  2
block 6
 70
     0
 71
     0
 10
0.0
 20
0.0
 30
0.0
  3
block 6
  1

  0
POLYLINE
  5
4B2
330
4AE
100
AcDbEntity
  8
Livello 1
 62
     7
370
     9
100
AcDb2dPolyline
 66
     1
 10
0.0
 20
0.0
 30
0.0
  0
VERTEX
  5
4B3
330
4B2
100
AcDbEntity
  8
Livello 1
 62
     7
370
     9
100
AcDbVertex
100
AcDb2dVertex
 10
80.39977808319865
 20
6.965535208762088
 30
0.0
  0
VERTEX
  5
4B4
330
4B2
100
AcDbEntity
  8
Livello 1
 62
     7
370
     9
100
AcDbVertex
100
AcDb2dVertex
 10
80.3996058284244
 20
6.965535208762088
 30
0.0
  0
VERTEX
  5
4B5
330
4B2
100
AcDbEntity
  8
Livello 1
 62
     7
370
     9
100
AcDbVertex
100
AcDb2dVertex
 10
80.39939912269529
 20
6.965535208762088
 30
0.0
  0
VERTEX
  5
4B6
330
4B2
100
AcDbEntity
  8
Livello 1
 62
     7
370
     9
100
AcDbVertex
100
AcDb2dVertex
 10
80.39922686792102
 20
6.965535208762088
 30
0.0
  0
SEQEND
  5
4B7
330
4B2
100
AcDbEntity
  8
Livello 1
370
     9
  0
POLYLINE
  5
4B8
330
4AE
100
AcDbEntity
  8
Livello 1
 62
     7
370
     9
100
AcDb2dPolyline
 66
     1
 10
0.0
 20
0.0
 30
0.0
  0
VERTEX
  5
4B9
330
4B8
100
AcDbEntity
  8
Livello 1
 62
     7
370
     9
100
AcDbVertex
100
AcDb2dVertex
 10
80.38565319170914
 20
6.965535208762088
 30
0.0
  0
VERTEX
  5
4BA
330
4B8
100
AcDbEntity
  8
Livello 1
 62
     7
370
     9
100
AcDbVertex
100
AcDb2dVertex
 10
80.38641111271589
 20
6.965535208762088
 30
0.0
  0
VERTEX
  5
4BB
330
4B8
100
AcDbEntity
  8
Livello 1
 62
     7
370
     9
100
AcDbVertex
100
AcDb2dVertex
 10
80.38940834578806
 20
6.965535208762088
 30
0.0
  0
SEQEND
  5
4BC
330
4B8
100
AcDbEntity
  8
Livello 1
370
     9
  0
POLYLINE
  5
4BD
330
4AE
100
AcDbEntity
  8
Livello 1
 62
     7
370
     9
100
AcDb2dPolyline
 66
     1
 10
0.0
 20
0.0
 30
0.0
  0
VERTEX
  5
4BE
330
4BD
100
AcDbEntity
  8
Livello 1
 62
     7
370
     9
100
AcDbVertex
100
AcDb2dVertex
 10
80.39977808319865
 20
6.965535208762088
 30
0.0
  0
VERTEX
  5
4BF
330
4BD
100
AcDbEntity
  8
Livello 1
 62
     7
370
     9
100
AcDbVertex
100
AcDb2dVertex
 10
80.40777070472444
 20
6.965535208762088
 30
0.0
  0
VERTEX
  5
4C0
330
4BD
100
AcDbEntity
  8
Livello 1
 62
     7
370
     9
100
AcDbVertex
100
AcDb2dVertex
 10
80.41669350203124
 20
6.965535208762088
 30
0.0
  0
VERTEX
  5
4C1
330
4BD
100
AcDbEntity
  8
Livello 1
 62
     7
370
     9
100
AcDbVertex
100
AcDb2dVertex
 10
80.42613306366083
 20
6.965535208762088
 30
0.0
  0
VERTEX
  5
4C2
330
4BD
100
AcDbEntity
  8
Livello 1
 62
     7
370
     9
100
AcDbVertex
100
AcDb2dVertex
 10
80.43543482147099
 20
6.965535208762088
 30
0.0
  0
VERTEX
  5
4C3
330
4BD
100
AcDbEntity
  8
Livello 1
 62
     7
370
     9
100
AcDbVertex
100
AcDb2dVertex
 10
80.44408201113897
 20
6.965535208762088
 30
0.0
  0
VERTEX
  5
4C4
330
4BD
100
AcDbEntity
  8
Livello 1
 62
     7
370
     9
100
AcDbVertex
100
AcDb2dVertex
 10
80.45155786834196
 20
6.965535208762088
 30
0.0
  0
VERTEX
  5
4C5
330
4BD
100
AcDbEntity
  8
Livello 1
 62
     7
370
     9
100
AcDbVertex
100
AcDb2dVertex
 10
80.4574834325766
 20
6.965535208762088
 30
0.0
  0
VERTEX
  5
4C6
330
4BD
100
AcDbEntity
  8
Livello 1
 62
     7
370
     9
100
AcDbVertex
100
AcDb2dVertex
 10
80.46141084142978
 20
6.965535208762088
 30
0.0
  0
VERTEX
  5
4C7
330
4BD
100
AcDbEntity
  8
Livello 1
 62
     7
370
     9
100
AcDbVertex
100
AcDb2dVertex
 10
80.46320229108211
 20
6.965535208762088
 30
0.0
  0
VERTEX
  5
4C8
330
4BD
100
AcDbEntity
  8
Livello 1
 62
     7
370
     9
100
AcDbVertex
100
AcDb2dVertex
 10
80.46327119299181
 20
6.965535208762088
 30
0.0
  0
SEQEND
  5
4C9
330
4BD
100
AcDbEntity
  8
Livello 1
370
     9
  0
POLYLINE
  5
4CA
330
4AE
100
AcDbEntity
  8
Livello 1
 62
     7
370
     9
100
AcDb2dPolyline
 66
     1
 10
0.0
 20
0.0
 30
0.0
  0
VERTEX
  5
4CB
330
4CA
100
AcDbEntity
  8
Livello 1
 62
     7
370
     9
100
AcDbVertex
100
AcDb2dVertex
 10
80.46327119299181
 20
7.113984373221504
 30
0.0
  0
VERTEX
  5
4CC
330
4CA
100
AcDbEntity
  8
Livello 1
 62
     7
370
     9
100
AcDbVertex
100
AcDb2dVertex
 10
80.46327119299181
 20
7.113984373221504
 30
0.0
  0
VERTEX
  5
4CD
330
4CA
100
AcDbEntity
  8
Livello 1
 62
     7
370
     9
100
AcDbVertex
100
AcDb2dVertex
 10
80.46178980193316
 20
7.113984373221504
 30
0.0
  0
VERTEX
  5
4CE
330
4CA
100
AcDbEntity
  8
Livello 1
 62
     7
370
     9
100
AcDbVertex
100
AcDb2dVertex
 10
80.45796574594453
 20
7.113984373221504
 30
0.0
  0
VERTEX
  5
4CF
330
4CA
100
AcDbEntity
  8
Livello 1
 62
     7
370
     9
100
AcDbVertex
100
AcDb2dVertex
 10
80.4520401817099
 20
7.113984373221504
 30
0.0
  0
VERTEX
  5
4D0
330
4CA
100
AcDbEntity
  8
Livello 1
 62
     7
370
     9
100
AcDbVertex
100
AcDb2dVertex
 10
80.44432316782294
 20
7.113984373221504
 30
0.0
  0
VERTEX
  5
4D1
330
4CA
100
AcDbEntity
  8
Livello 1
 62
     7
370
     9
100
AcDbVertex
100
AcDb2dVertex
 10
80.43543482147099
 20
7.113984373221504
 30
0.0
  0
VERTEX
  5
4D2
330
4CA
100
AcDbEntity
  8
Livello 1
 62
     7
370
     9
100
AcDbVertex
100
AcDb2dVertex
 10
80.425857456022
 20
7.113984373221504
 30
0.0
  0
VERTEX
  5
4D3
330
4CA
100
AcDbEntity
  8
Livello 1
 62
     7
370
     9
100
AcDbVertex
100
AcDb2dVertex
 10
80.4161422867536
 20
7.113984373221504
 30
0.0
  0
VERTEX
  5
4D4
330
4CA
100
AcDbEntity
  8
Livello 1
 62
     7
370
     9
100
AcDbVertex
100
AcDb2dVertex
 10
80.40694388180798
 20
7.113984373221504
 30
0.0
  0
VERTEX
  5
4D5
330
4CA
100
AcDbEntity
  8
Livello 1
 62
     7
370
     9
100
AcDbVertex
100
AcDb2dVertex
 10
80.39891680932735
 20
7.113984373221504
 30
0.0
  0
VERTEX
  5
4D6
330
4CA
100
AcDbEntity
  8
Livello 1
 62
     7
370
     9
100
AcDbVertex
100
AcDb2dVertex
 10
80.39244002981508
 20
7.113984373221504
 30
0.0
  0
VERTEX
  5
4D7
330
4CA
100
AcDbEntity
  8
Livello 1
 62
     7
370
     9
100
AcDbVertex
100
AcDb2dVertex
 10
80.38796140568425
 20
7.113984373221504
 30
0.0
  0
VERTEX
  5
4D8
330
4CA
100
AcDbEntity
  8
Livello 1
 62
     7
370
     9
100
AcDbVertex
100
AcDb2dVertex
 10
80.3858254464834
 20
7.113984373221504
 30
0.0
  0
VERTEX
  5
4D9
330
4CA
100
AcDbEntity
  8
Livello 1
 62
     7
370
     9
100
AcDbVertex
100
AcDb2dVertex
 10
80.38565319170914
 20
7.113984373221504
 30
0.0
  0
SEQEND
  5
4DA
330
4CA
100
AcDbEntity
  8
Livello 1
370
     9
  0
POLYLINE
  5
4DB
330
4AE
100
AcDbEntity
  8
Livello 1
 62
     7
370
     9
100
AcDb2dPolyline
 66
     1
 10
0.0
 20
0.0
 30
0.0
  0
VERTEX
  5
4DC
330
4DB
100
AcDbEntity
  8
Livello 1
 62
     7
370
     9
100
AcDbVertex
100
AcDb2dVertex
 10
80.3726996326846
 20
7.124319659677253
 30
0.0
  0
VERTEX
  5
4DD
330
4DB
100
AcDbEntity
  8
Livello 1
 62
     7
370
     9
100
AcDbVertex
100
AcDb2dVertex
 10
80.37349200464621
 20
7.124319659677253
 30
0.0
  0
VERTEX
  5
4DE
330
4DB
100
AcDbEntity
  8
Livello 1
 62
     7
370
     9
100
AcDbVertex
100
AcDb2dVertex
 10
80.37662704153779
 20
7.124319659677253
 30
0.0
  0
VERTEX
  5
4DF
330
4DB
100
AcDbEntity
  8
Livello 1
 62
     7
370
     9
100
AcDbVertex
100
AcDb2dVertex
 10
80.38200139049478
 20
7.124319659677253
 30
0.0
  0
VERTEX
  5
4E0
330
4DB
100
AcDbEntity
  8
Livello 1
 62
     7
370
     9
100
AcDbVertex
100
AcDb2dVertex
 10
80.38937389483321
 20
7.124319659677253
 30
0.0
  0
VERTEX
  5
4E1
330
4DB
100
AcDbEntity
  8
Livello 1
 62
     7
370
     9
100
AcDbVertex
100
AcDb2dVertex
 10
80.39836559404971
 20
7.124319659677253
 30
0.0
  0
VERTEX
  5
4E2
330
4DB
100
AcDbEntity
  8
Livello 1
 62
     7
370
     9
100
AcDbVertex
100
AcDb2dVertex
 10
80.40859752764091
 20
7.124319659677253
 30
0.0
  0
VERTEX
  5
4E3
330
4DB
100
AcDbEntity
  8
Livello 1
 62
     7
370
     9
100
AcDbVertex
100
AcDb2dVertex
 10
80.41951848032915
 20
7.124319659677253
 30
0.0
  0
VERTEX
  5
4E4
330
4DB
100
AcDbEntity
  8
Livello 1
 62
     7
370
     9
100
AcDbVertex
100
AcDb2dVertex
 10
80.43078394256591
 20
7.124319659677253
 30
0.0
  0
VERTEX
  5
4E5
330
4DB
100
AcDbEntity
  8
Livello 1
 62
     7
370
     9
100
AcDbVertex
100
AcDb2dVertex
 10
80.44163599334445
 20
7.124319659677253
 30
0.0
  0
VERTEX
  5
4E6
330
4DB
100
AcDbEntity
  8
Livello 1
 62
     7
370
     9
100
AcDbVertex
100
AcDb2dVertex
 10
80.45173012311623
 20
7.124319659677253
 30
0.0
  0
VERTEX
  5
4E7
330
4DB
100
AcDbEntity
  8
Livello 1
 62
     7
370
     9
100
AcDbVertex
100
AcDb2dVertex
 10
80.46051511660362
 20
7.124319659677253
 30
0.0
  0
VERTEX
  5
4E8
330
4DB
100
AcDbEntity
  8
Livello 1
 62
     7
370
     9
100
AcDbVertex
100
AcDb2dVertex
 10
80.46768091521294
 20
7.124319659677253
 30
0.0
  0
VERTEX
  5
4E9
330
4DB
100
AcDbEntity
  8
Livello 1
 62
     7
370
     9
100
AcDbVertex
100
AcDb2dVertex
 10
80.47281410748596
 20
7.124319659677253
 30
0.0
  0
VERTEX
  5
4EA
330
4DB
100
AcDbEntity
  8
Livello 1
 62
     7
370
     9
100
AcDbVertex
100
AcDb2dVertex
 10
80.47567353673871
 20
7.124319659677253
 30
0.0
  0
VERTEX
  5
4EB
330
4DB
100
AcDbEntity
  8
Livello 1
 62
     7
370
     9
100
AcDbVertex
100
AcDb2dVertex
 10
80.47619030106151
 20
7.124319659677253
 30
0.0
  0
SEQEND
  5
4EC
330
4DB
100
AcDbEntity
  8
Livello 1
370
     9
  0
POLYLINE
  5
4ED
330
4AE
100
AcDbEntity
  8
Livello 1
 62
     7
370
     9
100
AcDb2dPolyline
 66
     1
 10
0.0
 20
0.0
 30
0.0
  0
VERTEX
  5
4EE
330
4ED
100
AcDbEntity
  8
Livello 1
 62
     7
370
     9
100
AcDbVertex
100
AcDb2dVertex
 10
80.47619030106151
 20
7.130469155118424
 30
0.0
  0
VERTEX
  5
4EF
330
4ED
100
AcDbEntity
  8
Livello 1
 62
     7
370
     9
100
AcDbVertex
100
AcDb2dVertex
 10
80.47619030106151
 20
7.130469155118424
 30
0.0
  0
VERTEX
  5
4F0
330
4ED
100
AcDbEntity
  8
Livello 1
 62
     7
370
     9
100
AcDbVertex
100
AcDb2dVertex
 10
80.47453665522858
 20
7.130469155118424
 30
0.0
  0
VERTEX
  5
4F1
330
4ED
100
AcDbEntity
  8
Livello 1
 62
     7
370
     9
100
AcDbVertex
100
AcDb2dVertex
 10
80.47047144255599
 20
7.130469155118424
 30
0.0
  0
VERTEX
  5
4F2
330
4ED
100
AcDbEntity
  8
Livello 1
 62
     7
370
     9
100
AcDbVertex
100
AcDb2dVertex
 10
80.46433917259225
 20
7.130469155118424
 30
0.0
  0
VERTEX
  5
4F3
330
4ED
100
AcDbEntity
  8
Livello 1
 62
     7
370
     9
100
AcDbVertex
100
AcDb2dVertex
 10
80.45638100202132
 20
7.130469155118424
 30
0.0
  0
SEQEND
  5
4F4
330
4ED
100
AcDbEntity
  8
Livello 1
370
     9
  0
POLYLINE
  5
4F5
330
4AE
100
AcDbEntity
  8
Livello 1
 62
     7
370
     9
100
AcDb2dPolyline
 66
     1
 10
0.0
 20
0.0
 30
0.0
  0
VERTEX
  5
4F6
330
4F5
100
AcDbEntity
  8
Livello 1
 62
     7
370
     9
100
AcDbVertex
100
AcDb2dVertex
 10
80.45638100202132
 20
7.130469155118424
 30
0.0
  0
VERTEX
  5
4F7
330
4F5
100
AcDbEntity
  8
Livello 1
 62
     7
370
     9
100
AcDbVertex
100
AcDb2dVertex
 10
80.44683808752717
 20
7.130469155118424
 30
0.0
  0
VERTEX
  5
4F8
330
4F5
100
AcDbEntity
  8
Livello 1
 62
     7
370
     9
100
AcDbVertex
100
AcDb2dVertex
 10
80.43629609534231
 20
7.130469155118424
 30
0.0
  0
VERTEX
  5
4F9
330
4F5
100
AcDbEntity
  8
Livello 1
 62
     7
370
     9
100
AcDbVertex
100
AcDb2dVertex
 10
80.4251339859701
 20
7.130469155118424
 30
0.0
  0
VERTEX
  5
4FA
330
4F5
100
AcDbEntity
  8
Livello 1
 62
     7
370
     9
100
AcDbVertex
100
AcDb2dVertex
 10
80.4140407785076
 20
7.130469155118424
 30
0.0
  0
VERTEX
  5
4FB
330
4F5
100
AcDbEntity
  8
Livello 1
 62
     7
370
     9
100
AcDbVertex
100
AcDb2dVertex
 10
80.40336098250332
 20
7.130469155118424
 30
0.0
  0
VERTEX
  5
4FC
330
4F5
100
AcDbEntity
  8
Livello 1
 62
     7
370
     9
100
AcDbVertex
100
AcDb2dVertex
 10
80.39371471514463
 20
7.130469155118424
 30
0.0
  0
VERTEX
  5
4FD
330
4F5
100
AcDbEntity
  8
Livello 1
 62
     7
370
     9
100
AcDbVertex
100
AcDb2dVertex
 10
80.38544648598003
 20
7.130469155118424
 30
0.0
  0
VERTEX
  5
4FE
330
4F5
100
AcDbEntity
  8
Livello 1
 62
     7
370
     9
100
AcDbVertex
100
AcDb2dVertex
 10
80.37907305933231
 20
7.130469155118424
 30
0.0
  0
VERTEX
  5
4FF
330
4F5
100
AcDbEntity
  8
Livello 1
 62
     7
370
     9
100
AcDbVertex
100
AcDb2dVertex
 10
80.37476668997574
 20
7.130469155118424
 30
0.0
  0
VERTEX
  5
500
330
4F5
100
AcDbEntity
  8
Livello 1
 62
     7
370
     9
100
AcDbVertex
100
AcDb2dVertex
 10
80.37280298554916
 20
7.130469155118424
 30
0.0
  0
VERTEX
  5
501
330
4F5
100
AcDbEntity
  8
Livello 1
 62
     7
370
     9
100
AcDbVertex
100
AcDb2dVertex
 10
80.3726996326846
 20
7.130469155118424
 30
0.0
  0
SEQEND
  5
502
330
4F5
100
AcDbEntity
  8
Livello 1
370
     9
  0
POLYLINE
  5
503
330
4AE
100
AcDbEntity
  8
Livello 1
 62
     7
370
     9
100
AcDb2dPolyline
 66
     1
 10
0.0
 20
0.0
 30
0.0
  0
VERTEX
  5
504
330
503
100
AcDbEntity
  8
Livello 1
 62
     7
370
     9
100
AcDbVertex
100
AcDb2dVertex
 10
80.39746986922354
 20
6.963950464838873
 30
0.0
  0
VERTEX
  5
505
330
503
100
AcDbEntity
  8
Livello 1
 62
     7
370
     9
100
AcDbVertex
100
AcDb2dVertex
 10
80.39088973684672
 20
6.963950464838873
 30
0.0
  0
SEQEND
  5
506
330
503
100
AcDbEntity
  8
Livello 1
370
     9
  0
POLYLINE
  5
507
330
4AE
100
AcDbEntity
  8
Livello 1
 62
     7
370
     9
100
AcDb2dPolyline
 66
     1
 10
0.0
 20
0.0
 30
0.0
  0
VERTEX
  5
508
330
507
100
AcDbEntity
  8
Livello 1
 62
     7
370
     9
100
AcDbVertex
100
AcDb2dVertex
 10
80.3919232654923
 20
6.965535208762088
 30
0.0
  0
VERTEX
  5
509
330
507
100
AcDbEntity
  8
Livello 1
 62
     7
370
     9
100
AcDbVertex
100
AcDb2dVertex
 10
80.39812443736574
 20
6.965535208762088
 30
0.0
  0
SEQEND
  5
50A
330
507
100
AcDbEntity
  8
Livello 1
370
     9
  0
POLYLINE
  5
50B
330
4AE
100
AcDbEntity
  8
Livello 1
 62
     7
370
     9
100
AcDb2dPolyline
 66
     1
 10
0.0
 20
0.0
 30
0.0
  0
VERTEX
  5
50C
330
50B
100
AcDbEntity
  8
Livello 1
 62
     7
370
     9
100
AcDbVertex
100
AcDb2dVertex
 10
80.3919232654923
 20
6.965535208762088
 30
0.0
  0
VERTEX
  5
50D
330
50B
100
AcDbEntity
  8
Livello 1
 62
     7
370
     9
100
AcDbVertex
100
AcDb2dVertex
 10
80.39157875594377
 20
6.965535208762088
 30
0.0
  0
VERTEX
  5
50E
330
50B
100
AcDbEntity
  8
Livello 1
 62
     7
370
     9
100
AcDbVertex
100
AcDb2dVertex
 10
80.39119979544039
 20
6.965535208762088
 30
0.0
  0
VERTEX
  5
50F
330
50B
100
AcDbEntity
  8
Livello 1
 62
     7
370
     9
100
AcDbVertex
100
AcDb2dVertex
 10
80.39082083493702
 20
6.965535208762088
 30
0.0
  0
VERTEX
  5
510
330
50B
100
AcDbEntity
  8
Livello 1
 62
     7
370
     9
100
AcDbVertex
100
AcDb2dVertex
 10
80.39044187443363
 20
6.965535208762088
 30
0.0
  0
VERTEX
  5
511
330
50B
100
AcDbEntity
  8
Livello 1
 62
     7
370
     9
100
AcDbVertex
100
AcDb2dVertex
 10
80.39009736488511
 20
6.965535208762088
 30
0.0
  0
VERTEX
  5
512
330
50B
100
AcDbEntity
  8
Livello 1
 62
     7
370
     9
100
AcDbVertex
100
AcDb2dVertex
 10
80.38978730629144
 20
6.965535208762088
 30
0.0
  0
VERTEX
  5
513
330
50B
100
AcDbEntity
  8
Livello 1
 62
     7
370
     9
100
AcDbVertex
100
AcDb2dVertex
 10
80.38961505151717
 20
6.965535208762088
 30
0.0
  0
VERTEX
  5
514
330
50B
100
AcDbEntity
  8
Livello 1
 62
     7
370
     9
100
AcDbVertex
100
AcDb2dVertex
 10
80.38940834578806
 20
6.965535208762088
 30
0.0
  0
SEQEND
  5
515
330
50B
100
AcDbEntity
  8
Livello 1
370
     9
  0
POLYLINE
  5
516
330
4AE
100
AcDbEntity
  8
Livello 1
 62
     7
370
     9
100
AcDb2dPolyline
 66
     1
 10
0.0
 20
0.0
 30
0.0
  0
VERTEX
  5
517
330
516
100
AcDbEntity
  8
Livello 1
 62
     7
370
     9
100
AcDbVertex
100
AcDb2dVertex
 10
80.3919232654923
 20
6.965535208762088
 30
0.0
  0
VERTEX
  5
518
330
516
100
AcDbEntity
  8
Livello 1
 62
     7
370
     9
100
AcDbVertex
100
AcDb2dVertex
 10
80.39185436358258
 20
6.965225150168416
 30
0.0
  0
VERTEX
  5
519
330
516
100
AcDbEntity
  8
Livello 1
 62
     7
370
     9
100
AcDbVertex
100
AcDb2dVertex
 10
80.39181991262774
 20
6.964983993484448
 30
0.0
  0
VERTEX
  5
51A
330
516
100
AcDbEntity
  8
Livello 1
 62
     7
370
     9
100
AcDbVertex
100
AcDb2dVertex
 10
80.39175101071802
 20
6.964622258458497
 30
0.0
  0
VERTEX
  5
51B
330
516
100
AcDbEntity
  8
Livello 1
 62
     7
370
     9
100
AcDbVertex
100
AcDb2dVertex
 10
80.39157875594377
 20
6.96438110177453
 30
0.0
  0
VERTEX
  5
51C
330
516
100
AcDbEntity
  8
Livello 1
 62
     7
370
     9
100
AcDbVertex
100
AcDb2dVertex
 10
80.3914065011695
 20
6.964191621522841
 30
0.0
  0
VERTEX
  5
51D
330
516
100
AcDbEntity
  8
Livello 1
 62
     7
370
     9
100
AcDbVertex
100
AcDb2dVertex
 10
80.39119979544039
 20
6.963984915793725
 30
0.0
  0
VERTEX
  5
51E
330
516
100
AcDbEntity
  8
Livello 1
 62
     7
370
     9
100
AcDbVertex
100
AcDb2dVertex
 10
80.39109644257583
 20
6.963950464838873
 30
0.0
  0
VERTEX
  5
51F
330
516
100
AcDbEntity
  8
Livello 1
 62
     7
370
     9
100
AcDbVertex
100
AcDb2dVertex
 10
80.39088973684672
 20
6.963950464838873
 30
0.0
  0
SEQEND
  5
520
330
516
100
AcDbEntity
  8
Livello 1
370
     9
  0
POLYLINE
  5
521
330
4AE
100
AcDbEntity
  8
Livello 1
 62
     7
370
     9
100
AcDb2dPolyline
 66
     1
 10
0.0
 20
0.0
 30
0.0
  0
VERTEX
  5
522
330
521
100
AcDbEntity
  8
Livello 1
 62
     7
370
     9
100
AcDbVertex
100
AcDb2dVertex
 10
80.39746986922354
 20
6.963950464838873
 30
0.0
  0
VERTEX
  5
523
330
521
100
AcDbEntity
  8
Livello 1
 62
     7
370
     9
100
AcDbVertex
100
AcDb2dVertex
 10
80.39857229977882
 20
6.963950464838873
 30
0.0
  0
VERTEX
  5
524
330
521
100
AcDbEntity
  8
Livello 1
 62
     7
370
     9
100
AcDbVertex
100
AcDb2dVertex
 10
80.40088051375395
 20
6.963950464838873
 30
0.0
  0
SEQEND
  5
525
330
521
100
AcDbEntity
  8
Livello 1
370
     9
  0
POLYLINE
  5
526
330
4AE
100
AcDbEntity
  8
Livello 1
 62
     7
370
     9
100
AcDb2dPolyline
 66
     1
 10
0.0
 20
0.0
 30
0.0
  0
VERTEX
  5
527
330
526
100
AcDbEntity
  8
Livello 1
 62
     7
370
     9
100
AcDbVertex
100
AcDb2dVertex
 10
80.39812443736574
 20
6.965535208762088
 30
0.0
  0
VERTEX
  5
528
330
526
100
AcDbEntity
  8
Livello 1
 62
     7
370
     9
100
AcDbVertex
100
AcDb2dVertex
 10
80.39805553545604
 20
6.9650184444393
 30
0.0
  0
VERTEX
  5
529
330
526
100
AcDbEntity
  8
Livello 1
 62
     7
370
     9
100
AcDbVertex
100
AcDb2dVertex
 10
80.39798663354632
 20
6.964587807503644
 30
0.0
  0
VERTEX
  5
52A
330
526
100
AcDbEntity
  8
Livello 1
 62
     7
370
     9
100
AcDbVertex
100
AcDb2dVertex
 10
80.39781437877207
 20
6.964191621522841
 30
0.0
  0
VERTEX
  5
52B
330
526
100
AcDbEntity
  8
Livello 1
 62
     7
370
     9
100
AcDbVertex
100
AcDb2dVertex
 10
80.39760767304296
 20
6.963984915793725
 30
0.0
  0
VERTEX
  5
52C
330
526
100
AcDbEntity
  8
Livello 1
 62
     7
370
     9
100
AcDbVertex
100
AcDb2dVertex
 10
80.39746986922354
 20
6.963950464838873
 30
0.0
  0
SEQEND
  5
52D
330
526
100
AcDbEntity
  8
Livello 1
370
     9
  0
POLYLINE
  5
52E
330
4AE
100
AcDbEntity
  8
Livello 1
 62
     7
370
     9
100
AcDb2dPolyline
 66
     1
 10
0.0
 20
0.0
 30
0.0
  0
VERTEX
  5
52F
330
52E
100
AcDbEntity
  8
Livello 1
 62
     7
370
     9
100
AcDbVertex
100
AcDb2dVertex
 10
80.39977808319865
 20
6.965535208762088
 30
0.0
  0
VERTEX
  5
530
330
52E
100
AcDbEntity
  8
Livello 1
 62
     7
370
     9
100
AcDbVertex
100
AcDb2dVertex
 10
80.39984698510837
 20
6.965225150168416
 30
0.0
  0
VERTEX
  5
531
330
52E
100
AcDbEntity
  8
Livello 1
 62
     7
370
     9
100
AcDbVertex
100
AcDb2dVertex
 10
80.39991588701807
 20
6.964983993484448
 30
0.0
  0
VERTEX
  5
532
330
52E
100
AcDbEntity
  8
Livello 1
 62
     7
370
     9
100
AcDbVertex
100
AcDb2dVertex
 10
80.39995033797292
 20
6.964622258458497
 30
0.0
  0
VERTEX
  5
533
330
52E
100
AcDbEntity
  8
Livello 1
 62
     7
370
     9
100
AcDbVertex
100
AcDb2dVertex
 10
80.40008814179234
 20
6.96438110177453
 30
0.0
  0
VERTEX
  5
534
330
52E
100
AcDbEntity
  8
Livello 1
 62
     7
370
     9
100
AcDbVertex
100
AcDb2dVertex
 10
80.40022594561174
 20
6.964191621522841
 30
0.0
  0
VERTEX
  5
535
330
52E
100
AcDbEntity
  8
Livello 1
 62
     7
370
     9
100
AcDbVertex
100
AcDb2dVertex
 10
80.40039820038601
 20
6.963984915793725
 30
0.0
  0
VERTEX
  5
536
330
52E
100
AcDbEntity
  8
Livello 1
 62
     7
370
     9
100
AcDbVertex
100
AcDb2dVertex
 10
80.40067380802482
 20
6.963950464838873
 30
0.0
  0
VERTEX
  5
537
330
52E
100
AcDbEntity
  8
Livello 1
 62
     7
370
     9
100
AcDbVertex
100
AcDb2dVertex
 10
80.40088051375395
 20
6.963950464838873
 30
0.0
  0
SEQEND
  5
538
330
52E
100
AcDbEntity
  8
Livello 1
370
     9
  0
POLYLINE
  5
539
330
4AE
100
AcDbEntity
  8
Livello 1
 62
     7
370
     9
100
AcDb2dPolyline
 66
     1
 10
0.0
 20
0.0
 30
0.0
  0
VERTEX
  5
53A
330
539
100
AcDbEntity
  8
Livello 1
 62
     7
370
     9
100
AcDbVertex
100
AcDb2dVertex
 10
80.46165199811375
 20
6.963950464838873
 30
0.0
  0
VERTEX
  5
53B
330
539
100
AcDbEntity
  8
Livello 1
 62
     7
370
     9
100
AcDbVertex
100
AcDb2dVertex
 10
80.46068737137787
 20
6.963950464838873
 30
0.0
  0
VERTEX
  5
53C
330
539
100
AcDbEntity
  8
Livello 1
 62
     7
370
     9
100
AcDbVertex
100
AcDb2dVertex
 10
80.45744898162174
 20
6.963950464838873
 30
0.0
  0
VERTEX
  5
53D
330
539
100
AcDbEntity
  8
Livello 1
 62
     7
370
     9
100
AcDbVertex
100
AcDb2dVertex
 10
80.45207463266475
 20
6.963950464838873
 30
0.0
  0
VERTEX
  5
53E
330
539
100
AcDbEntity
  8
Livello 1
 62
     7
370
     9
100
AcDbVertex
100
AcDb2dVertex
 10
80.44490883405544
 20
6.963950464838873
 30
0.0
  0
VERTEX
  5
53F
330
539
100
AcDbEntity
  8
Livello 1
 62
     7
370
     9
100
AcDbVertex
100
AcDb2dVertex
 10
80.43639944820687
 20
6.963950464838873
 30
0.0
  0
VERTEX
  5
540
330
539
100
AcDbEntity
  8
Livello 1
 62
     7
370
     9
100
AcDbVertex
100
AcDb2dVertex
 10
80.42720104326125
 20
6.963950464838873
 30
0.0
  0
VERTEX
  5
541
330
539
100
AcDbEntity
  8
Livello 1
 62
     7
370
     9
100
AcDbVertex
100
AcDb2dVertex
 10
80.41779593258651
 20
6.963950464838873
 30
0.0
  0
VERTEX
  5
542
330
539
100
AcDbEntity
  8
Livello 1
 62
     7
370
     9
100
AcDbVertex
100
AcDb2dVertex
 10
80.40880423337002
 20
6.963950464838873
 30
0.0
  0
VERTEX
  5
543
330
539
100
AcDbEntity
  8
Livello 1
 62
     7
370
     9
100
AcDbVertex
100
AcDb2dVertex
 10
80.40088051375395
 20
6.963950464838873
 30
0.0
  0
SEQEND
  5
544
330
539
100
AcDbEntity
  8
Livello 1
370
     9
  0
POLYLINE
  5
545
330
4AE
100
AcDbEntity
  8
Livello 1
 62
     7
370
     9
100
AcDb2dPolyline
 66
     1
 10
0.0
 20
0.0
 30
0.0
  0
VERTEX
  5
546
330
545
100
AcDbEntity
  8
Livello 1
 62
     7
370
     9
100
AcDbVertex
100
AcDb2dVertex
 10
80.39088973684672
 20
6.963950464838873
 30
0.0
  0
VERTEX
  5
547
330
545
100
AcDbEntity
  8
Livello 1
 62
     7
370
     9
100
AcDbVertex
100
AcDb2dVertex
 10
80.38789250377455
 20
6.963950464838873
 30
0.0
  0
VERTEX
  5
548
330
545
100
AcDbEntity
  8
Livello 1
 62
     7
370
     9
100
AcDbVertex
100
AcDb2dVertex
 10
80.38723793563236
 20
6.963950464838873
 30
0.0
  0
SEQEND
  5
549
330
545
100
AcDbEntity
  8
Livello 1
370
     9
  0
POLYLINE
  5
54A
330
4AE
100
AcDbEntity
  8
Livello 1
 62
     7
370
     9
100
AcDb2dPolyline
 66
     1
 10
0.0
 20
0.0
 30
0.0
  0
VERTEX
  5
54B
330
54A
100
AcDbEntity
  8
Livello 1
 62
     7
370
     9
100
AcDbVertex
100
AcDb2dVertex
 10
80.38940834578806
 20
6.965535208762088
 30
0.0
  0
VERTEX
  5
54C
330
54A
100
AcDbEntity
  8
Livello 1
 62
     7
370
     9
100
AcDbVertex
100
AcDb2dVertex
 10
80.38940834578806
 20
6.965225150168416
 30
0.0
  0
VERTEX
  5
54D
330
54A
100
AcDbEntity
  8
Livello 1
 62
     7
370
     9
100
AcDbVertex
100
AcDb2dVertex
 10
80.38954614960747
 20
6.964983993484448
 30
0.0
  0
VERTEX
  5
54E
330
54A
100
AcDbEntity
  8
Livello 1
 62
     7
370
     9
100
AcDbVertex
100
AcDb2dVertex
 10
80.38968395342688
 20
6.964622258458497
 30
0.0
  0
VERTEX
  5
54F
330
54A
100
AcDbEntity
  8
Livello 1
 62
     7
370
     9
100
AcDbVertex
100
AcDb2dVertex
 10
80.38978730629144
 20
6.96438110177453
 30
0.0
  0
VERTEX
  5
550
330
54A
100
AcDbEntity
  8
Livello 1
 62
     7
370
     9
100
AcDbVertex
100
AcDb2dVertex
 10
80.39006291393025
 20
6.964191621522841
 30
0.0
  0
VERTEX
  5
551
330
54A
100
AcDbEntity
  8
Livello 1
 62
     7
370
     9
100
AcDbVertex
100
AcDb2dVertex
 10
80.39033852156908
 20
6.963984915793725
 30
0.0
  0
VERTEX
  5
552
330
54A
100
AcDbEntity
  8
Livello 1
 62
     7
370
     9
100
AcDbVertex
100
AcDb2dVertex
 10
80.39057967825305
 20
6.963950464838873
 30
0.0
  0
VERTEX
  5
553
330
54A
100
AcDbEntity
  8
Livello 1
 62
     7
370
     9
100
AcDbVertex
100
AcDb2dVertex
 10
80.39088973684672
 20
6.963950464838873
 30
0.0
  0
SEQEND
  5
554
330
54A
100
AcDbEntity
  8
Livello 1
370
     9
  0
POLYLINE
  5
555
330
4AE
100
AcDbEntity
  8
Livello 1
 62
     7
370
     9
100
AcDb2dPolyline
 66
     1
 10
0.0
 20
0.0
 30
0.0
  0
VERTEX
  5
556
330
555
100
AcDbEntity
  8
Livello 1
 62
     7
370
     9
100
AcDbVertex
100
AcDb2dVertex
 10
80.47105710878849
 20
7.119169241926804
 30
0.0
  0
VERTEX
  5
557
330
555
100
AcDbEntity
  8
Livello 1
 62
     7
370
     9
100
AcDbVertex
100
AcDb2dVertex
 10
80.47105710878849
 20
7.119169241926804
 30
0.0
  0
VERTEX
  5
558
330
555
100
AcDbEntity
  8
Livello 1
 62
     7
370
     9
100
AcDbVertex
100
AcDb2dVertex
 10
80.46978242345894
 20
7.119169241926804
 30
0.0
  0
VERTEX
  5
559
330
555
100
AcDbEntity
  8
Livello 1
 62
     7
370
     9
100
AcDbVertex
100
AcDb2dVertex
 10
80.46626842606398
 20
7.119169241926804
 30
0.0
  0
VERTEX
  5
55A
330
555
100
AcDbEntity
  8
Livello 1
 62
     7
370
     9
100
AcDbVertex
100
AcDb2dVertex
 10
80.46054956755847
 20
7.119169241926804
 30
0.0
  0
VERTEX
  5
55B
330
555
100
AcDbEntity
  8
Livello 1
 62
     7
370
     9
100
AcDbVertex
100
AcDb2dVertex
 10
80.45314261226518
 20
7.119169241926804
 30
0.0
  0
VERTEX
  5
55C
330
555
100
AcDbEntity
  8
Livello 1
 62
     7
370
     9
100
AcDbVertex
100
AcDb2dVertex
 10
80.44425426591323
 20
7.119169241926804
 30
0.0
  0
VERTEX
  5
55D
330
555
100
AcDbEntity
  8
Livello 1
 62
     7
370
     9
100
AcDbVertex
100
AcDb2dVertex
 10
80.43433239091571
 20
7.119169241926804
 30
0.0
  0
VERTEX
  5
55E
330
555
100
AcDbEntity
  8
Livello 1
 62
     7
370
     9
100
AcDbVertex
100
AcDb2dVertex
 10
80.42399710445997
 20
7.119169241926804
 30
0.0
  0
VERTEX
  5
55F
330
555
100
AcDbEntity
  8
Livello 1
 62
     7
370
     9
100
AcDbVertex
100
AcDb2dVertex
 10
80.41362736704937
 20
7.119169241926804
 30
0.0
  0
VERTEX
  5
560
330
555
100
AcDbEntity
  8
Livello 1
 62
     7
370
     9
100
AcDbVertex
100
AcDb2dVertex
 10
80.40387774682611
 20
7.119169241926804
 30
0.0
  0
VERTEX
  5
561
330
555
100
AcDbEntity
  8
Livello 1
 62
     7
370
     9
100
AcDbVertex
100
AcDb2dVertex
 10
80.39512720429357
 20
7.119169241926804
 30
0.0
  0
VERTEX
  5
562
330
555
100
AcDbEntity
  8
Livello 1
 62
     7
370
     9
100
AcDbVertex
100
AcDb2dVertex
 10
80.38775469995514
 20
7.119169241926804
 30
0.0
  0
VERTEX
  5
563
330
555
100
AcDbEntity
  8
Livello 1
 62
     7
370
     9
100
AcDbVertex
100
AcDb2dVertex
 10
80.38231144908845
 20
7.119169241926804
 30
0.0
  0
VERTEX
  5
564
330
555
100
AcDbEntity
  8
Livello 1
 62
     7
370
     9
100
AcDbVertex
100
AcDb2dVertex
 10
80.3789352555129
 20
7.119169241926804
 30
0.0
  0
VERTEX
  5
565
330
555
100
AcDbEntity
  8
Livello 1
 62
     7
370
     9
100
AcDbVertex
100
AcDb2dVertex
 10
80.37783282495762
 20
7.119169241926804
 30
0.0
  0
SEQEND
  5
566
330
555
100
AcDbEntity
  8
Livello 1
370
     9
  0
POLYLINE
  5
567
330
4AE
100
AcDbEntity
  8
Livello 1
 62
     7
370
     9
100
AcDb2dPolyline
 66
     1
 10
0.0
 20
0.0
 30
0.0
  0
VERTEX
  5
568
330
567
100
AcDbEntity
  8
Livello 1
 62
     7
370
     9
100
AcDbVertex
100
AcDb2dVertex
 10
80.37435327851752
 20
7.132088349996491
 30
0.0
  0
VERTEX
  5
569
330
567
100
AcDbEntity
  8
Livello 1
 62
     7
370
     9
100
AcDbVertex
100
AcDb2dVertex
 10
80.37442218042722
 20
7.132088349996491
 30
0.0
  0
VERTEX
  5
56A
330
567
100
AcDbEntity
  8
Livello 1
 62
     7
370
     9
100
AcDbVertex
100
AcDb2dVertex
 10
80.3763169829441
 20
7.132088349996491
 30
0.0
  0
VERTEX
  5
56B
330
567
100
AcDbEntity
  8
Livello 1
 62
     7
370
     9
100
AcDbVertex
100
AcDb2dVertex
 10
80.38048554848126
 20
7.132088349996491
 30
0.0
  0
VERTEX
  5
56C
330
567
100
AcDbEntity
  8
Livello 1
 62
     7
370
     9
100
AcDbVertex
100
AcDb2dVertex
 10
80.38668672035472
 20
7.132088349996491
 30
0.0
  0
VERTEX
  5
56D
330
567
100
AcDbEntity
  8
Livello 1
 62
     7
370
     9
100
AcDbVertex
100
AcDb2dVertex
 10
80.39464489092563
 20
7.132088349996491
 30
0.0
  0
VERTEX
  5
56E
330
567
100
AcDbEntity
  8
Livello 1
 62
     7
370
     9
100
AcDbVertex
100
AcDb2dVertex
 10
80.40401555064552
 20
7.132088349996491
 30
0.0
  0
VERTEX
  5
56F
330
567
100
AcDbEntity
  8
Livello 1
 62
     7
370
     9
100
AcDbVertex
100
AcDb2dVertex
 10
80.41435083710127
 20
7.132088349996491
 30
0.0
  0
VERTEX
  5
570
330
567
100
AcDbEntity
  8
Livello 1
 62
     7
370
     9
100
AcDbVertex
100
AcDb2dVertex
 10
80.4251339859701
 20
7.132088349996491
 30
0.0
  0
VERTEX
  5
571
330
567
100
AcDbEntity
  8
Livello 1
 62
     7
370
     9
100
AcDbVertex
100
AcDb2dVertex
 10
80.43591713483893
 20
7.132088349996491
 30
0.0
  0
VERTEX
  5
572
330
567
100
AcDbEntity
  8
Livello 1
 62
     7
370
     9
100
AcDbVertex
100
AcDb2dVertex
 10
80.44614906843012
 20
7.132088349996491
 30
0.0
  0
VERTEX
  5
573
330
567
100
AcDbEntity
  8
Livello 1
 62
     7
370
     9
100
AcDbVertex
100
AcDb2dVertex
 10
80.45534747337574
 20
7.132088349996491
 30
0.0
  0
SEQEND
  5
574
330
567
100
AcDbEntity
  8
Livello 1
370
     9
  0
POLYLINE
  5
575
330
4AE
100
AcDbEntity
  8
Livello 1
 62
     7
370
     9
100
AcDb2dPolyline
 66
     1
 10
0.0
 20
0.0
 30
0.0
  0
VERTEX
  5
576
330
575
100
AcDbEntity
  8
Livello 1
 62
     7
370
     9
100
AcDbVertex
100
AcDb2dVertex
 10
80.45534747337574
 20
7.132088349996491
 30
0.0
  0
VERTEX
  5
577
330
575
100
AcDbEntity
  8
Livello 1
 62
     7
370
     9
100
AcDbVertex
100
AcDb2dVertex
 10
80.4630644872627
 20
7.132088349996491
 30
0.0
  0
VERTEX
  5
578
330
575
100
AcDbEntity
  8
Livello 1
 62
     7
370
     9
100
AcDbVertex
100
AcDb2dVertex
 10
80.46905895340703
 20
7.132088349996491
 30
0.0
  0
VERTEX
  5
579
330
575
100
AcDbEntity
  8
Livello 1
 62
     7
370
     9
100
AcDbVertex
100
AcDb2dVertex
 10
80.47298636226022
 20
7.132088349996491
 30
0.0
  0
VERTEX
  5
57A
330
575
100
AcDbEntity
  8
Livello 1
 62
     7
370
     9
100
AcDbVertex
100
AcDb2dVertex
 10
80.47457110618343
 20
7.132088349996491
 30
0.0
  0
SEQEND
  5
57B
330
575
100
AcDbEntity
  8
Livello 1
370
     9
  0
POLYLINE
  5
57C
330
4AE
100
AcDbEntity
  8
Livello 1
 62
     7
370
     9
100
AcDb2dPolyline
 66
     1
 10
0.0
 20
0.0
 30
0.0
  0
VERTEX
  5
57D
330
57C
100
AcDbEntity
  8
Livello 1
 62
     7
370
     9
100
AcDbVertex
100
AcDb2dVertex
 10
80.39922686792102
 20
6.965535208762088
 30
0.0
  0
VERTEX
  5
57E
330
57C
100
AcDbEntity
  8
Livello 1
 62
     7
370
     9
100
AcDbVertex
100
AcDb2dVertex
 10
80.39922686792102
 20
6.965225150168416
 30
0.0
  0
VERTEX
  5
57F
330
57C
100
AcDbEntity
  8
Livello 1
 62
     7
370
     9
100
AcDbVertex
100
AcDb2dVertex
 10
80.39933022078557
 20
6.964983993484448
 30
0.0
  0
VERTEX
  5
580
330
57C
100
AcDbEntity
  8
Livello 1
 62
     7
370
     9
100
AcDbVertex
100
AcDb2dVertex
 10
80.3995369265147
 20
6.964622258458497
 30
0.0
  0
VERTEX
  5
581
330
57C
100
AcDbEntity
  8
Livello 1
 62
     7
370
     9
100
AcDbVertex
100
AcDb2dVertex
 10
80.39970918128896
 20
6.96438110177453
 30
0.0
  0
VERTEX
  5
582
330
57C
100
AcDbEntity
  8
Livello 1
 62
     7
370
     9
100
AcDbVertex
100
AcDb2dVertex
 10
80.39991588701807
 20
6.964191621522841
 30
0.0
  0
VERTEX
  5
583
330
57C
100
AcDbEntity
  8
Livello 1
 62
     7
370
     9
100
AcDbVertex
100
AcDb2dVertex
 10
80.40022594561174
 20
6.963984915793725
 30
0.0
  0
VERTEX
  5
584
330
57C
100
AcDbEntity
  8
Livello 1
 62
     7
370
     9
100
AcDbVertex
100
AcDb2dVertex
 10
80.4004671022957
 20
6.963950464838873
 30
0.0
  0
VERTEX
  5
585
330
57C
100
AcDbEntity
  8
Livello 1
 62
     7
370
     9
100
AcDbVertex
100
AcDb2dVertex
 10
80.40088051375395
 20
6.963950464838873
 30
0.0
  0
SEQEND
  5
586
330
57C
100
AcDbEntity
  8
Livello 1
370
     9
  0
POLYLINE
  5
587
330
4AE
100
AcDbEntity
  8
Livello 1
 62
     7
370
     9
100
AcDb2dPolyline
 66
     1
 10
0.0
 20
0.0
 30
0.0
  0
VERTEX
  5
588
330
587
100
AcDbEntity
  8
Livello 1
 62
     7
370
     9
100
AcDbVertex
100
AcDb2dVertex
 10
80.46165199811375
 20
6.963950464838873
 30
0.0
  0
VERTEX
  5
589
330
587
100
AcDbEntity
  8
Livello 1
 62
     7
370
     9
100
AcDbVertex
100
AcDb2dVertex
 10
80.46192760575256
 20
6.963950464838873
 30
0.0
  0
VERTEX
  5
58A
330
587
100
AcDbEntity
  8
Livello 1
 62
     7
370
     9
100
AcDbVertex
100
AcDb2dVertex
 10
80.46230656625595
 20
6.963984915793725
 30
0.0
  0
VERTEX
  5
58B
330
587
100
AcDbEntity
  8
Livello 1
 62
     7
370
     9
100
AcDbVertex
100
AcDb2dVertex
 10
80.46258217389476
 20
6.964191621522841
 30
0.0
  0
VERTEX
  5
58C
330
587
100
AcDbEntity
  8
Livello 1
 62
     7
370
     9
100
AcDbVertex
100
AcDb2dVertex
 10
80.46275442866903
 20
6.96438110177453
 30
0.0
  0
VERTEX
  5
58D
330
587
100
AcDbEntity
  8
Livello 1
 62
     7
370
     9
100
AcDbVertex
100
AcDb2dVertex
 10
80.462995585353
 20
6.964622258458497
 30
0.0
  0
VERTEX
  5
58E
330
587
100
AcDbEntity
  8
Livello 1
 62
     7
370
     9
100
AcDbVertex
100
AcDb2dVertex
 10
80.4631333891724
 20
6.964983993484448
 30
0.0
  0
VERTEX
  5
58F
330
587
100
AcDbEntity
  8
Livello 1
 62
     7
370
     9
100
AcDbVertex
100
AcDb2dVertex
 10
80.46327119299181
 20
6.965225150168416
 30
0.0
  0
VERTEX
  5
590
330
587
100
AcDbEntity
  8
Livello 1
 62
     7
370
     9
100
AcDbVertex
100
AcDb2dVertex
 10
80.46327119299181
 20
6.965535208762088
 30
0.0
  0
SEQEND
  5
591
330
587
100
AcDbEntity
  8
Livello 1
370
     9
  0
POLYLINE
  5
592
330
4AE
100
AcDbEntity
  8
Livello 1
 62
     7
370
     9
100
AcDb2dPolyline
 66
     1
 10
0.0
 20
0.0
 30
0.0
  0
VERTEX
  5
593
330
592
100
AcDbEntity
  8
Livello 1
 62
     7
370
     9
100
AcDbVertex
100
AcDb2dVertex
 10
80.38565319170914
 20
6.965535208762088
 30
0.0
  0
VERTEX
  5
594
330
592
100
AcDbEntity
  8
Livello 1
 62
     7
370
     9
100
AcDbVertex
100
AcDb2dVertex
 10
80.385687642664
 20
6.965225150168416
 30
0.0
  0
VERTEX
  5
595
330
592
100
AcDbEntity
  8
Livello 1
 62
     7
370
     9
100
AcDbVertex
100
AcDb2dVertex
 10
80.3857565445737
 20
6.964983993484448
 30
0.0
  0
VERTEX
  5
596
330
592
100
AcDbEntity
  8
Livello 1
 62
     7
370
     9
100
AcDbVertex
100
AcDb2dVertex
 10
80.38592879934795
 20
6.964622258458497
 30
0.0
  0
VERTEX
  5
597
330
592
100
AcDbEntity
  8
Livello 1
 62
     7
370
     9
100
AcDbVertex
100
AcDb2dVertex
 10
80.38610105412222
 20
6.96438110177453
 30
0.0
  0
VERTEX
  5
598
330
592
100
AcDbEntity
  8
Livello 1
 62
     7
370
     9
100
AcDbVertex
100
AcDb2dVertex
 10
80.38634221080619
 20
6.964191621522841
 30
0.0
  0
VERTEX
  5
599
330
592
100
AcDbEntity
  8
Livello 1
 62
     7
370
     9
100
AcDbVertex
100
AcDb2dVertex
 10
80.386617818445
 20
6.963984915793725
 30
0.0
  0
VERTEX
  5
59A
330
592
100
AcDbEntity
  8
Livello 1
 62
     7
370
     9
100
AcDbVertex
100
AcDb2dVertex
 10
80.38692787703867
 20
6.963950464838873
 30
0.0
  0
VERTEX
  5
59B
330
592
100
AcDbEntity
  8
Livello 1
 62
     7
370
     9
100
AcDbVertex
100
AcDb2dVertex
 10
80.38723793563236
 20
6.963950464838873
 30
0.0
  0
SEQEND
  5
59C
330
592
100
AcDbEntity
  8
Livello 1
370
     9
  0
POLYLINE
  5
59D
330
4AE
100
AcDbEntity
  8
Livello 1
 62
     7
370
     9
100
AcDb2dPolyline
 66
     1
 10
0.0
 20
0.0
 30
0.0
  0
VERTEX
  5
59E
330
59D
100
AcDbEntity
  8
Livello 1
 62
     7
370
     9
100
AcDbVertex
100
AcDb2dVertex
 10
80.46327119299181
 20
6.965535208762088
 30
0.0
  0
VERTEX
  5
59F
330
59D
100
AcDbEntity
  8
Livello 1
 62
     7
370
     9
100
AcDbVertex
100
AcDb2dVertex
 10
80.46327119299181
 20
7.113984373221504
 30
0.0
  0
SEQEND
  5
5A0
330
59D
100
AcDbEntity
  8
Livello 1
370
     9
  0
POLYLINE
  5
5A1
330
4AE
100
AcDbEntity
  8
Livello 1
 62
     7
370
     9
100
AcDb2dPolyline
 66
     1
 10
0.0
 20
0.0
 30
0.0
  0
VERTEX
  5
5A2
330
5A1
100
AcDbEntity
  8
Livello 1
 62
     7
370
     9
100
AcDbVertex
100
AcDb2dVertex
 10
80.38565319170914
 20
7.113984373221504
 30
0.0
  0
VERTEX
  5
5A3
330
5A1
100
AcDbEntity
  8
Livello 1
 62
     7
370
     9
100
AcDbVertex
100
AcDb2dVertex
 10
80.38565319170914
 20
6.965535208762088
 30
0.0
  0
SEQEND
  5
5A4
330
5A1
100
AcDbEntity
  8
Livello 1
370
     9
  0
POLYLINE
  5
5A5
330
4AE
100
AcDbEntity
  8
Livello 1
 62
     7
370
     9
100
AcDb2dPolyline
 66
     1
 10
0.0
 20
0.0
 30
0.0
  0
VERTEX
  5
5A6
330
5A5
100
AcDbEntity
  8
Livello 1
 62
     7
370
     9
100
AcDbVertex
100
AcDb2dVertex
 10
80.46327119299181
 20
7.113984373221504
 30
0.0
  0
VERTEX
  5
5A7
330
5A5
100
AcDbEntity
  8
Livello 1
 62
     7
370
     9
100
AcDbVertex
100
AcDb2dVertex
 10
80.46337454585637
 20
7.115017901867079
 30
0.0
  0
VERTEX
  5
5A8
330
5A5
100
AcDbEntity
  8
Livello 1
 62
     7
370
     9
100
AcDbVertex
100
AcDb2dVertex
 10
80.46361570254034
 20
7.115965303125522
 30
0.0
  0
VERTEX
  5
5A9
330
5A5
100
AcDbEntity
  8
Livello 1
 62
     7
370
     9
100
AcDbVertex
100
AcDb2dVertex
 10
80.46416691781798
 20
7.116843802474261
 30
0.0
  0
VERTEX
  5
5AA
330
5A5
100
AcDbEntity
  8
Livello 1
 62
     7
370
     9
100
AcDbVertex
100
AcDb2dVertex
 10
80.46478703500533
 20
7.117618948958442
 30
0.0
  0
VERTEX
  5
5AB
330
5A5
100
AcDbEntity
  8
Livello 1
 62
     7
370
     9
100
AcDbVertex
100
AcDb2dVertex
 10
80.46557940696694
 20
7.118256291623213
 30
0.0
  0
VERTEX
  5
5AC
330
5A5
100
AcDbEntity
  8
Livello 1
 62
     7
370
     9
100
AcDbVertex
100
AcDb2dVertex
 10
80.46644068083825
 20
7.118790281423427
 30
0.0
  0
VERTEX
  5
5AD
330
5A5
100
AcDbEntity
  8
Livello 1
 62
     7
370
     9
100
AcDbVertex
100
AcDb2dVertex
 10
80.46740530757411
 20
7.119031438107394
 30
0.0
  0
VERTEX
  5
5AE
330
5A5
100
AcDbEntity
  8
Livello 1
 62
     7
370
     9
100
AcDbVertex
100
AcDb2dVertex
 10
80.46843883621969
 20
7.119169241926804
 30
0.0
  0
SEQEND
  5
5AF
330
5A5
100
AcDbEntity
  8
Livello 1
370
     9
  0
POLYLINE
  5
5B0
330
4AE
100
AcDbEntity
  8
Livello 1
 62
     7
370
     9
100
AcDb2dPolyline
 66
     1
 10
0.0
 20
0.0
 30
0.0
  0
VERTEX
  5
5B1
330
5B0
100
AcDbEntity
  8
Livello 1
 62
     7
370
     9
100
AcDbVertex
100
AcDb2dVertex
 10
80.38048554848126
 20
7.119169241926804
 30
0.0
  0
VERTEX
  5
5B2
330
5B0
100
AcDbEntity
  8
Livello 1
 62
     7
370
     9
100
AcDbVertex
100
AcDb2dVertex
 10
80.38151907712684
 20
7.119031438107394
 30
0.0
  0
VERTEX
  5
5B3
330
5B0
100
AcDbEntity
  8
Livello 1
 62
     7
370
     9
100
AcDbVertex
100
AcDb2dVertex
 10
80.38244925290786
 20
7.118790281423427
 30
0.0
  0
VERTEX
  5
5B4
330
5B0
100
AcDbEntity
  8
Livello 1
 62
     7
370
     9
100
AcDbVertex
100
AcDb2dVertex
 10
80.38334497773401
 20
7.118256291623213
 30
0.0
  0
VERTEX
  5
5B5
330
5B0
100
AcDbEntity
  8
Livello 1
 62
     7
370
     9
100
AcDbVertex
100
AcDb2dVertex
 10
80.38410289874078
 20
7.117618948958442
 30
0.0
  0
VERTEX
  5
5B6
330
5B0
100
AcDbEntity
  8
Livello 1
 62
     7
370
     9
100
AcDbVertex
100
AcDb2dVertex
 10
80.38475746688297
 20
7.116843802474261
 30
0.0
  0
VERTEX
  5
5B7
330
5B0
100
AcDbEntity
  8
Livello 1
 62
     7
370
     9
100
AcDbVertex
100
AcDb2dVertex
 10
80.38520532929606
 20
7.115965303125522
 30
0.0
  0
VERTEX
  5
5B8
330
5B0
100
AcDbEntity
  8
Livello 1
 62
     7
370
     9
100
AcDbVertex
100
AcDb2dVertex
 10
80.38551538788973
 20
7.115017901867079
 30
0.0
  0
VERTEX
  5
5B9
330
5B0
100
AcDbEntity
  8
Livello 1
 62
     7
370
     9
100
AcDbVertex
100
AcDb2dVertex
 10
80.38565319170914
 20
7.113984373221504
 30
0.0
  0
SEQEND
  5
5BA
330
5B0
100
AcDbEntity
  8
Livello 1
370
     9
  0
POLYLINE
  5
5BB
330
4AE
100
AcDbEntity
  8
Livello 1
 62
     7
370
     9
100
AcDb2dPolyline
 66
     1
 10
0.0
 20
0.0
 30
0.0
  0
VERTEX
  5
5BC
330
5BB
100
AcDbEntity
  8
Livello 1
 62
     7
370
     9
100
AcDbVertex
100
AcDb2dVertex
 10
80.47105710878849
 20
7.119169241926804
 30
0.0
  0
VERTEX
  5
5BD
330
5BB
100
AcDbEntity
  8
Livello 1
 62
     7
370
     9
100
AcDbVertex
100
AcDb2dVertex
 10
80.47202173552435
 20
7.119272594791362
 30
0.0
  0
VERTEX
  5
5BE
330
5BB
100
AcDbEntity
  8
Livello 1
 62
     7
370
     9
100
AcDbVertex
100
AcDb2dVertex
 10
80.47298636226022
 20
7.119530976952755
 30
0.0
  0
VERTEX
  5
5BF
330
5BB
100
AcDbEntity
  8
Livello 1
 62
     7
370
     9
100
AcDbVertex
100
AcDb2dVertex
 10
80.47391653804124
 20
7.119978839365838
 30
0.0
  0
VERTEX
  5
5C0
330
5BB
100
AcDbEntity
  8
Livello 1
 62
     7
370
     9
100
AcDbVertex
100
AcDb2dVertex
 10
80.47470891000285
 20
7.120685083940314
 30
0.0
  0
VERTEX
  5
5C1
330
5BB
100
AcDbEntity
  8
Livello 1
 62
     7
370
     9
100
AcDbVertex
100
AcDb2dVertex
 10
80.47532902719018
 20
7.121460230424495
 30
0.0
  0
VERTEX
  5
5C2
330
5BB
100
AcDbEntity
  8
Livello 1
 62
     7
370
     9
100
AcDbVertex
100
AcDb2dVertex
 10
80.47581134055812
 20
7.122355955250661
 30
0.0
  0
VERTEX
  5
5C3
330
5BB
100
AcDbEntity
  8
Livello 1
 62
     7
370
     9
100
AcDbVertex
100
AcDb2dVertex
 10
80.4761213991518
 20
7.123303356509104
 30
0.0
  0
VERTEX
  5
5C4
330
5BB
100
AcDbEntity
  8
Livello 1
 62
     7
370
     9
100
AcDbVertex
100
AcDb2dVertex
 10
80.47619030106151
 20
7.124319659677253
 30
0.0
  0
SEQEND
  5
5C5
330
5BB
100
AcDbEntity
  8
Livello 1
370
     9
  0
POLYLINE
  5
5C6
330
4AE
100
AcDbEntity
  8
Livello 1
 62
     7
370
     9
100
AcDb2dPolyline
 66
     1
 10
0.0
 20
0.0
 30
0.0
  0
VERTEX
  5
5C7
330
5C6
100
AcDbEntity
  8
Livello 1
 62
     7
370
     9
100
AcDbVertex
100
AcDb2dVertex
 10
80.3726996326846
 20
7.124319659677253
 30
0.0
  0
VERTEX
  5
5C8
330
5C6
100
AcDbEntity
  8
Livello 1
 62
     7
370
     9
100
AcDbVertex
100
AcDb2dVertex
 10
80.37280298554916
 20
7.123303356509104
 30
0.0
  0
VERTEX
  5
5C9
330
5C6
100
AcDbEntity
  8
Livello 1
 62
     7
370
     9
100
AcDbVertex
100
AcDb2dVertex
 10
80.37307859318797
 20
7.122355955250661
 30
0.0
  0
VERTEX
  5
5CA
330
5C6
100
AcDbEntity
  8
Livello 1
 62
     7
370
     9
100
AcDbVertex
100
AcDb2dVertex
 10
80.37356090655591
 20
7.121460230424495
 30
0.0
  0
VERTEX
  5
5CB
330
5C6
100
AcDbEntity
  8
Livello 1
 62
     7
370
     9
100
AcDbVertex
100
AcDb2dVertex
 10
80.3742154746981
 20
7.120685083940314
 30
0.0
  0
VERTEX
  5
5CC
330
5C6
100
AcDbEntity
  8
Livello 1
 62
     7
370
     9
100
AcDbVertex
100
AcDb2dVertex
 10
80.37497339570486
 20
7.119978839365838
 30
0.0
  0
VERTEX
  5
5CD
330
5C6
100
AcDbEntity
  8
Livello 1
 62
     7
370
     9
100
AcDbVertex
100
AcDb2dVertex
 10
80.37586912053102
 20
7.119530976952755
 30
0.0
  0
VERTEX
  5
5CE
330
5C6
100
AcDbEntity
  8
Livello 1
 62
     7
370
     9
100
AcDbVertex
100
AcDb2dVertex
 10
80.37686819822174
 20
7.119272594791362
 30
0.0
  0
VERTEX
  5
5CF
330
5C6
100
AcDbEntity
  8
Livello 1
 62
     7
370
     9
100
AcDbVertex
100
AcDb2dVertex
 10
80.37783282495762
 20
7.119169241926804
 30
0.0
  0
SEQEND
  5
5D0
330
5C6
100
AcDbEntity
  8
Livello 1
370
     9
  0
POLYLINE
  5
5D1
330
4AE
100
AcDbEntity
  8
Livello 1
 62
     7
370
     9
100
AcDb2dPolyline
 66
     1
 10
0.0
 20
0.0
 30
0.0
  0
VERTEX
  5
5D2
330
5D1
100
AcDbEntity
  8
Livello 1
 62
     7
370
     9
100
AcDbVertex
100
AcDb2dVertex
 10
80.47619030106151
 20
7.124319659677253
 30
0.0
  0
VERTEX
  5
5D3
330
5D1
100
AcDbEntity
  8
Livello 1
 62
     7
370
     9
100
AcDbVertex
100
AcDb2dVertex
 10
80.47619030106151
 20
7.130469155118424
 30
0.0
  0
SEQEND
  5
5D4
330
5D1
100
AcDbEntity
  8
Livello 1
370
     9
  0
POLYLINE
  5
5D5
330
4AE
100
AcDbEntity
  8
Livello 1
 62
     7
370
     9
100
AcDb2dPolyline
 66
     1
 10
0.0
 20
0.0
 30
0.0
  0
VERTEX
  5
5D6
330
5D5
100
AcDbEntity
  8
Livello 1
 62
     7
370
     9
100
AcDbVertex
100
AcDb2dVertex
 10
80.47619030106151
 20
7.130469155118424
 30
0.0
  0
VERTEX
  5
5D7
330
5D5
100
AcDbEntity
  8
Livello 1
 62
     7
370
     9
100
AcDbVertex
100
AcDb2dVertex
 10
80.47619030106151
 20
7.130779213712096
 30
0.0
  0
VERTEX
  5
5D8
330
5D5
100
AcDbEntity
  8
Livello 1
 62
     7
370
     9
100
AcDbVertex
100
AcDb2dVertex
 10
80.4760524972421
 20
7.131106497783195
 30
0.0
  0
VERTEX
  5
5D9
330
5D5
100
AcDbEntity
  8
Livello 1
 62
     7
370
     9
100
AcDbVertex
100
AcDb2dVertex
 10
80.47591469342268
 20
7.131382105422015
 30
0.0
  0
VERTEX
  5
5DA
330
5D5
100
AcDbEntity
  8
Livello 1
 62
     7
370
     9
100
AcDbVertex
100
AcDb2dVertex
 10
80.47574243864842
 20
7.131623262105983
 30
0.0
  0
VERTEX
  5
5DB
330
5D5
100
AcDbEntity
  8
Livello 1
 62
     7
370
     9
100
AcDbVertex
100
AcDb2dVertex
 10
80.4754668310096
 20
7.131795516880245
 30
0.0
  0
VERTEX
  5
5DC
330
5D5
100
AcDbEntity
  8
Livello 1
 62
     7
370
     9
100
AcDbVertex
100
AcDb2dVertex
 10
80.47519122337079
 20
7.131950546177081
 30
0.0
  0
VERTEX
  5
5DD
330
5D5
100
AcDbEntity
  8
Livello 1
 62
     7
370
     9
100
AcDbVertex
100
AcDb2dVertex
 10
80.4748811647771
 20
7.132088349996491
 30
0.0
  0
VERTEX
  5
5DE
330
5D5
100
AcDbEntity
  8
Livello 1
 62
     7
370
     9
100
AcDbVertex
100
AcDb2dVertex
 10
80.47457110618343
 20
7.132088349996491
 30
0.0
  0
SEQEND
  5
5DF
330
5D5
100
AcDbEntity
  8
Livello 1
370
     9
  0
ENDBLK
  5
4B1
330
4AE
100
AcDbEntity
  8
0
100
AcDbBlockEnd
  0
BLOCK
  5
5E2
330
5E0
100
AcDbEntity
  8
0
100
AcDbBlockBegin
  2
block 7
 70
     0
 71
     0
 10
0.0
 20
0.0
 30
0.0
  3
block 7
  1

  0
POLYLINE
  5
5E4
330
5E0
100
AcDbEntity
  8
Livello 1
 62
     7
370
     9
100
AcDb2dPolyline
 66
     1
 10
0.0
 20
0.0
 30
0.0
  0
VERTEX
  5
5E5
330
5E4
100
AcDbEntity
  8
Livello 1
 62
     7
370
     9
100
AcDbVertex
100
AcDb2dVertex
 10
67.61688908899855
 20
6.945484753037934
 30
0.0
  0
VERTEX
  5
5E6
330
5E4
100
AcDbEntity
  8
Livello 1
 62
     7
370
     9
100
AcDbVertex
100
AcDb2dVertex
 10
67.61671683422429
 20
6.945484753037934
 30
0.0
  0
VERTEX
  5
5E7
330
5E4
100
AcDbEntity
  8
Livello 1
 62
     7
370
     9
100
AcDbVertex
100
AcDb2dVertex
 10
67.61651012849518
 20
6.945484753037934
 30
0.0
  0
VERTEX
  5
5E8
330
5E4
100
AcDbEntity
  8
Livello 1
 62
     7
370
     9
100
AcDbVertex
100
AcDb2dVertex
 10
67.61633787372091
 20
6.945484753037934
 30
0.0
  0
SEQEND
  5
5E9
330
5E4
100
AcDbEntity
  8
Livello 1
370
     9
  0
POLYLINE
  5
5EA
330
5E0
100
AcDbEntity
  8
Livello 1
 62
     7
370
     9
100
AcDb2dPolyline
 66
     1
 10
0.0
 20
0.0
 30
0.0
  0
VERTEX
  5
5EB
330
5EA
100
AcDbEntity
  8
Livello 1
 62
     7
370
     9
100
AcDbVertex
100
AcDb2dVertex
 10
67.60276419750903
 20
6.945484753037934
 30
0.0
  0
VERTEX
  5
5EC
330
5EA
100
AcDbEntity
  8
Livello 1
 62
     7
370
     9
100
AcDbVertex
100
AcDb2dVertex
 10
67.60352211851578
 20
6.945484753037934
 30
0.0
  0
VERTEX
  5
5ED
330
5EA
100
AcDbEntity
  8
Livello 1
 62
     7
370
     9
100
AcDbVertex
100
AcDb2dVertex
 10
67.60651935158795
 20
6.945484753037934
 30
0.0
  0
SEQEND
  5
5EE
330
5EA
100
AcDbEntity
  8
Livello 1
370
     9
  0
POLYLINE
  5
5EF
330
5E0
100
AcDbEntity
  8
Livello 1
 62
     7
370
     9
100
AcDb2dPolyline
 66
     1
 10
0.0
 20
0.0
 30
0.0
  0
VERTEX
  5
5F0
330
5EF
100
AcDbEntity
  8
Livello 1
 62
     7
370
     9
100
AcDbVertex
100
AcDb2dVertex
 10
67.61688908899855
 20
6.945484753037934
 30
0.0
  0
VERTEX
  5
5F1
330
5EF
100
AcDbEntity
  8
Livello 1
 62
     7
370
     9
100
AcDbVertex
100
AcDb2dVertex
 10
67.62488171052433
 20
6.945484753037934
 30
0.0
  0
VERTEX
  5
5F2
330
5EF
100
AcDbEntity
  8
Livello 1
 62
     7
370
     9
100
AcDbVertex
100
AcDb2dVertex
 10
67.63380450783113
 20
6.945484753037934
 30
0.0
  0
VERTEX
  5
5F3
330
5EF
100
AcDbEntity
  8
Livello 1
 62
     7
370
     9
100
AcDbVertex
100
AcDb2dVertex
 10
67.6432440694607
 20
6.945484753037934
 30
0.0
  0
VERTEX
  5
5F4
330
5EF
100
AcDbEntity
  8
Livello 1
 62
     7
370
     9
100
AcDbVertex
100
AcDb2dVertex
 10
67.65254582727088
 20
6.945484753037934
 30
0.0
  0
VERTEX
  5
5F5
330
5EF
100
AcDbEntity
  8
Livello 1
 62
     7
370
     9
100
AcDbVertex
100
AcDb2dVertex
 10
67.66119301693887
 20
6.945484753037934
 30
0.0
  0
VERTEX
  5
5F6
330
5EF
100
AcDbEntity
  8
Livello 1
 62
     7
370
     9
100
AcDbVertex
100
AcDb2dVertex
 10
67.66866887414186
 20
6.945484753037934
 30
0.0
  0
VERTEX
  5
5F7
330
5EF
100
AcDbEntity
  8
Livello 1
 62
     7
370
     9
100
AcDbVertex
100
AcDb2dVertex
 10
67.67459443837649
 20
6.945484753037934
 30
0.0
  0
VERTEX
  5
5F8
330
5EF
100
AcDbEntity
  8
Livello 1
 62
     7
370
     9
100
AcDbVertex
100
AcDb2dVertex
 10
67.67852184722967
 20
6.945484753037934
 30
0.0
  0
VERTEX
  5
5F9
330
5EF
100
AcDbEntity
  8
Livello 1
 62
     7
370
     9
100
AcDbVertex
100
AcDb2dVertex
 10
67.680313296882
 20
6.945484753037934
 30
0.0
  0
VERTEX
  5
5FA
330
5EF
100
AcDbEntity
  8
Livello 1
 62
     7
370
     9
100
AcDbVertex
100
AcDb2dVertex
 10
67.6803821987917
 20
6.945484753037934
 30
0.0
  0
SEQEND
  5
5FB
330
5EF
100
AcDbEntity
  8
Livello 1
370
     9
  0
POLYLINE
  5
5FC
330
5E0
100
AcDbEntity
  8
Livello 1
 62
     7
370
     9
100
AcDb2dPolyline
 66
     1
 10
0.0
 20
0.0
 30
0.0
  0
VERTEX
  5
5FD
330
5FC
100
AcDbEntity
  8
Livello 1
 62
     7
370
     9
100
AcDbVertex
100
AcDb2dVertex
 10
67.6803821987917
 20
7.093933917497349
 30
0.0
  0
VERTEX
  5
5FE
330
5FC
100
AcDbEntity
  8
Livello 1
 62
     7
370
     9
100
AcDbVertex
100
AcDb2dVertex
 10
67.6803821987917
 20
7.093933917497349
 30
0.0
  0
VERTEX
  5
5FF
330
5FC
100
AcDbEntity
  8
Livello 1
 62
     7
370
     9
100
AcDbVertex
100
AcDb2dVertex
 10
67.67890080773304
 20
7.093933917497349
 30
0.0
  0
VERTEX
  5
600
330
5FC
100
AcDbEntity
  8
Livello 1
 62
     7
370
     9
100
AcDbVertex
100
AcDb2dVertex
 10
67.67507675174443
 20
7.093933917497349
 30
0.0
  0
VERTEX
  5
601
330
5FC
100
AcDbEntity
  8
Livello 1
 62
     7
370
     9
100
AcDbVertex
100
AcDb2dVertex
 10
67.6691511875098
 20
7.093933917497349
 30
0.0
  0
VERTEX
  5
602
330
5FC
100
AcDbEntity
  8
Livello 1
 62
     7
370
     9
100
AcDbVertex
100
AcDb2dVertex
 10
67.66143417362284
 20
7.093933917497349
 30
0.0
  0
VERTEX
  5
603
330
5FC
100
AcDbEntity
  8
Livello 1
 62
     7
370
     9
100
AcDbVertex
100
AcDb2dVertex
 10
67.65254582727088
 20
7.093933917497349
 30
0.0
  0
VERTEX
  5
604
330
5FC
100
AcDbEntity
  8
Livello 1
 62
     7
370
     9
100
AcDbVertex
100
AcDb2dVertex
 10
67.6429684618219
 20
7.093933917497349
 30
0.0
  0
VERTEX
  5
605
330
5FC
100
AcDbEntity
  8
Livello 1
 62
     7
370
     9
100
AcDbVertex
100
AcDb2dVertex
 10
67.63325329255349
 20
7.093933917497349
 30
0.0
  0
VERTEX
  5
606
330
5FC
100
AcDbEntity
  8
Livello 1
 62
     7
370
     9
100
AcDbVertex
100
AcDb2dVertex
 10
67.62405488760787
 20
7.093933917497349
 30
0.0
  0
VERTEX
  5
607
330
5FC
100
AcDbEntity
  8
Livello 1
 62
     7
370
     9
100
AcDbVertex
100
AcDb2dVertex
 10
67.61602781512724
 20
7.093933917497349
 30
0.0
  0
VERTEX
  5
608
330
5FC
100
AcDbEntity
  8
Livello 1
 62
     7
370
     9
100
AcDbVertex
100
AcDb2dVertex
 10
67.60955103561497
 20
7.093933917497349
 30
0.0
  0
VERTEX
  5
609
330
5FC
100
AcDbEntity
  8
Livello 1
 62
     7
370
     9
100
AcDbVertex
100
AcDb2dVertex
 10
67.60507241148414
 20
7.093933917497349
 30
0.0
  0
VERTEX
  5
60A
330
5FC
100
AcDbEntity
  8
Livello 1
 62
     7
370
     9
100
AcDbVertex
100
AcDb2dVertex
 10
67.60293645228329
 20
7.093933917497349
 30
0.0
  0
VERTEX
  5
60B
330
5FC
100
AcDbEntity
  8
Livello 1
 62
     7
370
     9
100
AcDbVertex
100
AcDb2dVertex
 10
67.60276419750903
 20
7.093933917497349
 30
0.0
  0
SEQEND
  5
60C
330
5FC
100
AcDbEntity
  8
Livello 1
370
     9
  0
POLYLINE
  5
60D
330
5E0
100
AcDbEntity
  8
Livello 1
 62
     7
370
     9
100
AcDb2dPolyline
 66
     1
 10
0.0
 20
0.0
 30
0.0
  0
VERTEX
  5
60E
330
60D
100
AcDbEntity
  8
Livello 1
 62
     7
370
     9
100
AcDbVertex
100
AcDb2dVertex
 10
67.5898106384845
 20
7.104269203953099
 30
0.0
  0
VERTEX
  5
60F
330
60D
100
AcDbEntity
  8
Livello 1
 62
     7
370
     9
100
AcDbVertex
100
AcDb2dVertex
 10
67.59060301044609
 20
7.104269203953099
 30
0.0
  0
VERTEX
  5
610
330
60D
100
AcDbEntity
  8
Livello 1
 62
     7
370
     9
100
AcDbVertex
100
AcDb2dVertex
 10
67.59373804733767
 20
7.104269203953099
 30
0.0
  0
VERTEX
  5
611
330
60D
100
AcDbEntity
  8
Livello 1
 62
     7
370
     9
100
AcDbVertex
100
AcDb2dVertex
 10
67.59911239629466
 20
7.104269203953099
 30
0.0
  0
VERTEX
  5
612
330
60D
100
AcDbEntity
  8
Livello 1
 62
     7
370
     9
100
AcDbVertex
100
AcDb2dVertex
 10
67.60648490063309
 20
7.104269203953099
 30
0.0
  0
VERTEX
  5
613
330
60D
100
AcDbEntity
  8
Livello 1
 62
     7
370
     9
100
AcDbVertex
100
AcDb2dVertex
 10
67.6154765998496
 20
7.104269203953099
 30
0.0
  0
VERTEX
  5
614
330
60D
100
AcDbEntity
  8
Livello 1
 62
     7
370
     9
100
AcDbVertex
100
AcDb2dVertex
 10
67.62570853344079
 20
7.104269203953099
 30
0.0
  0
VERTEX
  5
615
330
60D
100
AcDbEntity
  8
Livello 1
 62
     7
370
     9
100
AcDbVertex
100
AcDb2dVertex
 10
67.63662948612904
 20
7.104269203953099
 30
0.0
  0
VERTEX
  5
616
330
60D
100
AcDbEntity
  8
Livello 1
 62
     7
370
     9
100
AcDbVertex
100
AcDb2dVertex
 10
67.6478949483658
 20
7.104269203953099
 30
0.0
  0
VERTEX
  5
617
330
60D
100
AcDbEntity
  8
Livello 1
 62
     7
370
     9
100
AcDbVertex
100
AcDb2dVertex
 10
67.65874699914434
 20
7.104269203953099
 30
0.0
  0
VERTEX
  5
618
330
60D
100
AcDbEntity
  8
Livello 1
 62
     7
370
     9
100
AcDbVertex
100
AcDb2dVertex
 10
67.66884112891611
 20
7.104269203953099
 30
0.0
  0
VERTEX
  5
619
330
60D
100
AcDbEntity
  8
Livello 1
 62
     7
370
     9
100
AcDbVertex
100
AcDb2dVertex
 10
67.67762612240351
 20
7.104269203953099
 30
0.0
  0
VERTEX
  5
61A
330
60D
100
AcDbEntity
  8
Livello 1
 62
     7
370
     9
100
AcDbVertex
100
AcDb2dVertex
 10
67.68479192101283
 20
7.104269203953099
 30
0.0
  0
VERTEX
  5
61B
330
60D
100
AcDbEntity
  8
Livello 1
 62
     7
370
     9
100
AcDbVertex
100
AcDb2dVertex
 10
67.68992511328585
 20
7.104269203953099
 30
0.0
  0
VERTEX
  5
61C
330
60D
100
AcDbEntity
  8
Livello 1
 62
     7
370
     9
100
AcDbVertex
100
AcDb2dVertex
 10
67.6927845425386
 20
7.104269203953099
 30
0.0
  0
VERTEX
  5
61D
330
60D
100
AcDbEntity
  8
Livello 1
 62
     7
370
     9
100
AcDbVertex
100
AcDb2dVertex
 10
67.69330130686139
 20
7.104269203953099
 30
0.0
  0
SEQEND
  5
61E
330
60D
100
AcDbEntity
  8
Livello 1
370
     9
  0
POLYLINE
  5
61F
330
5E0
100
AcDbEntity
  8
Livello 1
 62
     7
370
     9
100
AcDb2dPolyline
 66
     1
 10
0.0
 20
0.0
 30
0.0
  0
VERTEX
  5
620
330
61F
100
AcDbEntity
  8
Livello 1
 62
     7
370
     9
100
AcDbVertex
100
AcDb2dVertex
 10
67.69330130686139
 20
7.11041869939427
 30
0.0
  0
VERTEX
  5
621
330
61F
100
AcDbEntity
  8
Livello 1
 62
     7
370
     9
100
AcDbVertex
100
AcDb2dVertex
 10
67.69330130686139
 20
7.11041869939427
 30
0.0
  0
VERTEX
  5
622
330
61F
100
AcDbEntity
  8
Livello 1
 62
     7
370
     9
100
AcDbVertex
100
AcDb2dVertex
 10
67.69164766102847
 20
7.11041869939427
 30
0.0
  0
VERTEX
  5
623
330
61F
100
AcDbEntity
  8
Livello 1
 62
     7
370
     9
100
AcDbVertex
100
AcDb2dVertex
 10
67.68758244835588
 20
7.11041869939427
 30
0.0
  0
VERTEX
  5
624
330
61F
100
AcDbEntity
  8
Livello 1
 62
     7
370
     9
100
AcDbVertex
100
AcDb2dVertex
 10
67.68145017839213
 20
7.11041869939427
 30
0.0
  0
VERTEX
  5
625
330
61F
100
AcDbEntity
  8
Livello 1
 62
     7
370
     9
100
AcDbVertex
100
AcDb2dVertex
 10
67.67349200782121
 20
7.11041869939427
 30
0.0
  0
SEQEND
  5
626
330
61F
100
AcDbEntity
  8
Livello 1
370
     9
  0
POLYLINE
  5
627
330
5E0
100
AcDbEntity
  8
Livello 1
 62
     7
370
     9
100
AcDb2dPolyline
 66
     1
 10
0.0
 20
0.0
 30
0.0
  0
VERTEX
  5
628
330
627
100
AcDbEntity
  8
Livello 1
 62
     7
370
     9
100
AcDbVertex
100
AcDb2dVertex
 10
67.67349200782121
 20
7.11041869939427
 30
0.0
  0
VERTEX
  5
629
330
627
100
AcDbEntity
  8
Livello 1
 62
     7
370
     9
100
AcDbVertex
100
AcDb2dVertex
 10
67.66394909332706
 20
7.11041869939427
 30
0.0
  0
VERTEX
  5
62A
330
627
100
AcDbEntity
  8
Livello 1
 62
     7
370
     9
100
AcDbVertex
100
AcDb2dVertex
 10
67.6534071011422
 20
7.11041869939427
 30
0.0
  0
VERTEX
  5
62B
330
627
100
AcDbEntity
  8
Livello 1
 62
     7
370
     9
100
AcDbVertex
100
AcDb2dVertex
 10
67.64224499176999
 20
7.11041869939427
 30
0.0
  0
VERTEX
  5
62C
330
627
100
AcDbEntity
  8
Livello 1
 62
     7
370
     9
100
AcDbVertex
100
AcDb2dVertex
 10
67.63115178430749
 20
7.11041869939427
 30
0.0
  0
VERTEX
  5
62D
330
627
100
AcDbEntity
  8
Livello 1
 62
     7
370
     9
100
AcDbVertex
100
AcDb2dVertex
 10
67.62047198830321
 20
7.11041869939427
 30
0.0
  0
VERTEX
  5
62E
330
627
100
AcDbEntity
  8
Livello 1
 62
     7
370
     9
100
AcDbVertex
100
AcDb2dVertex
 10
67.6108257209445
 20
7.11041869939427
 30
0.0
  0
VERTEX
  5
62F
330
627
100
AcDbEntity
  8
Livello 1
 62
     7
370
     9
100
AcDbVertex
100
AcDb2dVertex
 10
67.6025574917799
 20
7.11041869939427
 30
0.0
  0
VERTEX
  5
630
330
627
100
AcDbEntity
  8
Livello 1
 62
     7
370
     9
100
AcDbVertex
100
AcDb2dVertex
 10
67.59618406513219
 20
7.11041869939427
 30
0.0
  0
VERTEX
  5
631
330
627
100
AcDbEntity
  8
Livello 1
 62
     7
370
     9
100
AcDbVertex
100
AcDb2dVertex
 10
67.59187769577564
 20
7.11041869939427
 30
0.0
  0
VERTEX
  5
632
330
627
100
AcDbEntity
  8
Livello 1
 62
     7
370
     9
100
AcDbVertex
100
AcDb2dVertex
 10
67.58991399134905
 20
7.11041869939427
 30
0.0
  0
VERTEX
  5
633
330
627
100
AcDbEntity
  8
Livello 1
 62
     7
370
     9
100
AcDbVertex
100
AcDb2dVertex
 10
67.5898106384845
 20
7.11041869939427
 30
0.0
  0
SEQEND
  5
634
330
627
100
AcDbEntity
  8
Livello 1
370
     9
  0
POLYLINE
  5
635
330
5E0
100
AcDbEntity
  8
Livello 1
 62
     7
370
     9
100
AcDb2dPolyline
 66
     1
 10
0.0
 20
0.0
 30
0.0
  0
VERTEX
  5
636
330
635
100
AcDbEntity
  8
Livello 1
 62
     7
370
     9
100
AcDbVertex
100
AcDb2dVertex
 10
67.61458087502344
 20
6.943900009114719
 30
0.0
  0
VERTEX
  5
637
330
635
100
AcDbEntity
  8
Livello 1
 62
     7
370
     9
100
AcDbVertex
100
AcDb2dVertex
 10
67.60800074264661
 20
6.943900009114719
 30
0.0
  0
SEQEND
  5
638
330
635
100
AcDbEntity
  8
Livello 1
370
     9
  0
POLYLINE
  5
639
330
5E0
100
AcDbEntity
  8
Livello 1
 62
     7
370
     9
100
AcDb2dPolyline
 66
     1
 10
0.0
 20
0.0
 30
0.0
  0
VERTEX
  5
63A
330
639
100
AcDbEntity
  8
Livello 1
 62
     7
370
     9
100
AcDbVertex
100
AcDb2dVertex
 10
67.60903427129217
 20
6.945484753037934
 30
0.0
  0
VERTEX
  5
63B
330
639
100
AcDbEntity
  8
Livello 1
 62
     7
370
     9
100
AcDbVertex
100
AcDb2dVertex
 10
67.61523544316563
 20
6.945484753037934
 30
0.0
  0
SEQEND
  5
63C
330
639
100
AcDbEntity
  8
Livello 1
370
     9
  0
POLYLINE
  5
63D
330
5E0
100
AcDbEntity
  8
Livello 1
 62
     7
370
     9
100
AcDb2dPolyline
 66
     1
 10
0.0
 20
0.0
 30
0.0
  0
VERTEX
  5
63E
330
63D
100
AcDbEntity
  8
Livello 1
 62
     7
370
     9
100
AcDbVertex
100
AcDb2dVertex
 10
67.60903427129217
 20
6.945484753037934
 30
0.0
  0
VERTEX
  5
63F
330
63D
100
AcDbEntity
  8
Livello 1
 62
     7
370
     9
100
AcDbVertex
100
AcDb2dVertex
 10
67.60868976174366
 20
6.945484753037934
 30
0.0
  0
VERTEX
  5
640
330
63D
100
AcDbEntity
  8
Livello 1
 62
     7
370
     9
100
AcDbVertex
100
AcDb2dVertex
 10
67.60831080124028
 20
6.945484753037934
 30
0.0
  0
VERTEX
  5
641
330
63D
100
AcDbEntity
  8
Livello 1
 62
     7
370
     9
100
AcDbVertex
100
AcDb2dVertex
 10
67.6079318407369
 20
6.945484753037934
 30
0.0
  0
VERTEX
  5
642
330
63D
100
AcDbEntity
  8
Livello 1
 62
     7
370
     9
100
AcDbVertex
100
AcDb2dVertex
 10
67.60755288023353
 20
6.945484753037934
 30
0.0
  0
VERTEX
  5
643
330
63D
100
AcDbEntity
  8
Livello 1
 62
     7
370
     9
100
AcDbVertex
100
AcDb2dVertex
 10
67.607208370685
 20
6.945484753037934
 30
0.0
  0
VERTEX
  5
644
330
63D
100
AcDbEntity
  8
Livello 1
 62
     7
370
     9
100
AcDbVertex
100
AcDb2dVertex
 10
67.60689831209133
 20
6.945484753037934
 30
0.0
  0
VERTEX
  5
645
330
63D
100
AcDbEntity
  8
Livello 1
 62
     7
370
     9
100
AcDbVertex
100
AcDb2dVertex
 10
67.60672605731706
 20
6.945484753037934
 30
0.0
  0
VERTEX
  5
646
330
63D
100
AcDbEntity
  8
Livello 1
 62
     7
370
     9
100
AcDbVertex
100
AcDb2dVertex
 10
67.60651935158795
 20
6.945484753037934
 30
0.0
  0
SEQEND
  5
647
330
63D
100
AcDbEntity
  8
Livello 1
370
     9
  0
POLYLINE
  5
648
330
5E0
100
AcDbEntity
  8
Livello 1
 62
     7
370
     9
100
AcDb2dPolyline
 66
     1
 10
0.0
 20
0.0
 30
0.0
  0
VERTEX
  5
649
330
648
100
AcDbEntity
  8
Livello 1
 62
     7
370
     9
100
AcDbVertex
100
AcDb2dVertex
 10
67.60903427129217
 20
6.945484753037934
 30
0.0
  0
VERTEX
  5
64A
330
648
100
AcDbEntity
  8
Livello 1
 62
     7
370
     9
100
AcDbVertex
100
AcDb2dVertex
 10
67.60896536938247
 20
6.945174694444261
 30
0.0
  0
VERTEX
  5
64B
330
648
100
AcDbEntity
  8
Livello 1
 62
     7
370
     9
100
AcDbVertex
100
AcDb2dVertex
 10
67.60893091842762
 20
6.944933537760294
 30
0.0
  0
VERTEX
  5
64C
330
648
100
AcDbEntity
  8
Livello 1
 62
     7
370
     9
100
AcDbVertex
100
AcDb2dVertex
 10
67.60886201651792
 20
6.944571802734343
 30
0.0
  0
VERTEX
  5
64D
330
648
100
AcDbEntity
  8
Livello 1
 62
     7
370
     9
100
AcDbVertex
100
AcDb2dVertex
 10
67.60868976174366
 20
6.944330646050375
 30
0.0
  0
VERTEX
  5
64E
330
648
100
AcDbEntity
  8
Livello 1
 62
     7
370
     9
100
AcDbVertex
100
AcDb2dVertex
 10
67.60851750696939
 20
6.944141165798686
 30
0.0
  0
VERTEX
  5
64F
330
648
100
AcDbEntity
  8
Livello 1
 62
     7
370
     9
100
AcDbVertex
100
AcDb2dVertex
 10
67.60831080124028
 20
6.943934460069571
 30
0.0
  0
VERTEX
  5
650
330
648
100
AcDbEntity
  8
Livello 1
 62
     7
370
     9
100
AcDbVertex
100
AcDb2dVertex
 10
67.60820744837572
 20
6.943900009114719
 30
0.0
  0
VERTEX
  5
651
330
648
100
AcDbEntity
  8
Livello 1
 62
     7
370
     9
100
AcDbVertex
100
AcDb2dVertex
 10
67.60800074264661
 20
6.943900009114719
 30
0.0
  0
SEQEND
  5
652
330
648
100
AcDbEntity
  8
Livello 1
370
     9
  0
POLYLINE
  5
653
330
5E0
100
AcDbEntity
  8
Livello 1
 62
     7
370
     9
100
AcDb2dPolyline
 66
     1
 10
0.0
 20
0.0
 30
0.0
  0
VERTEX
  5
654
330
653
100
AcDbEntity
  8
Livello 1
 62
     7
370
     9
100
AcDbVertex
100
AcDb2dVertex
 10
67.61458087502344
 20
6.943900009114719
 30
0.0
  0
VERTEX
  5
655
330
653
100
AcDbEntity
  8
Livello 1
 62
     7
370
     9
100
AcDbVertex
100
AcDb2dVertex
 10
67.61568330557871
 20
6.943900009114719
 30
0.0
  0
VERTEX
  5
656
330
653
100
AcDbEntity
  8
Livello 1
 62
     7
370
     9
100
AcDbVertex
100
AcDb2dVertex
 10
67.61799151955383
 20
6.943900009114719
 30
0.0
  0
SEQEND
  5
657
330
653
100
AcDbEntity
  8
Livello 1
370
     9
  0
POLYLINE
  5
658
330
5E0
100
AcDbEntity
  8
Livello 1
 62
     7
370
     9
100
AcDb2dPolyline
 66
     1
 10
0.0
 20
0.0
 30
0.0
  0
VERTEX
  5
659
330
658
100
AcDbEntity
  8
Livello 1
 62
     7
370
     9
100
AcDbVertex
100
AcDb2dVertex
 10
67.61523544316563
 20
6.945484753037934
 30
0.0
  0
VERTEX
  5
65A
330
658
100
AcDbEntity
  8
Livello 1
 62
     7
370
     9
100
AcDbVertex
100
AcDb2dVertex
 10
67.61516654125593
 20
6.944967988715146
 30
0.0
  0
VERTEX
  5
65B
330
658
100
AcDbEntity
  8
Livello 1
 62
     7
370
     9
100
AcDbVertex
100
AcDb2dVertex
 10
67.61509763934622
 20
6.94453735177949
 30
0.0
  0
VERTEX
  5
65C
330
658
100
AcDbEntity
  8
Livello 1
 62
     7
370
     9
100
AcDbVertex
100
AcDb2dVertex
 10
67.61492538457196
 20
6.944141165798686
 30
0.0
  0
VERTEX
  5
65D
330
658
100
AcDbEntity
  8
Livello 1
 62
     7
370
     9
100
AcDbVertex
100
AcDb2dVertex
 10
67.61471867884285
 20
6.943934460069571
 30
0.0
  0
VERTEX
  5
65E
330
658
100
AcDbEntity
  8
Livello 1
 62
     7
370
     9
100
AcDbVertex
100
AcDb2dVertex
 10
67.61458087502344
 20
6.943900009114719
 30
0.0
  0
SEQEND
  5
65F
330
658
100
AcDbEntity
  8
Livello 1
370
     9
  0
POLYLINE
  5
660
330
5E0
100
AcDbEntity
  8
Livello 1
 62
     7
370
     9
100
AcDb2dPolyline
 66
     1
 10
0.0
 20
0.0
 30
0.0
  0
VERTEX
  5
661
330
660
100
AcDbEntity
  8
Livello 1
 62
     7
370
     9
100
AcDbVertex
100
AcDb2dVertex
 10
67.61688908899855
 20
6.945484753037934
 30
0.0
  0
VERTEX
  5
662
330
660
100
AcDbEntity
  8
Livello 1
 62
     7
370
     9
100
AcDbVertex
100
AcDb2dVertex
 10
67.61695799090826
 20
6.945174694444261
 30
0.0
  0
VERTEX
  5
663
330
660
100
AcDbEntity
  8
Livello 1
 62
     7
370
     9
100
AcDbVertex
100
AcDb2dVertex
 10
67.61702689281796
 20
6.944933537760294
 30
0.0
  0
VERTEX
  5
664
330
660
100
AcDbEntity
  8
Livello 1
 62
     7
370
     9
100
AcDbVertex
100
AcDb2dVertex
 10
67.61706134377282
 20
6.944571802734343
 30
0.0
  0
VERTEX
  5
665
330
660
100
AcDbEntity
  8
Livello 1
 62
     7
370
     9
100
AcDbVertex
100
AcDb2dVertex
 10
67.61719914759222
 20
6.944330646050375
 30
0.0
  0
VERTEX
  5
666
330
660
100
AcDbEntity
  8
Livello 1
 62
     7
370
     9
100
AcDbVertex
100
AcDb2dVertex
 10
67.61733695141163
 20
6.944141165798686
 30
0.0
  0
VERTEX
  5
667
330
660
100
AcDbEntity
  8
Livello 1
 62
     7
370
     9
100
AcDbVertex
100
AcDb2dVertex
 10
67.6175092061859
 20
6.943934460069571
 30
0.0
  0
VERTEX
  5
668
330
660
100
AcDbEntity
  8
Livello 1
 62
     7
370
     9
100
AcDbVertex
100
AcDb2dVertex
 10
67.61778481382471
 20
6.943900009114719
 30
0.0
  0
VERTEX
  5
669
330
660
100
AcDbEntity
  8
Livello 1
 62
     7
370
     9
100
AcDbVertex
100
AcDb2dVertex
 10
67.61799151955383
 20
6.943900009114719
 30
0.0
  0
SEQEND
  5
66A
330
660
100
AcDbEntity
  8
Livello 1
370
     9
  0
POLYLINE
  5
66B
330
5E0
100
AcDbEntity
  8
Livello 1
 62
     7
370
     9
100
AcDb2dPolyline
 66
     1
 10
0.0
 20
0.0
 30
0.0
  0
VERTEX
  5
66C
330
66B
100
AcDbEntity
  8
Livello 1
 62
     7
370
     9
100
AcDbVertex
100
AcDb2dVertex
 10
67.67876300391364
 20
6.943900009114719
 30
0.0
  0
VERTEX
  5
66D
330
66B
100
AcDbEntity
  8
Livello 1
 62
     7
370
     9
100
AcDbVertex
100
AcDb2dVertex
 10
67.67779837717777
 20
6.943900009114719
 30
0.0
  0
VERTEX
  5
66E
330
66B
100
AcDbEntity
  8
Livello 1
 62
     7
370
     9
100
AcDbVertex
100
AcDb2dVertex
 10
67.67455998742163
 20
6.943900009114719
 30
0.0
  0
VERTEX
  5
66F
330
66B
100
AcDbEntity
  8
Livello 1
 62
     7
370
     9
100
AcDbVertex
100
AcDb2dVertex
 10
67.66918563846464
 20
6.943900009114719
 30
0.0
  0
VERTEX
  5
670
330
66B
100
AcDbEntity
  8
Livello 1
 62
     7
370
     9
100
AcDbVertex
100
AcDb2dVertex
 10
67.66201983985532
 20
6.943900009114719
 30
0.0
  0
VERTEX
  5
671
330
66B
100
AcDbEntity
  8
Livello 1
 62
     7
370
     9
100
AcDbVertex
100
AcDb2dVertex
 10
67.65351045400675
 20
6.943900009114719
 30
0.0
  0
VERTEX
  5
672
330
66B
100
AcDbEntity
  8
Livello 1
 62
     7
370
     9
100
AcDbVertex
100
AcDb2dVertex
 10
67.64431204906114
 20
6.943900009114719
 30
0.0
  0
VERTEX
  5
673
330
66B
100
AcDbEntity
  8
Livello 1
 62
     7
370
     9
100
AcDbVertex
100
AcDb2dVertex
 10
67.63490693838641
 20
6.943900009114719
 30
0.0
  0
VERTEX
  5
674
330
66B
100
AcDbEntity
  8
Livello 1
 62
     7
370
     9
100
AcDbVertex
100
AcDb2dVertex
 10
67.6259152391699
 20
6.943900009114719
 30
0.0
  0
VERTEX
  5
675
330
66B
100
AcDbEntity
  8
Livello 1
 62
     7
370
     9
100
AcDbVertex
100
AcDb2dVertex
 10
67.61799151955383
 20
6.943900009114719
 30
0.0
  0
SEQEND
  5
676
330
66B
100
AcDbEntity
  8
Livello 1
370
     9
  0
POLYLINE
  5
677
330
5E0
100
AcDbEntity
  8
Livello 1
 62
     7
370
     9
100
AcDb2dPolyline
 66
     1
 10
0.0
 20
0.0
 30
0.0
  0
VERTEX
  5
678
330
677
100
AcDbEntity
  8
Livello 1
 62
     7
370
     9
100
AcDbVertex
100
AcDb2dVertex
 10
67.60800074264661
 20
6.943900009114719
 30
0.0
  0
VERTEX
  5
679
330
677
100
AcDbEntity
  8
Livello 1
 62
     7
370
     9
100
AcDbVertex
100
AcDb2dVertex
 10
67.60500350957444
 20
6.943900009114719
 30
0.0
  0
VERTEX
  5
67A
330
677
100
AcDbEntity
  8
Livello 1
 62
     7
370
     9
100
AcDbVertex
100
AcDb2dVertex
 10
67.60434894143224
 20
6.943900009114719
 30
0.0
  0
SEQEND
  5
67B
330
677
100
AcDbEntity
  8
Livello 1
370
     9
  0
POLYLINE
  5
67C
330
5E0
100
AcDbEntity
  8
Livello 1
 62
     7
370
     9
100
AcDb2dPolyline
 66
     1
 10
0.0
 20
0.0
 30
0.0
  0
VERTEX
  5
67D
330
67C
100
AcDbEntity
  8
Livello 1
 62
     7
370
     9
100
AcDbVertex
100
AcDb2dVertex
 10
67.60651935158795
 20
6.945484753037934
 30
0.0
  0
VERTEX
  5
67E
330
67C
100
AcDbEntity
  8
Livello 1
 62
     7
370
     9
100
AcDbVertex
100
AcDb2dVertex
 10
67.60651935158795
 20
6.945174694444261
 30
0.0
  0
VERTEX
  5
67F
330
67C
100
AcDbEntity
  8
Livello 1
 62
     7
370
     9
100
AcDbVertex
100
AcDb2dVertex
 10
67.60665715540736
 20
6.944933537760294
 30
0.0
  0
VERTEX
  5
680
330
67C
100
AcDbEntity
  8
Livello 1
 62
     7
370
     9
100
AcDbVertex
100
AcDb2dVertex
 10
67.60679495922678
 20
6.944571802734343
 30
0.0
  0
VERTEX
  5
681
330
67C
100
AcDbEntity
  8
Livello 1
 62
     7
370
     9
100
AcDbVertex
100
AcDb2dVertex
 10
67.60689831209133
 20
6.944330646050375
 30
0.0
  0
VERTEX
  5
682
330
67C
100
AcDbEntity
  8
Livello 1
 62
     7
370
     9
100
AcDbVertex
100
AcDb2dVertex
 10
67.60717391973014
 20
6.944141165798686
 30
0.0
  0
VERTEX
  5
683
330
67C
100
AcDbEntity
  8
Livello 1
 62
     7
370
     9
100
AcDbVertex
100
AcDb2dVertex
 10
67.60744952736897
 20
6.943934460069571
 30
0.0
  0
VERTEX
  5
684
330
67C
100
AcDbEntity
  8
Livello 1
 62
     7
370
     9
100
AcDbVertex
100
AcDb2dVertex
 10
67.60769068405294
 20
6.943900009114719
 30
0.0
  0
VERTEX
  5
685
330
67C
100
AcDbEntity
  8
Livello 1
 62
     7
370
     9
100
AcDbVertex
100
AcDb2dVertex
 10
67.60800074264661
 20
6.943900009114719
 30
0.0
  0
SEQEND
  5
686
330
67C
100
AcDbEntity
  8
Livello 1
370
     9
  0
POLYLINE
  5
687
330
5E0
100
AcDbEntity
  8
Livello 1
 62
     7
370
     9
100
AcDb2dPolyline
 66
     1
 10
0.0
 20
0.0
 30
0.0
  0
VERTEX
  5
688
330
687
100
AcDbEntity
  8
Livello 1
 62
     7
370
     9
100
AcDbVertex
100
AcDb2dVertex
 10
67.68816811458836
 20
7.09911878620265
 30
0.0
  0
VERTEX
  5
689
330
687
100
AcDbEntity
  8
Livello 1
 62
     7
370
     9
100
AcDbVertex
100
AcDb2dVertex
 10
67.68816811458836
 20
7.09911878620265
 30
0.0
  0
VERTEX
  5
68A
330
687
100
AcDbEntity
  8
Livello 1
 62
     7
370
     9
100
AcDbVertex
100
AcDb2dVertex
 10
67.68689342925883
 20
7.09911878620265
 30
0.0
  0
VERTEX
  5
68B
330
687
100
AcDbEntity
  8
Livello 1
 62
     7
370
     9
100
AcDbVertex
100
AcDb2dVertex
 10
67.68337943186387
 20
7.09911878620265
 30
0.0
  0
VERTEX
  5
68C
330
687
100
AcDbEntity
  8
Livello 1
 62
     7
370
     9
100
AcDbVertex
100
AcDb2dVertex
 10
67.67766057335835
 20
7.09911878620265
 30
0.0
  0
VERTEX
  5
68D
330
687
100
AcDbEntity
  8
Livello 1
 62
     7
370
     9
100
AcDbVertex
100
AcDb2dVertex
 10
67.67025361806508
 20
7.09911878620265
 30
0.0
  0
VERTEX
  5
68E
330
687
100
AcDbEntity
  8
Livello 1
 62
     7
370
     9
100
AcDbVertex
100
AcDb2dVertex
 10
67.66136527171312
 20
7.09911878620265
 30
0.0
  0
VERTEX
  5
68F
330
687
100
AcDbEntity
  8
Livello 1
 62
     7
370
     9
100
AcDbVertex
100
AcDb2dVertex
 10
67.6514433967156
 20
7.09911878620265
 30
0.0
  0
VERTEX
  5
690
330
687
100
AcDbEntity
  8
Livello 1
 62
     7
370
     9
100
AcDbVertex
100
AcDb2dVertex
 10
67.64110811025985
 20
7.09911878620265
 30
0.0
  0
VERTEX
  5
691
330
687
100
AcDbEntity
  8
Livello 1
 62
     7
370
     9
100
AcDbVertex
100
AcDb2dVertex
 10
67.63073837284925
 20
7.09911878620265
 30
0.0
  0
VERTEX
  5
692
330
687
100
AcDbEntity
  8
Livello 1
 62
     7
370
     9
100
AcDbVertex
100
AcDb2dVertex
 10
67.620988752626
 20
7.09911878620265
 30
0.0
  0
VERTEX
  5
693
330
687
100
AcDbEntity
  8
Livello 1
 62
     7
370
     9
100
AcDbVertex
100
AcDb2dVertex
 10
67.61223821009347
 20
7.09911878620265
 30
0.0
  0
VERTEX
  5
694
330
687
100
AcDbEntity
  8
Livello 1
 62
     7
370
     9
100
AcDbVertex
100
AcDb2dVertex
 10
67.60486570575503
 20
7.09911878620265
 30
0.0
  0
VERTEX
  5
695
330
687
100
AcDbEntity
  8
Livello 1
 62
     7
370
     9
100
AcDbVertex
100
AcDb2dVertex
 10
67.59942245488834
 20
7.09911878620265
 30
0.0
  0
VERTEX
  5
696
330
687
100
AcDbEntity
  8
Livello 1
 62
     7
370
     9
100
AcDbVertex
100
AcDb2dVertex
 10
67.5960462613128
 20
7.09911878620265
 30
0.0
  0
VERTEX
  5
697
330
687
100
AcDbEntity
  8
Livello 1
 62
     7
370
     9
100
AcDbVertex
100
AcDb2dVertex
 10
67.59494383075752
 20
7.09911878620265
 30
0.0
  0
SEQEND
  5
698
330
687
100
AcDbEntity
  8
Livello 1
370
     9
  0
POLYLINE
  5
699
330
5E0
100
AcDbEntity
  8
Livello 1
 62
     7
370
     9
100
AcDb2dPolyline
 66
     1
 10
0.0
 20
0.0
 30
0.0
  0
VERTEX
  5
69A
330
699
100
AcDbEntity
  8
Livello 1
 62
     7
370
     9
100
AcDbVertex
100
AcDb2dVertex
 10
67.59146428431741
 20
7.112037894272337
 30
0.0
  0
VERTEX
  5
69B
330
699
100
AcDbEntity
  8
Livello 1
 62
     7
370
     9
100
AcDbVertex
100
AcDb2dVertex
 10
67.59153318622711
 20
7.112037894272337
 30
0.0
  0
VERTEX
  5
69C
330
699
100
AcDbEntity
  8
Livello 1
 62
     7
370
     9
100
AcDbVertex
100
AcDb2dVertex
 10
67.593427988744
 20
7.112037894272337
 30
0.0
  0
VERTEX
  5
69D
330
699
100
AcDbEntity
  8
Livello 1
 62
     7
370
     9
100
AcDbVertex
100
AcDb2dVertex
 10
67.59759655428115
 20
7.112037894272337
 30
0.0
  0
VERTEX
  5
69E
330
699
100
AcDbEntity
  8
Livello 1
 62
     7
370
     9
100
AcDbVertex
100
AcDb2dVertex
 10
67.6037977261546
 20
7.112037894272337
 30
0.0
  0
VERTEX
  5
69F
330
699
100
AcDbEntity
  8
Livello 1
 62
     7
370
     9
100
AcDbVertex
100
AcDb2dVertex
 10
67.61175589672553
 20
7.112037894272337
 30
0.0
  0
VERTEX
  5
6A0
330
699
100
AcDbEntity
  8
Livello 1
 62
     7
370
     9
100
AcDbVertex
100
AcDb2dVertex
 10
67.6211265564454
 20
7.112037894272337
 30
0.0
  0
VERTEX
  5
6A1
330
699
100
AcDbEntity
  8
Livello 1
 62
     7
370
     9
100
AcDbVertex
100
AcDb2dVertex
 10
67.63146184290116
 20
7.112037894272337
 30
0.0
  0
VERTEX
  5
6A2
330
699
100
AcDbEntity
  8
Livello 1
 62
     7
370
     9
100
AcDbVertex
100
AcDb2dVertex
 10
67.64224499176999
 20
7.112037894272337
 30
0.0
  0
VERTEX
  5
6A3
330
699
100
AcDbEntity
  8
Livello 1
 62
     7
370
     9
100
AcDbVertex
100
AcDb2dVertex
 10
67.65302814063882
 20
7.112037894272337
 30
0.0
  0
VERTEX
  5
6A4
330
699
100
AcDbEntity
  8
Livello 1
 62
     7
370
     9
100
AcDbVertex
100
AcDb2dVertex
 10
67.66326007423001
 20
7.112037894272337
 30
0.0
  0
VERTEX
  5
6A5
330
699
100
AcDbEntity
  8
Livello 1
 62
     7
370
     9
100
AcDbVertex
100
AcDb2dVertex
 10
67.67245847917563
 20
7.112037894272337
 30
0.0
  0
SEQEND
  5
6A6
330
699
100
AcDbEntity
  8
Livello 1
370
     9
  0
POLYLINE
  5
6A7
330
5E0
100
AcDbEntity
  8
Livello 1
 62
     7
370
     9
100
AcDb2dPolyline
 66
     1
 10
0.0
 20
0.0
 30
0.0
  0
VERTEX
  5
6A8
330
6A7
100
AcDbEntity
  8
Livello 1
 62
     7
370
     9
100
AcDbVertex
100
AcDb2dVertex
 10
67.67245847917563
 20
7.112037894272337
 30
0.0
  0
VERTEX
  5
6A9
330
6A7
100
AcDbEntity
  8
Livello 1
 62
     7
370
     9
100
AcDbVertex
100
AcDb2dVertex
 10
67.68017549306259
 20
7.112037894272337
 30
0.0
  0
VERTEX
  5
6AA
330
6A7
100
AcDbEntity
  8
Livello 1
 62
     7
370
     9
100
AcDbVertex
100
AcDb2dVertex
 10
67.68616995920692
 20
7.112037894272337
 30
0.0
  0
VERTEX
  5
6AB
330
6A7
100
AcDbEntity
  8
Livello 1
 62
     7
370
     9
100
AcDbVertex
100
AcDb2dVertex
 10
67.69009736806011
 20
7.112037894272337
 30
0.0
  0
VERTEX
  5
6AC
330
6A7
100
AcDbEntity
  8
Livello 1
 62
     7
370
     9
100
AcDbVertex
100
AcDb2dVertex
 10
67.69168211198333
 20
7.112037894272337
 30
0.0
  0
SEQEND
  5
6AD
330
6A7
100
AcDbEntity
  8
Livello 1
370
     9
  0
POLYLINE
  5
6AE
330
5E0
100
AcDbEntity
  8
Livello 1
 62
     7
370
     9
100
AcDb2dPolyline
 66
     1
 10
0.0
 20
0.0
 30
0.0
  0
VERTEX
  5
6AF
330
6AE
100
AcDbEntity
  8
Livello 1
 62
     7
370
     9
100
AcDbVertex
100
AcDb2dVertex
 10
67.61633787372091
 20
6.945484753037934
 30
0.0
  0
VERTEX
  5
6B0
330
6AE
100
AcDbEntity
  8
Livello 1
 62
     7
370
     9
100
AcDbVertex
100
AcDb2dVertex
 10
67.61633787372091
 20
6.945174694444261
 30
0.0
  0
VERTEX
  5
6B1
330
6AE
100
AcDbEntity
  8
Livello 1
 62
     7
370
     9
100
AcDbVertex
100
AcDb2dVertex
 10
67.61644122658547
 20
6.944933537760294
 30
0.0
  0
VERTEX
  5
6B2
330
6AE
100
AcDbEntity
  8
Livello 1
 62
     7
370
     9
100
AcDbVertex
100
AcDb2dVertex
 10
67.61664793231458
 20
6.944571802734343
 30
0.0
  0
VERTEX
  5
6B3
330
6AE
100
AcDbEntity
  8
Livello 1
 62
     7
370
     9
100
AcDbVertex
100
AcDb2dVertex
 10
67.61682018708885
 20
6.944330646050375
 30
0.0
  0
VERTEX
  5
6B4
330
6AE
100
AcDbEntity
  8
Livello 1
 62
     7
370
     9
100
AcDbVertex
100
AcDb2dVertex
 10
67.61702689281796
 20
6.944141165798686
 30
0.0
  0
VERTEX
  5
6B5
330
6AE
100
AcDbEntity
  8
Livello 1
 62
     7
370
     9
100
AcDbVertex
100
AcDb2dVertex
 10
67.61733695141163
 20
6.943934460069571
 30
0.0
  0
VERTEX
  5
6B6
330
6AE
100
AcDbEntity
  8
Livello 1
 62
     7
370
     9
100
AcDbVertex
100
AcDb2dVertex
 10
67.6175781080956
 20
6.943900009114719
 30
0.0
  0
VERTEX
  5
6B7
330
6AE
100
AcDbEntity
  8
Livello 1
 62
     7
370
     9
100
AcDbVertex
100
AcDb2dVertex
 10
67.61799151955383
 20
6.943900009114719
 30
0.0
  0
SEQEND
  5
6B8
330
6AE
100
AcDbEntity
  8
Livello 1
370
     9
  0
POLYLINE
  5
6B9
330
5E0
100
AcDbEntity
  8
Livello 1
 62
     7
370
     9
100
AcDb2dPolyline
 66
     1
 10
0.0
 20
0.0
 30
0.0
  0
VERTEX
  5
6BA
330
6B9
100
AcDbEntity
  8
Livello 1
 62
     7
370
     9
100
AcDbVertex
100
AcDb2dVertex
 10
67.67876300391364
 20
6.943900009114719
 30
0.0
  0
VERTEX
  5
6BB
330
6B9
100
AcDbEntity
  8
Livello 1
 62
     7
370
     9
100
AcDbVertex
100
AcDb2dVertex
 10
67.67903861155246
 20
6.943900009114719
 30
0.0
  0
VERTEX
  5
6BC
330
6B9
100
AcDbEntity
  8
Livello 1
 62
     7
370
     9
100
AcDbVertex
100
AcDb2dVertex
 10
67.67941757205584
 20
6.943934460069571
 30
0.0
  0
VERTEX
  5
6BD
330
6B9
100
AcDbEntity
  8
Livello 1
 62
     7
370
     9
100
AcDbVertex
100
AcDb2dVertex
 10
67.67969317969465
 20
6.944141165798686
 30
0.0
  0
VERTEX
  5
6BE
330
6B9
100
AcDbEntity
  8
Livello 1
 62
     7
370
     9
100
AcDbVertex
100
AcDb2dVertex
 10
67.67986543446892
 20
6.944330646050375
 30
0.0
  0
VERTEX
  5
6BF
330
6B9
100
AcDbEntity
  8
Livello 1
 62
     7
370
     9
100
AcDbVertex
100
AcDb2dVertex
 10
67.68010659115288
 20
6.944571802734343
 30
0.0
  0
VERTEX
  5
6C0
330
6B9
100
AcDbEntity
  8
Livello 1
 62
     7
370
     9
100
AcDbVertex
100
AcDb2dVertex
 10
67.68024439497229
 20
6.944933537760294
 30
0.0
  0
VERTEX
  5
6C1
330
6B9
100
AcDbEntity
  8
Livello 1
 62
     7
370
     9
100
AcDbVertex
100
AcDb2dVertex
 10
67.6803821987917
 20
6.945174694444261
 30
0.0
  0
VERTEX
  5
6C2
330
6B9
100
AcDbEntity
  8
Livello 1
 62
     7
370
     9
100
AcDbVertex
100
AcDb2dVertex
 10
67.6803821987917
 20
6.945484753037934
 30
0.0
  0
SEQEND
  5
6C3
330
6B9
100
AcDbEntity
  8
Livello 1
370
     9
  0
POLYLINE
  5
6C4
330
5E0
100
AcDbEntity
  8
Livello 1
 62
     7
370
     9
100
AcDb2dPolyline
 66
     1
 10
0.0
 20
0.0
 30
0.0
  0
VERTEX
  5
6C5
330
6C4
100
AcDbEntity
  8
Livello 1
 62
     7
370
     9
100
AcDbVertex
100
AcDb2dVertex
 10
67.60276419750903
 20
6.945484753037934
 30
0.0
  0
VERTEX
  5
6C6
330
6C4
100
AcDbEntity
  8
Livello 1
 62
     7
370
     9
100
AcDbVertex
100
AcDb2dVertex
 10
67.60279864846387
 20
6.945174694444261
 30
0.0
  0
VERTEX
  5
6C7
330
6C4
100
AcDbEntity
  8
Livello 1
 62
     7
370
     9
100
AcDbVertex
100
AcDb2dVertex
 10
67.60286755037359
 20
6.944933537760294
 30
0.0
  0
VERTEX
  5
6C8
330
6C4
100
AcDbEntity
  8
Livello 1
 62
     7
370
     9
100
AcDbVertex
100
AcDb2dVertex
 10
67.60303980514784
 20
6.944571802734343
 30
0.0
  0
VERTEX
  5
6C9
330
6C4
100
AcDbEntity
  8
Livello 1
 62
     7
370
     9
100
AcDbVertex
100
AcDb2dVertex
 10
67.60321205992211
 20
6.944330646050375
 30
0.0
  0
VERTEX
  5
6CA
330
6C4
100
AcDbEntity
  8
Livello 1
 62
     7
370
     9
100
AcDbVertex
100
AcDb2dVertex
 10
67.60345321660607
 20
6.944141165798686
 30
0.0
  0
VERTEX
  5
6CB
330
6C4
100
AcDbEntity
  8
Livello 1
 62
     7
370
     9
100
AcDbVertex
100
AcDb2dVertex
 10
67.6037288242449
 20
6.943934460069571
 30
0.0
  0
VERTEX
  5
6CC
330
6C4
100
AcDbEntity
  8
Livello 1
 62
     7
370
     9
100
AcDbVertex
100
AcDb2dVertex
 10
67.60403888283857
 20
6.943900009114719
 30
0.0
  0
VERTEX
  5
6CD
330
6C4
100
AcDbEntity
  8
Livello 1
 62
     7
370
     9
100
AcDbVertex
100
AcDb2dVertex
 10
67.60434894143224
 20
6.943900009114719
 30
0.0
  0
SEQEND
  5
6CE
330
6C4
100
AcDbEntity
  8
Livello 1
370
     9
  0
POLYLINE
  5
6CF
330
5E0
100
AcDbEntity
  8
Livello 1
 62
     7
370
     9
100
AcDb2dPolyline
 66
     1
 10
0.0
 20
0.0
 30
0.0
  0
VERTEX
  5
6D0
330
6CF
100
AcDbEntity
  8
Livello 1
 62
     7
370
     9
100
AcDbVertex
100
AcDb2dVertex
 10
67.6803821987917
 20
6.945484753037934
 30
0.0
  0
VERTEX
  5
6D1
330
6CF
100
AcDbEntity
  8
Livello 1
 62
     7
370
     9
100
AcDbVertex
100
AcDb2dVertex
 10
67.6803821987917
 20
7.093933917497349
 30
0.0
  0
SEQEND
  5
6D2
330
6CF
100
AcDbEntity
  8
Livello 1
370
     9
  0
POLYLINE
  5
6D3
330
5E0
100
AcDbEntity
  8
Livello 1
 62
     7
370
     9
100
AcDb2dPolyline
 66
     1
 10
0.0
 20
0.0
 30
0.0
  0
VERTEX
  5
6D4
330
6D3
100
AcDbEntity
  8
Livello 1
 62
     7
370
     9
100
AcDbVertex
100
AcDb2dVertex
 10
67.60276419750903
 20
7.093933917497349
 30
0.0
  0
VERTEX
  5
6D5
330
6D3
100
AcDbEntity
  8
Livello 1
 62
     7
370
     9
100
AcDbVertex
100
AcDb2dVertex
 10
67.60276419750903
 20
6.945484753037934
 30
0.0
  0
SEQEND
  5
6D6
330
6D3
100
AcDbEntity
  8
Livello 1
370
     9
  0
POLYLINE
  5
6D7
330
5E0
100
AcDbEntity
  8
Livello 1
 62
     7
370
     9
100
AcDb2dPolyline
 66
     1
 10
0.0
 20
0.0
 30
0.0
  0
VERTEX
  5
6D8
330
6D7
100
AcDbEntity
  8
Livello 1
 62
     7
370
     9
100
AcDbVertex
100
AcDb2dVertex
 10
67.6803821987917
 20
7.093933917497349
 30
0.0
  0
VERTEX
  5
6D9
330
6D7
100
AcDbEntity
  8
Livello 1
 62
     7
370
     9
100
AcDbVertex
100
AcDb2dVertex
 10
67.68048555165626
 20
7.094967446142924
 30
0.0
  0
VERTEX
  5
6DA
330
6D7
100
AcDbEntity
  8
Livello 1
 62
     7
370
     9
100
AcDbVertex
100
AcDb2dVertex
 10
67.68072670834023
 20
7.095914847401368
 30
0.0
  0
VERTEX
  5
6DB
330
6D7
100
AcDbEntity
  8
Livello 1
 62
     7
370
     9
100
AcDbVertex
100
AcDb2dVertex
 10
67.68127792361787
 20
7.096793346750107
 30
0.0
  0
VERTEX
  5
6DC
330
6D7
100
AcDbEntity
  8
Livello 1
 62
     7
370
     9
100
AcDbVertex
100
AcDb2dVertex
 10
67.68189804080521
 20
7.097568493234288
 30
0.0
  0
VERTEX
  5
6DD
330
6D7
100
AcDbEntity
  8
Livello 1
 62
     7
370
     9
100
AcDbVertex
100
AcDb2dVertex
 10
67.68269041276682
 20
7.098205835899059
 30
0.0
  0
VERTEX
  5
6DE
330
6D7
100
AcDbEntity
  8
Livello 1
 62
     7
370
     9
100
AcDbVertex
100
AcDb2dVertex
 10
67.68355168663814
 20
7.098739825699273
 30
0.0
  0
VERTEX
  5
6DF
330
6D7
100
AcDbEntity
  8
Livello 1
 62
     7
370
     9
100
AcDbVertex
100
AcDb2dVertex
 10
67.684516313374
 20
7.098980982383241
 30
0.0
  0
VERTEX
  5
6E0
330
6D7
100
AcDbEntity
  8
Livello 1
 62
     7
370
     9
100
AcDbVertex
100
AcDb2dVertex
 10
67.68554984201958
 20
7.09911878620265
 30
0.0
  0
SEQEND
  5
6E1
330
6D7
100
AcDbEntity
  8
Livello 1
370
     9
  0
POLYLINE
  5
6E2
330
5E0
100
AcDbEntity
  8
Livello 1
 62
     7
370
     9
100
AcDb2dPolyline
 66
     1
 10
0.0
 20
0.0
 30
0.0
  0
VERTEX
  5
6E3
330
6E2
100
AcDbEntity
  8
Livello 1
 62
     7
370
     9
100
AcDbVertex
100
AcDb2dVertex
 10
67.59759655428115
 20
7.09911878620265
 30
0.0
  0
VERTEX
  5
6E4
330
6E2
100
AcDbEntity
  8
Livello 1
 62
     7
370
     9
100
AcDbVertex
100
AcDb2dVertex
 10
67.59863008292673
 20
7.098980982383241
 30
0.0
  0
VERTEX
  5
6E5
330
6E2
100
AcDbEntity
  8
Livello 1
 62
     7
370
     9
100
AcDbVertex
100
AcDb2dVertex
 10
67.59956025870774
 20
7.098739825699273
 30
0.0
  0
VERTEX
  5
6E6
330
6E2
100
AcDbEntity
  8
Livello 1
 62
     7
370
     9
100
AcDbVertex
100
AcDb2dVertex
 10
67.6004559835339
 20
7.098205835899059
 30
0.0
  0
VERTEX
  5
6E7
330
6E2
100
AcDbEntity
  8
Livello 1
 62
     7
370
     9
100
AcDbVertex
100
AcDb2dVertex
 10
67.60121390454066
 20
7.097568493234288
 30
0.0
  0
VERTEX
  5
6E8
330
6E2
100
AcDbEntity
  8
Livello 1
 62
     7
370
     9
100
AcDbVertex
100
AcDb2dVertex
 10
67.60186847268287
 20
7.096793346750107
 30
0.0
  0
VERTEX
  5
6E9
330
6E2
100
AcDbEntity
  8
Livello 1
 62
     7
370
     9
100
AcDbVertex
100
AcDb2dVertex
 10
67.60231633509595
 20
7.095914847401368
 30
0.0
  0
VERTEX
  5
6EA
330
6E2
100
AcDbEntity
  8
Livello 1
 62
     7
370
     9
100
AcDbVertex
100
AcDb2dVertex
 10
67.60262639368962
 20
7.094967446142924
 30
0.0
  0
VERTEX
  5
6EB
330
6E2
100
AcDbEntity
  8
Livello 1
 62
     7
370
     9
100
AcDbVertex
100
AcDb2dVertex
 10
67.60276419750903
 20
7.093933917497349
 30
0.0
  0
SEQEND
  5
6EC
330
6E2
100
AcDbEntity
  8
Livello 1
370
     9
  0
POLYLINE
  5
6ED
330
5E0
100
AcDbEntity
  8
Livello 1
 62
     7
370
     9
100
AcDb2dPolyline
 66
     1
 10
0.0
 20
0.0
 30
0.0
  0
VERTEX
  5
6EE
330
6ED
100
AcDbEntity
  8
Livello 1
 62
     7
370
     9
100
AcDbVertex
100
AcDb2dVertex
 10
67.68816811458836
 20
7.09911878620265
 30
0.0
  0
VERTEX
  5
6EF
330
6ED
100
AcDbEntity
  8
Livello 1
 62
     7
370
     9
100
AcDbVertex
100
AcDb2dVertex
 10
67.68913274132424
 20
7.099222139067208
 30
0.0
  0
VERTEX
  5
6F0
330
6ED
100
AcDbEntity
  8
Livello 1
 62
     7
370
     9
100
AcDbVertex
100
AcDb2dVertex
 10
67.69009736806011
 20
7.099480521228601
 30
0.0
  0
VERTEX
  5
6F1
330
6ED
100
AcDbEntity
  8
Livello 1
 62
     7
370
     9
100
AcDbVertex
100
AcDb2dVertex
 10
67.69102754384113
 20
7.099928383641684
 30
0.0
  0
VERTEX
  5
6F2
330
6ED
100
AcDbEntity
  8
Livello 1
 62
     7
370
     9
100
AcDbVertex
100
AcDb2dVertex
 10
67.69181991580274
 20
7.10063462821616
 30
0.0
  0
VERTEX
  5
6F3
330
6ED
100
AcDbEntity
  8
Livello 1
 62
     7
370
     9
100
AcDbVertex
100
AcDb2dVertex
 10
67.69244003299008
 20
7.101409774700342
 30
0.0
  0
VERTEX
  5
6F4
330
6ED
100
AcDbEntity
  8
Livello 1
 62
     7
370
     9
100
AcDbVertex
100
AcDb2dVertex
 10
67.69292234635802
 20
7.102305499526507
 30
0.0
  0
VERTEX
  5
6F5
330
6ED
100
AcDbEntity
  8
Livello 1
 62
     7
370
     9
100
AcDbVertex
100
AcDb2dVertex
 10
67.69323240495169
 20
7.10325290078495
 30
0.0
  0
VERTEX
  5
6F6
330
6ED
100
AcDbEntity
  8
Livello 1
 62
     7
370
     9
100
AcDbVertex
100
AcDb2dVertex
 10
67.69330130686139
 20
7.104269203953099
 30
0.0
  0
SEQEND
  5
6F7
330
6ED
100
AcDbEntity
  8
Livello 1
370
     9
  0
POLYLINE
  5
6F8
330
5E0
100
AcDbEntity
  8
Livello 1
 62
     7
370
     9
100
AcDb2dPolyline
 66
     1
 10
0.0
 20
0.0
 30
0.0
  0
VERTEX
  5
6F9
330
6F8
100
AcDbEntity
  8
Livello 1
 62
     7
370
     9
100
AcDbVertex
100
AcDb2dVertex
 10
67.5898106384845
 20
7.104269203953099
 30
0.0
  0
VERTEX
  5
6FA
330
6F8
100
AcDbEntity
  8
Livello 1
 62
     7
370
     9
100
AcDbVertex
100
AcDb2dVertex
 10
67.58991399134905
 20
7.10325290078495
 30
0.0
  0
VERTEX
  5
6FB
330
6F8
100
AcDbEntity
  8
Livello 1
 62
     7
370
     9
100
AcDbVertex
100
AcDb2dVertex
 10
67.59018959898786
 20
7.102305499526507
 30
0.0
  0
VERTEX
  5
6FC
330
6F8
100
AcDbEntity
  8
Livello 1
 62
     7
370
     9
100
AcDbVertex
100
AcDb2dVertex
 10
67.5906719123558
 20
7.101409774700342
 30
0.0
  0
VERTEX
  5
6FD
330
6F8
100
AcDbEntity
  8
Livello 1
 62
     7
370
     9
100
AcDbVertex
100
AcDb2dVertex
 10
67.591326480498
 20
7.10063462821616
 30
0.0
  0
VERTEX
  5
6FE
330
6F8
100
AcDbEntity
  8
Livello 1
 62
     7
370
     9
100
AcDbVertex
100
AcDb2dVertex
 10
67.59208440150475
 20
7.099928383641684
 30
0.0
  0
VERTEX
  5
6FF
330
6F8
100
AcDbEntity
  8
Livello 1
 62
     7
370
     9
100
AcDbVertex
100
AcDb2dVertex
 10
67.59298012633091
 20
7.099480521228601
 30
0.0
  0
VERTEX
  5
700
330
6F8
100
AcDbEntity
  8
Livello 1
 62
     7
370
     9
100
AcDbVertex
100
AcDb2dVertex
 10
67.59397920402164
 20
7.099222139067208
 30
0.0
  0
VERTEX
  5
701
330
6F8
100
AcDbEntity
  8
Livello 1
 62
     7
370
     9
100
AcDbVertex
100
AcDb2dVertex
 10
67.59494383075752
 20
7.09911878620265
 30
0.0
  0
SEQEND
  5
702
330
6F8
100
AcDbEntity
  8
Livello 1
370
     9
  0
POLYLINE
  5
703
330
5E0
100
AcDbEntity
  8
Livello 1
 62
     7
370
     9
100
AcDb2dPolyline
 66
     1
 10
0.0
 20
0.0
 30
0.0
  0
VERTEX
  5
704
330
703
100
AcDbEntity
  8
Livello 1
 62
     7
370
     9
100
AcDbVertex
100
AcDb2dVertex
 10
67.69330130686139
 20
7.104269203953099
 30
0.0
  0
VERTEX
  5
705
330
703
100
AcDbEntity
  8
Livello 1
 62
     7
370
     9
100
AcDbVertex
100
AcDb2dVertex
 10
67.69330130686139
 20
7.11041869939427
 30
0.0
  0
SEQEND
  5
706
330
703
100
AcDbEntity
  8
Livello 1
370
     9
  0
POLYLINE
  5
707
330
5E0
100
AcDbEntity
  8
Livello 1
 62
     7
370
     9
100
AcDb2dPolyline
 66
     1
 10
0.0
 20
0.0
 30
0.0
  0
VERTEX
  5
708
330
707
100
AcDbEntity
  8
Livello 1
 62
     7
370
     9
100
AcDbVertex
100
AcDb2dVertex
 10
67.5898106384845
 20
7.11041869939427
 30
0.0
  0
VERTEX
  5
709
330
707
100
AcDbEntity
  8
Livello 1
 62
     7
370
     9
100
AcDbVertex
100
AcDb2dVertex
 10
67.5898106384845
 20
7.104269203953099
 30
0.0
  0
SEQEND
  5
70A
330
707
100
AcDbEntity
  8
Livello 1
370
     9
  0
POLYLINE
  5
70B
330
5E0
100
AcDbEntity
  8
Livello 1
 62
     7
370
     9
100
AcDb2dPolyline
 66
     1
 10
0.0
 20
0.0
 30
0.0
  0
VERTEX
  5
70C
330
70B
100
AcDbEntity
  8
Livello 1
 62
     7
370
     9
100
AcDbVertex
100
AcDb2dVertex
 10
67.59146428431741
 20
7.112037894272337
 30
0.0
  0
VERTEX
  5
70D
330
70B
100
AcDbEntity
  8
Livello 1
 62
     7
370
     9
100
AcDbVertex
100
AcDb2dVertex
 10
67.59111977476888
 20
7.112037894272337
 30
0.0
  0
VERTEX
  5
70E
330
70B
100
AcDbEntity
  8
Livello 1
 62
     7
370
     9
100
AcDbVertex
100
AcDb2dVertex
 10
67.59080971617522
 20
7.111900090452927
 30
0.0
  0
VERTEX
  5
70F
330
70B
100
AcDbEntity
  8
Livello 1
 62
     7
370
     9
100
AcDbVertex
100
AcDb2dVertex
 10
67.59049965758153
 20
7.111745061156091
 30
0.0
  0
VERTEX
  5
710
330
70B
100
AcDbEntity
  8
Livello 1
 62
     7
370
     9
100
AcDbVertex
100
AcDb2dVertex
 10
67.59029295185242
 20
7.111572806381829
 30
0.0
  0
VERTEX
  5
711
330
70B
100
AcDbEntity
  8
Livello 1
 62
     7
370
     9
100
AcDbVertex
100
AcDb2dVertex
 10
67.59005179516845
 20
7.111331649697861
 30
0.0
  0
VERTEX
  5
712
330
70B
100
AcDbEntity
  8
Livello 1
 62
     7
370
     9
100
AcDbVertex
100
AcDb2dVertex
 10
67.58991399134905
 20
7.111056042059041
 30
0.0
  0
VERTEX
  5
713
330
70B
100
AcDbEntity
  8
Livello 1
 62
     7
370
     9
100
AcDbVertex
100
AcDb2dVertex
 10
67.58984508943934
 20
7.110728757987943
 30
0.0
  0
VERTEX
  5
714
330
70B
100
AcDbEntity
  8
Livello 1
 62
     7
370
     9
100
AcDbVertex
100
AcDb2dVertex
 10
67.5898106384845
 20
7.11041869939427
 30
0.0
  0
SEQEND
  5
715
330
70B
100
AcDbEntity
  8
Livello 1
370
     9
  0
POLYLINE
  5
716
330
5E0
100
AcDbEntity
  8
Livello 1
 62
     7
370
     9
100
AcDb2dPolyline
 66
     1
 10
0.0
 20
0.0
 30
0.0
  0
VERTEX
  5
717
330
716
100
AcDbEntity
  8
Livello 1
 62
     7
370
     9
100
AcDbVertex
100
AcDb2dVertex
 10
67.69330130686139
 20
7.11041869939427
 30
0.0
  0
VERTEX
  5
718
330
716
100
AcDbEntity
  8
Livello 1
 62
     7
370
     9
100
AcDbVertex
100
AcDb2dVertex
 10
67.69330130686139
 20
7.110728757987943
 30
0.0
  0
VERTEX
  5
719
330
716
100
AcDbEntity
  8
Livello 1
 62
     7
370
     9
100
AcDbVertex
100
AcDb2dVertex
 10
67.69316350304199
 20
7.111056042059041
 30
0.0
  0
VERTEX
  5
71A
330
716
100
AcDbEntity
  8
Livello 1
 62
     7
370
     9
100
AcDbVertex
100
AcDb2dVertex
 10
67.69302569922257
 20
7.111331649697861
 30
0.0
  0
VERTEX
  5
71B
330
716
100
AcDbEntity
  8
Livello 1
 62
     7
370
     9
100
AcDbVertex
100
AcDb2dVertex
 10
67.6928534444483
 20
7.111572806381829
 30
0.0
  0
VERTEX
  5
71C
330
716
100
AcDbEntity
  8
Livello 1
 62
     7
370
     9
100
AcDbVertex
100
AcDb2dVertex
 10
67.69257783680949
 20
7.111745061156091
 30
0.0
  0
VERTEX
  5
71D
330
716
100
AcDbEntity
  8
Livello 1
 62
     7
370
     9
100
AcDbVertex
100
AcDb2dVertex
 10
67.69230222917066
 20
7.111900090452927
 30
0.0
  0
VERTEX
  5
71E
330
716
100
AcDbEntity
  8
Livello 1
 62
     7
370
     9
100
AcDbVertex
100
AcDb2dVertex
 10
67.691992170577
 20
7.112037894272337
 30
0.0
  0
VERTEX
  5
71F
330
716
100
AcDbEntity
  8
Livello 1
 62
     7
370
     9
100
AcDbVertex
100
AcDb2dVertex
 10
67.69168211198333
 20
7.112037894272337
 30
0.0
  0
SEQEND
  5
720
330
716
100
AcDbEntity
  8
Livello 1
370
     9
  0
ENDBLK
  5
5E3
330
5E0
100
AcDbEntity
  8
0
100
AcDbBlockEnd
  0
ENDSEC
  0
SECTION
  2
ENTITIES
  0
INSERT
  5
3D
330
1F
100
AcDbEntity
  8
Livello 1
100
AcDbBlockReference
  2
block 2
 10
0.0
 20
0.0
 30
0.0
  0
ENDSEC
  0
SECTION
  2
OBJECTS
  0
DICTIONARY
  5
C
330
0
100
AcDbDictionary
281
     1
  3
ACAD_GROUP
350
D
  3
ACAD_LAYOUT
350
1A
  3
ACAD_MLINESTYLE
350
17
  3
ACAD_PLOTSETTINGS
350
19
  3
ACAD_PLOTSTYLENAME
350
E
  3
ACAD_TABLESTYLE
350
721
  3
ACAD_VISUALSTYLE
350
2A
  0
DICTIONARY
  5
D
102
{ACAD_REACTORS
330
C
102
}
330
C
100
AcDbDictionary
281
     1
  0
DICTIONARY
  5
1A
102
{ACAD_REACTORS
330
C
102
}
330
C
100
AcDbDictionary
281
     1
  3
Layout1
350
1E
  3
Layout2
350
26
  3
Model
350
22
  0
DICTIONARY
  5
17
102
{ACAD_REACTORS
330
C
102
}
330
C
100
AcDbDictionary
281
     1
  3
Standard
350
18
  0
DICTIONARY
  5
19
102
{ACAD_REACTORS
330
C
102
}
330
C
100
AcDbDictionary
281
     1
  0
ACDBDICTIONARYWDFLT
  5
E
102
{ACAD_REACTORS
330
C
102
}
330
C
100
AcDbDictionary
281
     1
  3
Normal
350
F
100
AcDbDictionaryWithDefault
340
F
  0
DICTIONARY
  5
721
102
{ACAD_REACTORS
330
C
102
}
330
C
100
AcDbDictionary
281
     1
  0
DICTIONARY
  5
2A
102
{ACAD_REACTORS
330
C
102
}
330
C
100
AcDbDictionary
281
     1
  3
2dWireframe
350
2F
  3
3D Hidden
350
31
  3
3dWireframe
350
30
  3
Basic
350
32
  3
Brighten
350
36
  3
ColorChange
350
3A
  3
Conceptual
350
34
  3
Dim
350
35
  3
Facepattern
350
39
  3
Flat
350
2B
  3
FlatWithEdges
350
2C
  3
Gouraud
350
2D
  3
GouraudWithEdges
350
2E
  3
Linepattern
350
38
  3
Realistic
350
33
  3
Thicken
350
37
  0
LAYOUT
  5
1E
102
{ACAD_REACTORS
330
1A
102
}
330
1A
100
AcDbPlotSettings
  1

  2
none_device
  4

  6

 40
0.0
 41
0.0
 42
0.0
 43
0.0
 44
0.0
 45
0.0
 46
0.0
 47
0.0
 48
0.0
 49
0.0
140
0.0
141
0.0
142
1.0
143
1.0
 70
   688
 72
     0
 73
     0
 74
     5
  7

 75
    16
 76
     0
 77
     2
 78
   300
147
1.0
148
0.0
149
0.0
100
AcDbLayout
  1
Layout1
 70
     1
 71
     1
 10
0.0
 20
0.0
 11
12.0
 21
9.0
 12
0.0
 22
0.0
 32
0.0
 14
1.000000000000000E+20
 24
1.000000000000000E+20
 34
1.000000000000000E+20
 15
-1.000000000000000E+20
 25
-1.000000000000000E+20
 35
-1.000000000000000E+20
146
0.0
 13
0.0
 23
0.0
 33
0.0
 16
1.0
 26
0.0
 36
0.0
 17
0.0
 27
1.0
 37
0.0
 76
     0
330
1B
  0
LAYOUT
  5
26
102
{ACAD_REACTORS
330
1A
102
}
330
1A
100
AcDbPlotSettings
  1

  2
none_device
  4

  6

 40
0.0
 41
0.0
 42
0.0
 43
0.0
 44
0.0
 45
0.0
 46
0.0
 47
0.0
 48
0.0
 49
0.0
140
0.0
141
0.0
142
1.0
143
1.0
 70
   688
 72
     0
 73
     0
 74
     5
  7

 75
    16
 76
     0
 77
     2
 78
   300
147
1.0
148
0.0
149
0.0
100
AcDbLayout
  1
Layout2
 70
     1
 71
     2
 10
0.0
 20
0.0
 11
0.0
 21
0.0
 12
0.0
 22
0.0
 32
0.0
 14
0.0
 24
0.0
 34
0.0
 15
0.0
 25
0.0
 35
0.0
146
0.0
 13
0.0
 23
0.0
 33
0.0
 16
1.0
 26
0.0
 36
0.0
 17
0.0
 27
1.0
 37
0.0
 76
     0
330
23
  0
LAYOUT
  5
22
102
{ACAD_REACTORS
330
1A
102
}
330
1A
100
AcDbPlotSettings
  1

  2
none_device
  4

  6

 40
0.0
 41
0.0
 42
0.0
 43
0.0
 44
0.0
 45
0.0
 46
0.0
 47
0.0
 48
0.0
 49
0.0
140
0.0
141
0.0
142
1.0
143
1.0
 70
  1712
 72
     0
 73
     0
 74
     0
  7

 75
     0
 76
     0
 77
     2
 78
   300
147
1.0
148
0.0
149
0.0
100
AcDbLayout
  1
Model
 70
     1
 71
     0
 10
0.0
 20
0.0
 11
12.0
 21
9.0
 12
0.0
 22
0.0
 32
0.0
 14
1.000000000000000E+20
 24
1.000000000000000E+20
 34
1.000000000000000E+20
 15
-1.000000000000000E+20
 25
-1.000000000000000E+20
 35
-1.000000000000000E+20
146
0.0
 13
0.0
 23
0.0
 33
0.0
 16
1.0
 26
0.0
 36
0.0
 17
0.0
 27
1.0
 37
0.0
 76
     0
330
1F
331
29
  0
MLINESTYLE
  5
18
102
{ACAD_REACTORS
330
17
102
}
330
17
100
AcDbMlineStyle
  2
Standard
 70
     0
  3

 62
   256
 51
90.0
 52
90.0
 71
     2
 49
0.5
 62
   256
  6
BYLAYER
 49
-0.5
 62
   256
  6
BYLAYER
  0
ACDBPLACEHOLDER
  5
F
102
{ACAD_REACTORS
330
E
102
}
330
E
  0
VISUALSTYLE
  5
2F
102
{ACAD_REACTORS
330
2A
102
}
330
2A
100
AcDbVisualStyle
  2
2dWireframe
 70
     4
 71
     0
 72
     2
 73
     0
 90
        0
 40
-0.6
 41
-30.0
 62
     5
 63
     7
421
 16777215
 74
     1
 91
        4
 64
     7
 65
   257
 75
     1
175
     1
 42
1.0
 92
        0
 66
   257
 43
1.0
 76
     1
 77
     6
 78
     2
 67
     7
 79
     5
170
     0
171
     0
290
     0
174
     0
 93
        1
 44
0.0
173
     0
291
     0
 45
0.0
1001
ACAD
1000
AcDbSavedByObjectVersion
1070
     0
  0
VISUALSTYLE
  5
31
102
{ACAD_REACTORS
330
2A
102
}
330
2A
100
AcDbVisualStyle
  2
3D Hidden
 70
     6
 71
     1
 72
     2
 73
     2
 90
        0
 40
-0.6
 41
-30.0
 62
     5
 63
     7
421
 16777215
 74
     2
 91
        2
 64
     7
 65
   257
 75
     2
175
     1
 42
40.0
 92
        0
 66
   257
 43
1.0
 76
     1
 77
     6
 78
     2
 67
     7
 79
     3
170
     0
171
     0
290
     0
174
     0
 93
        1
 44
0.0
173
     0
291
     0
 45
0.0
1001
ACAD
1000
AcDbSavedByObjectVersion
1070
     0
  0
VISUALSTYLE
  5
30
102
{ACAD_REACTORS
330
2A
102
}
330
2A
100
AcDbVisualStyle
  2
3dWireframe
 70
     5
 71
     0
 72
     2
 73
     0
 90
        0
 40
-0.6
 41
-30.0
 62
     5
 63
     7
421
 16777215
 74
     1
 91
        4
 64
     7
 65
   257
 75
     1
175
     1
 42
1.0
 92
        0
 66
   257
 43
1.0
 76
     1
 77
     6
 78
     2
 67
     7
 79
     5
170
     0
171
     0
290
     0
174
     0
 93
        1
 44
0.0
173
     0
291
     0
 45
0.0
1001
ACAD
1000
AcDbSavedByObjectVersion
1070
     0
  0
VISUALSTYLE
  5
32
102
{ACAD_REACTORS
330
2A
102
}
330
2A
100
AcDbVisualStyle
  2
Basic
 70
     7
 71
     1
 72
     0
 73
     1
 90
        0
 40
-0.6
 41
-30.0
 62
     5
 63
     7
421
 16777215
 74
     0
 91
        4
 64
     7
 65
   257
 75
     1
175
     1
 42
1.0
 92
        8
 66
     7
 43
1.0
 76
     1
 77
     6
 78
     2
 67
     7
 79
     5
170
     0
171
     0
290
     0
174
     0
 93
        1
 44
0.0
173
     0
291
     1
 45
0.0
1001
ACAD
1000
AcDbSavedByObjectVersion
1070
     0
  0
VISUALSTYLE
  5
36
102
{ACAD_REACTORS
330
2A
102
}
330
2A
100
AcDbVisualStyle
  2
Brighten
 70
    12
 71
     2
 72
     2
 73
     0
 90
        0
 40
-0.6
 41
-30.0
 62
     5
 63
     7
421
 16777215
 74
     1
 91
        4
 64
     7
 65
   257
 75
     1
175
     1
 42
1.0
 92
        8
 66
     7
 43
1.0
 76
     1
 77
     6
 78
     2
 67
     7
 79
     5
170
     0
171
     0
290
     0
174
     0
 93
        1
 44
50.0
173
     0
291
     1
 45
0.0
1001
ACAD
1000
AcDbSavedByObjectVersion
1070
     0
  0
VISUALSTYLE
  5
3A
102
{ACAD_REACTORS
330
2A
102
}
330
2A
100
AcDbVisualStyle
  2
ColorChange
 70
    16
 71
     2
 72
     2
 73
     3
 90
        0
 40
-0.6
 41
-30.0
 62
     5
 63
     8
421
  8421504
 74
     1
 91
        4
 64
     7
 65
   257
 75
     1
175
     1
 42
1.0
 92
        8
 66
     8
424
  8421504
 43
1.0
 76
     1
 77
     6
 78
     2
 67
     7
 79
     5
170
     0
171
     0
290
     0
174
     0
 93
        1
 44
0.0
173
     0
291
     1
 45
0.0
1001
ACAD
1000
AcDbSavedByObjectVersion
1070
     0
  0
VISUALSTYLE
  5
34
102
{ACAD_REACTORS
330
2A
102
}
330
2A
100
AcDbVisualStyle
  2
Conceptual
 70
     9
 71
     3
 72
     2
 73
     0
 90
        0
 40
-0.6
 41
-30.0
 62
     5
 63
     7
421
 16777215
 74
     2
 91
        2
 64
     7
 65
   257
 75
     1
175
     1
 42
40.0
 92
        8
 66
     7
 43
1.0
 76
     1
 77
     6
 78
     2
 67
     7
 79
     3
170
     0
171
     0
290
     0
174
     0
 93
        1
 44
0.0
173
     0
291
     0
 45
0.0
1001
ACAD
1000
AcDbSavedByObjectVersion
1070
     0
  0
VISUALSTYLE
  5
35
102
{ACAD_REACTORS
330
2A
102
}
330
2A
100
AcDbVisualStyle
  2
Dim
 70
    11
 71
     2
 72
     2
 73
     0
 90
        0
 40
-0.6
 41
-30.0
 62
     5
 63
     7
421
 16777215
 74
     1
 91
        4
 64
     7
 65
   257
 75
     1
175
     1
 42
1.0
 92
        8
 66
     7
 43
1.0
 76
     1
 77
     6
 78
     2
 67
     7
 79
     5
170
     0
171
     0
290
     0
174
     0
 93
        1
 44
-50.0
173
     0
291
     1
 45
0.0
1001
ACAD
1000
AcDbSavedByObjectVersion
1070
     0
  0
VISUALSTYLE
  5
39
102
{ACAD_REACTORS
330
2A
102
}
330
2A
100
AcDbVisualStyle
  2
Facepattern
 70
    15
 71
     2
 72
     2
 73
     0
 90
        0
 40
-0.6
 41
-30.0
 62
     5
 63
     7
421
 16777215
 74
     1
 91
        4
 64
     7
 65
   257
 75
     1
175
     1
 42
1.0
 92
        8
 66
     7
 43
1.0
 76
     1
 77
     6
 78
     2
 67
     7
 79
     5
170
     0
171
     0
290
     0
174
     0
 93
        1
 44
0.0
173
     0
291
     1
 45
0.0
1001
ACAD
1000
AcDbSavedByObjectVersion
1070
     0
  0
VISUALSTYLE
  5
2B
102
{ACAD_REACTORS
330
2A
102
}
330
2A
100
AcDbVisualStyle
  2
Flat
 70
     0
 71
     2
 72
     1
 73
     1
 90
        2
 40
-0.6
 41
30.0
 62
     5
 63
     7
421
 16777215
 74
     0
 91
        4
 64
     7
 65
   257
 75
     1
175
     1
 42
1.0
 92
        8
 66
     7
 43
1.0
 76
     1
 77
     6
 78
     2
 67
     7
 79
     5
170
     0
171
     0
290
     0
174
     0
 93
       13
 44
0.0
173
     0
291
     1
 45
0.0
1001
ACAD
1000
AcDbSavedByObjectVersion
1070
     0
  0
VISUALSTYLE
  5
2C
102
{ACAD_REACTORS
330
2A
102
}
330
2A
100
AcDbVisualStyle
  2
FlatWithEdges
 70
     1
 71
     2
 72
     1
 73
     1
 90
        2
 40
-0.6
 41
30.0
 62
     5
 63
     7
421
 16777215
 74
     1
 91
        4
 64
     7
 65
   257
 75
     1
175
     1
 42
1.0
 92
        0
 66
   257
 43
1.0
 76
     1
 77
     6
 78
     2
 67
     7
 79
     5
170
     0
171
     0
290
     0
174
     0
 93
       13
 44
0.0
173
     0
291
     1
 45
0.0
1001
ACAD
1000
AcDbSavedByObjectVersion
1070
     0
  0
VISUALSTYLE
  5
2D
102
{ACAD_REACTORS
330
2A
102
}
330
2A
100
AcDbVisualStyle
  2
Gouraud
 70
     2
 71
     2
 72
     2
 73
     1
 90
        2
 40
-0.6
 41
30.0
 62
     5
 63
     7
421
 16777215
 74
     0
 91
        4
 64
     7
 65
   257
 75
     1
175
     1
 42
1.0
 92
        0
 66
     7
 43
1.0
 76
     1
 77
     6
 78
     2
 67
     7
 79
     5
170
     0
171
     0
290
     0
174
     0
 93
       13
 44
0.0
173
     0
291
     1
 45
0.0
1001
ACAD
1000
AcDbSavedByObjectVersion
1070
     0
  0
VISUALSTYLE
  5
2E
102
{ACAD_REACTORS
330
2A
102
}
330
2A
100
AcDbVisualStyle
  2
GouraudWithEdges
 70
     3
 71
     2
 72
     2
 73
     1
 90
        2
 40
-0.6
 41
30.0
 62
     5
 63
     7
421
 16777215
 74
     1
 91
        4
 64
     7
 65
   257
 75
     1
175
     1
 42
1.0
 92
        0
 66
   257
 43
1.0
 76
     1
 77
     6
 78
     2
 67
     7
 79
     5
170
     0
171
     0
290
     0
174
     0
 93
       13
 44
0.0
173
     0
291
     1
 45
0.0
1001
ACAD
1000
AcDbSavedByObjectVersion
1070
     0
  0
VISUALSTYLE
  5
38
102
{ACAD_REACTORS
330
2A
102
}
330
2A
100
AcDbVisualStyle
  2
Linepattern
 70
    14
 71
     2
 72
     2
 73
     0
 90
        0
 40
-0.6
 41
-30.0
 62
     5
 63
     7
421
 16777215
 74
     1
 91
        4
 64
     7
 65
   257
 75
     7
175
     7
 42
1.0
 92
        8
 66
     7
 43
1.0
 76
     1
 77
     6
 78
     2
 67
     7
 79
     5
170
     0
171
     0
290
     0
174
     0
 93
        1
 44
0.0
173
     0
291
     1
 45
0.0
1001
ACAD
1000
AcDbSavedByObjectVersion
1070
     0
  0
VISUALSTYLE
  5
33
102
{ACAD_REACTORS
330
2A
102
}
330
2A
100
AcDbVisualStyle
  2
Realistic
 70
     8
 71
     2
 72
     2
 73
     0
 90
        0
 40
-0.6
 41
-30.0
 62
     5
 63
     7
421
 16777215
 74
     1
 91
        0
 64
     7
 65
   257
 75
     1
175
     1
 42
1.0
 92
        8
 66
     8
424
  7895160
 43
1.0
 76
     1
 77
     6
 78
     2
 67
     7
 79
     5
170
     0
171
     0
290
     0
174
     0
 93
       13
 44
0.0
173
     0
291
     0
 45
0.0
1001
ACAD
1000
AcDbSavedByObjectVersion
1070
     0
  0
VISUALSTYLE
  5
37
102
{ACAD_REACTORS
330
2A
102
}
330
2A
100
AcDbVisualStyle
  2
Thicken
 70
    13
 71
     2
 72
     2
 73
     0
 90
        0
 40
-0.6
 41
-30.0
 62
     5
 63
     7
421
 16777215
 74
     1
 91
        4
 64
     7
 65
   257
 75
     1
175
     1
 42
1.0
 92
       12
 66
     7
 43
1.0
 76
     1
 77
     6
 78
     2
 67
     7
 79
     5
170
     0
171
     0
290
     0
174
     0
 93
        1
 44
0.0
173
     0
291
     1
 45
0.0
1001
ACAD
1000
AcDbSavedByObjectVersion
1070
     0
  0
ENDSEC
  0
EOF
