 999
SCAN2CAD Date : 01/26/16
 999
SCAN2CAD ScalePixelX : 1
 999
SCAN2CAD ScalePixelY : 1
 999
SCAN2CAD TileXOffset : 0
 999
SCAN2CAD TileYOffset : 0
 999
SCAN2CAD MeasureType : 1
 999
SCAN2CAD DotsPerInch : 0
 999
SCAN2CAD GeScalePixX : 1
 999
SCAN2CAD GeScalePixY : 1
 999
SCAN2CAD GeRasTiePtX : 0
 999
SCAN2CAD GeRasTiePtY : 0
 999
SCAN2CAD ScalRasDist : 1
 999
SCAN2CAD ScalVecDist : 1
 999
SCAN2CAD ScalUnitTyp : 0
 999
SCAN2CAD ScalDistFac : 1
 999
SCAN2CAD ScalAdjustX : 1
 999
SCAN2CAD ScalAdjustY : 1
 999
SCAN2CAD MeasureMeth : 1
 999
SCAN2CAD OgDrawScale : 1
 999
SCAN2CAD OgDrawUType : 0
 999
SCAN2CAD ToDrawScale : 1
 999
SCAN2CAD ToDrawUType : 0
  0
SECTION
  2
HEADER
  9
$ACADVER
  1
AC1014
  9
$ACADMAINTVER
 70
     0
  9
$DWGCODEPAGE
  3
ANSI_1252
  9
$INSBASE
 10
0.0
 20
0.0
 30
0.0
 9
$EXTMIN
 10
28.3467
 20
16.0650931640625
 30
0.0
 9
$EXTMAX
 10
115.1855
 20
425.528893164063
 30
0.0
 9
$LIMMIN
 10
0
 20
0
 9
$LIMMAX
 10
144
 20
454
  9
$ORTHOMODE
 70
     0
  9
$REGENMODE
 70
     1
  9
$FILLMODE
 70
     1
  9
$QTEXTMODE
 70
     0
  9
$MIRRTEXT
 70
     1
  9
$DRAGMODE
 70
     2
  9
$LTSCALE
 40
1.0
  9
$OSMODE
 70
     0
  9
$ATTMODE
 70
     1
  9
$TEXTSIZE
 40
0.2
  9
$TRACEWID
 40
0.05
  9
$TEXTSTYLE
  7
STANDARD
  9
$CLAYER
  8
0
  9
$CELTYPE
  6
CONTINUOUS
  9
$CECOLOR
 62
   256
  9
$CELTSCALE
 40
1.0
  9
$DELOBJ
 70
     1
  9
$DISPSILH
 70
     0
  9
$DIMSCALE
 40
1.0
  9
$DIMASZ
 40
0.18
  9
$DIMEXO
 40
0.0625
  9
$DIMDLI
 40
0.38
  9
$DIMRND
 40
0.0
  9
$DIMDLE
 40
0.0
  9
$DIMEXE
 40
0.18
  9
$DIMTP
 40
0.0
  9
$DIMTM
 40
0.0
  9
$DIMTXT
 40
0.18
  9
$DIMCEN
 40
0.09
  9
$DIMTSZ
 40
0.0
  9
$DIMTOL
 70
     0
  9
$DIMLIM
 70
     0
  9
$DIMTIH
 70
     1
  9
$DIMTOH
 70
     1
  9
$DIMSE1
 70
     0
  9
$DIMSE2
 70
     0
  9
$DIMTAD
 70
     0
  9
$DIMZIN
 70
     0
  9
$DIMBLK
  1

  9
$DIMASO
 70
     1
  9
$DIMSHO
 70
     1
  9
$DIMPOST
  1

  9
$DIMAPOST
  1

  9
$DIMALT
 70
     0
  9
$DIMALTD
 70
     2
  9
$DIMALTF
 40
25.4
  9
$DIMLFAC
 40
1.0
  9
$DIMTOFL
 70
     0
  9
$DIMTVP
 40
0.0
  9
$DIMTIX
 70
     0
  9
$DIMSOXD
 70
     0
  9
$DIMSAH
 70
     0
  9
$DIMBLK1
  1

  9
$DIMBLK2
  1

  9
$DIMSTYLE
  2
STANDARD
  9
$DIMCLRD
 70
     0
  9
$DIMCLRE
 70
     0
  9
$DIMCLRT
 70
     0
  9
$DIMTFAC
 40
1.0
  9
$DIMGAP
 40
0.09
  9
$DIMJUST
 70
     0
  9
$DIMSD1
 70
     0
  9
$DIMSD2
 70
     0
  9
$DIMTOLJ
 70
     1
  9
$DIMTZIN
 70
     0
  9
$DIMALTZ
 70
     0
  9
$DIMALTTZ
 70
     0
  9
$DIMFIT
 70
     3
  9
$DIMUPT
 70
     0
  9
$DIMUNIT
 70
     2
  9
$DIMDEC
 70
     4
  9
$DIMTDEC
 70
     4
  9
$DIMALTU
 70
     2
  9
$DIMALTTD
 70
     2
  9
$DIMTXSTY
  7
STANDARD
  9
$DIMAUNIT
 70
     0
  9
$LUNITS
 70
     2
  9
$LUPREC
 70
     4
  9
$SKETCHINC
 40
0.1
  9
$FILLETRAD
 40
0.0
  9
$AUNITS
 70
     0
  9
$AUPREC
 70
     0
  9
$MENU
  1
acad
  9
$ELEVATION
 40
0.0
  9
$PELEVATION
 40
0.0
  9
$THICKNESS
 40
0.0
  9
$LIMCHECK
 70
     0
  9
$BLIPMODE
 70
     1
  9
$CHAMFERA
 40
0.0
  9
$CHAMFERB
 40
0.0
  9
$CHAMFERC
 40
0.0
  9
$CHAMFERD
 40
0.0
  9
$SKPOLY
 70
     0
  9
$TDCREATE
 40
0.000000000
  9
$TDUPDATE
 40
0.000000000
  9
$TDINDWG
 40
0.0000000000
  9
$TDUSRTIMER
 40
0.0000000000
  9
$USRTIMER
 70
     1
  9
$ANGBASE
 50
0.0
  9
$ANGDIR
 70
     0
  9
$PDMODE
 70
     0
  9
$PDSIZE
 40
0.0
  9
$PLINEWID
 40
0.0
  9
$COORDS
 70
     0
  9
$SPLFRAME
 70
     0
  9
$SPLINETYPE
 70
     6
  9
$SPLINESEGS
 70
     8
  9
$ATTDIA
 70
     0
  9
$ATTREQ
 70
     1
  9
$HANDLING
 70
     1
  9
$HANDSEED
  5
      B9
  9
$SURFTAB1
 70
     6
  9
$SURFTAB2
 70
     6
  9
$SURFTYPE
 70
     6
  9
$SURFU
 70
     6
  9
$SURFV
 70
     6
  9
$UCSNAME
  2

  9
$UCSORG
 10
0.0
 20
0.0
 30
0.0
  9
$UCSXDIR
 10
1.0
 20
0.0
 30
0.0
  9
$UCSYDIR
 10
0.0
 20
1.0
 30
0.0
  9
$PUCSNAME
  2

  9
$PUCSORG
 10
0.0
 20
0.0
 30
0.0
  9
$PUCSXDIR
 10
1.0
 20
0.0
 30
0.0
  9
$PUCSYDIR
 10
0.0
 20
1.0
 30
0.0
  9
$USERI1
 70
     0
  9
$USERI2
 70
     0
  9
$USERI3
 70
     0
  9
$USERI4
 70
     0
  9
$USERI5
 70
     0
  9
$USERR1
 40
0.0
  9
$USERR2
 40
0.0
  9
$USERR3
 40
0.0
  9
$USERR4
 40
0.0
  9
$USERR5
 40
0.0
  9
$WORLDVIEW
 70
     1
  9
$SHADEDGE
 70
     3
  9
$SHADEDIF
 70
    70
  9
$TILEMODE
 70
     1
  9
$MAXACTVP
 70
    16
  9
$PINSBASE
 10
0.0
 20
0.0
 30
0.0
  9
$PLIMCHECK
 70
     0
 9
$PEXTMIN
 10
28.3467
 20
16.0650931640625
 30
0.0
 9
$PEXTMAX
 10
115.1855
 20
425.528893164063
 30
0.0
 9
$PLIMMIN
 10
0
 20
0
 9
$PLIMMAX
 10
144
 20
454
  9
$UNITMODE
 70
     0
  9
$VISRETAIN
 70
     0
  9
$PLINEGEN
 70
     1
  9
$PSLTSCALE
 70
     0
  9
$TREEDEPTH
 70
  3020
  9
$PICKSTYLE
 70
     1
  9
$CMLSTYLE
  2
STANDARD
  9
$CMLJUST
 70
     0
  9
$CMLSCALE
 40
1.0
  9
$PROXYGRAPHICS
 70
     0
  9
$MEASUREMENT
 70
     0
  0
ENDSEC
  0
SECTION
  2
CLASSES
  0
CLASS
  1
LWPOLYLINE
  2
AcDbPolyline
  3
"AutoCAD"
 90
        0
280
     0
281
     1
  0
CLASS
  1
IMAGE
  2
AcDbRasterImage
  3
ISM
 90
      127
280
     0
281
     1
  0
CLASS
  1
OLE2FRAME
  2
AcDbOle2Frame
  3
""
 90
        0
280
     0
281
     1
  0
CLASS
  1
HATCH
  2
AcDbHatch
  3
"ACAD_SEDONA"
 90
        0
280
     0
281
     1
  0
CLASS
  1
DICTIONARYVAR
  2
AcDbDictionaryVar
  3
"AutoCAD"
 90
        0
280
     0
281
     0
  0
CLASS
  1
RASTERVARIABLES
  2
AcDbRasterVariables
  3
ISM
 90
        0
280
     0
281
     0
  0
CLASS
  1
IMAGEDEF
  2
AcDbRasterImageDef
  3
ISM
 90
        0
280
     0
281
     0
  0
CLASS
  1
IMAGEDEF_REACTOR
  2
AcDbRasterImageDefReactor
  3
ISM
 90
        1
280
     0
281
     0
  0
CLASS
  1
IDBUFFER
  2
AcDbIdBuffer
  3
"Acad"
 90
        0
280
     0
281
     0
  0
CLASS
  1
SPATIAL_FILTER
  2
AcDbSpatialFilter
  3
"Acad"
 90
        0
280
     0
281
     0
  0
CLASS
  1
XRECORD
  2
AcDbXrecord
  3
"<Built In>"
 90
        0
280
     0
281
     0
  0
CLASS
  1
SORTENTSTABLE
  2
AcDbSortentsTable
  3
"AutoCAD"
 90
        0
280
     0
281
     0
  0
CLASS
  1
LAYER_INDEX
  2
AcDbLayerIndex
  3
"Acad"
 90
        0
280
     0
281
     0
  0
CLASS
  1
SPATIAL_INDEX
  2
AcDbSpatialIndex
  3
"Acad"
 90
        0
280
     0
281
     0
  0
CLASS
  1
OBJECT_PTR
  2
CAseDLPNTableRecord
  3
"ASE-LPNTableRecord"
 90
        1
280
     0
281
     0
  0
ENDSEC
  0
SECTION
  2
TABLES
  0
TABLE
  2
VPORT
  5
7
100
AcDbSymbolTable
 70
     1
  0
VPORT
  5
15
100
AcDbSymbolTableRecord
100
AcDbViewportTableRecord
 2
*ACTIVE
 70
     0
 10
0
 20
0
 11
1.0
 21
1.0
 12
0.0
 22
0.0
 13
0.0
 23
0.0
 14
1.0
 24
1.0
 15
0.0
 25
0.0
 16
0.0
 26
0.0
 36
1.0
 17
71.7661
 27
220.796993164063
 37
0.0
 40
413.4638
 41
0.219701942467515
 42
50.0
 43
0.0
 44
0.0
 50
0.0
 51
0.0
 71
     0
 72
   100
 73
     1
 74
     1
 75
     0
 76
     0
 77
     0
 78
     0
   0
ENDTAB
  0
TABLE
  2
LTYPE
  5
4
100
AcDbSymbolTable
 70
3
  0
LTYPE
  5
11
100
AcDbSymbolTableRecord
100
AcDbLinetypeTableRecord
  2
BYBLOCK
 70
     0
  3

 72
    65
 73
     0
 40
0.0
  0
LTYPE
  5
12
100
AcDbSymbolTableRecord
100
AcDbLinetypeTableRecord
  2
BYLAYER
 70
     0
  3

 72
    65
 73
     0
 40
0.0
  0
LTYPE
  5
80
330
5
100
AcDbSymbolTableRecord
100
AcDbLinetypeTableRecord
  2
CONTINUOUS
 70
     0
  3
Continuous
 72
    65
 73
     0
 40
0.0
  0
LTYPE
  5
81
330
5
100
AcDbSymbolTableRecord
100
AcDbLinetypeTableRecord
  2
DASH
 70
     0
  3
Dash
 72
    65
 73
     2
 40
48.0
 49
24.0
 74
     0
 49
-24.0
 74
     0
  0
LTYPE
  5
82
330
5
100
AcDbSymbolTableRecord
100
AcDbLinetypeTableRecord
  2
DASHDOT
 70
     0
  3
DashDot
 72
    65
 73
     4
 40
48.0
 49
24.0
 74
     0
 49
 -12.0
 74
     0
 49
0.0
 74
     0
 49
 -12.0
 74
     0	
  0
ENDTAB
  0
TABLE
  2
LAYER
  5
2
100
AcDbSymbolTable
 70
4              
  0
LAYER
  5
83
100
AcDbSymbolTableRecord
100
AcDbLayerTableRecord
  2
0
 70
     0
 62
     7
  6
CONTINUOUS
 0
LAYER
  5
84
100
AcDbSymbolTableRecord
100
AcDbLayerTableRecord
 2
Layer0
 70
 64
 62
 7
 6
CONTINUOUS
 0
LAYER
  5
85
100
AcDbSymbolTableRecord
100
AcDbLayerTableRecord
 2
Layer8
 70
 64
 62
 8
 6
CONTINUOUS
 0
LAYER
  5
86
100
AcDbSymbolTableRecord
100
AcDbLayerTableRecord
 2
Layer22
 70
 64
 62
 22
 6
CONTINUOUS
  0
ENDTAB
  0
TABLE
  2
STYLE
  5
3
100
AcDbSymbolTable
 70
1              
 0
STYLE
 5
17
100
AcDbSymbolTableRecord
100
AcDbTextStyleTableRecord
 2
STANDARD
 70
 0
 40
 0.0
 41
 1.0
 50
 0.0
 71
  0
 42
 8.0
 3
 txt
 4

  0
ENDTAB
  0
TABLE
  2
VIEW
  5
5
100
AcDbSymbolTable
 70
     0
  0
ENDTAB
  0
TABLE
  2
UCS
  5
6
100
AcDbSymbolTable
 70
     0
  0
ENDTAB
  0
TABLE
  2
APPID
  5
8
100
AcDbSymbolTable
 70
     1
  0
APPID
  5
16
100
AcDbSymbolTableRecord
100
AcDbRegAppTableRecord
  2
ACAD
 70
     0
  0
ENDTAB
  0
TABLE
  2
DIMSTYLE
  5
9
100
AcDbSymbolTable
 70
     1
  0
DIMSTYLE
105
18
100
AcDbSymbolTableRecord
100
AcDbDimStyleTableRecord
  2
STANDARD
 70
     0
  3

  4

  5

  6

  7

 40
1.0
 41
0.18
 42
0.0625
 43
0.38
 44
0.18
 45
0.0
 46
0.0
 47
0.0
 48
0.0
140
0.18
141
0.09
142
0.0
143
25.4
144
1.0
145
0.0
146
1.0
147
0.09
 71
     0
 72
     0
 73
     1
 74
     1
 75
     0
 76
     0
 77
     0
 78
     0
170
     0
171
     2
172
     0
173
     0
174
     0
175
     0
176
     0
177
     0
178
     0
270
     2
271
     4
272
     4
273
     2
274
     2
340
17
275
     0
280
     0
281
     0
282
     0
283
     1
284
     0
285
     0
286
     0
287
     0
288
     0
  0
ENDTAB
  0
TABLE
  2
BLOCK_RECORD
  5
1
100
AcDbSymbolTable
 70
     0
  0
BLOCK_RECORD
  5
A
100
AcDbSymbolTableRecord
100
AcDbBlockTableRecord
  2
*MODEL_SPACE
  0
BLOCK_RECORD
  5
B
100
AcDbSymbolTableRecord
100
AcDbBlockTableRecord
  2
*PAPER_SPACE
  0
ENDTAB
  0
ENDSEC
  0
SECTION
  2
BLOCKS
  0
BLOCK
  5
D
100
AcDbEntity
  8
0
100
AcDbBlockBegin
  2
*MODEL_SPACE
 70
     0
 10
0.0
 20
0.0
 30
0.0
  3
*MODEL_SPACE
  1

  0
ENDBLK
  5
E
100
AcDbEntity
  8
0
100
AcDbBlockEnd
  0
BLOCK
  5
F
100
AcDbEntity
 67
     1
  8
0
100
AcDbBlockBegin
  2
*PAPER_SPACE
 70
     0
 10
0.0
 20
0.0
 30
0.0
  3
*PAPER_SPACE
  1

  0
ENDBLK
  5
10
100
AcDbEntity
 67
     1
  8
0
100
AcDbBlockEnd
 0
ENDSEC
 0
SECTION
 2
ENTITIES
 0
LINE
 5
87
100
AcDbEntity
 8
Layer8
100
AcDbLine
 39
0.25
 370
106
 10
35.9813
 20
424.667593164063
 30
0.0
 11
29.8113
 21
424.667593164063
 31
0.0
 0
LINE
 5
88
100
AcDbEntity
 8
Layer8
100
AcDbLine
 39
0.25
 370
106
 10
51.2463
 20
121.148593164063
 30
0.0
 11
51.2463
 21
127.317593164062
 31
0.0
 0
LINE
 5
89
100
AcDbEntity
 8
Layer8
100
AcDbLine
 39
0.25
 370
106
 10
68.6883
 20
121.148593164063
 30
0.0
 11
68.6883
 21
127.317593164062
 31
0.0
 0
LINE
 5
8A
100
AcDbEntity
 8
Layer8
100
AcDbLine
 39
0.25
 370
106
 10
100.4893
 20
121.148593164063
 30
0.0
 11
100.4893
 21
127.317593164062
 31
0.0
 0
LINE
 5
8B
100
AcDbEntity
 8
Layer8
100
AcDbLine
 39
0.25
 370
106
 10
114.8533
 20
121.147593164063
 30
0.0
 11
114.8533
 21
127.318593164063
 31
0.0
 0
HATCH
 5
8C
100
AcDbEntity
 8
Layer8
100
AcDbHatch
 10
 0.0
 20
 0.0
 30
 0.0
 210
 0.0
 220
 0.0
 230
 1.0
 2
SOLID
 70
 1
 71
 1
 91
1              
 92
 0
 93
23             
 72
 1
 10
30.7606
 20
276.163693164063
 11
30.7606
 21
274.522693164063
 72
 1
 10
30.7606
 20
274.522693164063
 11
29.9466
 21
274.522693164063
 72
 1
 10
29.9466
 20
274.522693164063
 11
29.934363671875
 21
274.741509570313
 72
 1
 10
29.934363671875
 20
274.741509570313
 11
29.912646875
 21
274.944224414062
 72
 1
 10
29.912646875
 20
274.944224414062
 11
29.881437890625
 21
275.130861132813
 72
 1
 10
29.881437890625
 20
275.130861132813
 11
29.840725
 21
275.301443164063
 72
 1
 10
29.840725
 20
275.301443164063
 11
29.790496484375
 21
275.455993945313
 72
 1
 10
29.790496484375
 20
275.455993945313
 11
29.730740625
 21
275.594536914063
 72
 1
 10
29.730740625
 20
275.594536914063
 11
29.661445703125
 21
275.717095507813
 72
 1
 10
29.661445703125
 20
275.717095507813
 11
29.5826
 21
275.823693164063
 72
 1
 10
29.5826
 20
275.823693164063
 11
29.4894203125
 21
275.920023242188
 72
 1
 10
29.4894203125
 20
275.920023242188
 11
29.3786625
 21
276.009521289063
 72
 1
 10
29.3786625
 20
276.009521289063
 11
29.2503734375
 21
276.092199023438
 72
 1
 10
29.2503734375
 20
276.092199023438
 11
29.1046
 21
276.168068164063
 72
 1
 10
29.1046
 20
276.168068164063
 11
28.9413890625
 21
276.237140429688
 72
 1
 10
28.9413890625
 20
276.237140429688
 11
28.7607875
 21
276.299427539063
 72
 1
 10
28.7607875
 20
276.299427539063
 11
28.5628421875
 21
276.354941210938
 72
 1
 10
28.5628421875
 20
276.354941210938
 11
28.3476
 21
276.403693164063
 72
 1
 10
28.3476
 20
276.403693164063
 11
28.3476
 21
277.077693164063
 72
 1
 10
28.3476
 20
277.077693164063
 11
36.7666
 21
277.077693164063
 72
 1
 10
36.7666
 20
277.077693164063
 11
36.7666
 21
276.620693164063
 72
 1
 10
36.7666
 20
276.620693164063
 11
36.7666
 21
276.163693164063
 72
 1
 10
36.7666
 20
276.163693164063
 11
30.7606
 21
276.163693164063
 97
 1
 330
8D
 75
 0
 76
 1
 98
 1
 10
 0.0
 20
 0.0
 0
HATCH
 5
8E
100
AcDbEntity
 8
Layer8
100
AcDbHatch
 10
 0.0
 20
 0.0
 30
 0.0
 210
 0.0
 220
 0.0
 230
 1.0
 2
SOLID
 70
 1
 71
 1
 91
3              
 92
 0
 93
128            
 72
 1
 10
32.2957
 20
282.972293164062
 11
32.330819140625
 21
283.037451367187
 72
 1
 10
32.330819140625
 20
283.037451367187
 11
32.367965625
 21
283.100933789062
 72
 1
 10
32.367965625
 20
283.100933789062
 11
32.407198046875
 21
283.162752148438
 72
 1
 10
32.407198046875
 20
283.162752148438
 11
32.448575
 21
283.222918164062
 72
 1
 10
32.448575
 20
283.222918164062
 11
32.492155078125
 21
283.281443554687
 72
 1
 10
32.492155078125
 20
283.281443554687
 11
32.537996875
 21
283.338340039062
 72
 1
 10
32.537996875
 20
283.338340039062
 11
32.586158984375
 21
283.393619335938
 72
 1
 10
32.586158984375
 20
283.393619335938
 11
32.6367
 21
283.447293164063
 72
 1
 10
32.6367
 20
283.447293164063
 11
32.796903125
 21
283.596154492188
 72
 1
 10
32.796903125
 20
283.596154492188
 11
32.9707
 21
283.725433789062
 72
 1
 10
32.9707
 20
283.725433789062
 11
33.157996875
 21
283.835049023438
 72
 1
 10
33.157996875
 20
283.835049023438
 11
33.3587
 21
283.924918164062
 72
 1
 10
33.3587
 20
283.924918164062
 11
33.572715625
 21
283.994959179688
 72
 1
 10
33.572715625
 20
283.994959179688
 11
33.79995
 21
284.045090039063
 72
 1
 10
33.79995
 20
284.045090039063
 11
34.040309375
 21
284.075228710937
 72
 1
 10
34.040309375
 20
284.075228710937
 11
34.2937
 21
284.085293164062
 72
 1
 10
34.2937
 20
284.085293164062
 11
34.594823046875
 21
284.075228710937
 72
 1
 10
34.594823046875
 20
284.075228710937
 11
34.880184375
 21
284.045090039063
 72
 1
 10
34.880184375
 20
284.045090039063
 11
35.149772265625
 21
283.994959179688
 72
 1
 10
35.149772265625
 20
283.994959179688
 11
35.403575
 21
283.924918164062
 72
 1
 10
35.403575
 20
283.924918164062
 11
35.641580859375
 21
283.835049023437
 72
 1
 10
35.641580859375
 20
283.835049023437
 11
35.863778125
 21
283.725433789062
 72
 1
 10
35.863778125
 20
283.725433789062
 11
36.070155078125
 21
283.596154492188
 72
 1
 10
36.070155078125
 20
283.596154492188
 11
36.2607
 21
283.447293164063
 72
 1
 10
36.2607
 20
283.447293164063
 11
36.43151640625
 21
283.280603710938
 72
 1
 10
36.43151640625
 20
283.280603710938
 11
36.57948125
 21
283.100027539062
 72
 1
 10
36.57948125
 20
283.100027539062
 11
36.70461796875
 21
282.905552929687
 72
 1
 10
36.70461796875
 20
282.905552929687
 11
36.80695
 21
282.697168164062
 72
 1
 10
36.80695
 20
282.697168164062
 11
36.88650078125
 21
282.474861523437
 72
 1
 10
36.88650078125
 20
282.474861523437
 11
36.94329375
 21
282.238621289063
 72
 1
 10
36.94329375
 20
282.238621289063
 11
36.97735234375
 21
281.988435742187
 72
 1
 10
36.97735234375
 20
281.988435742187
 11
36.9887
 21
281.724293164062
 72
 1
 10
36.9887
 20
281.724293164062
 11
36.977455859375
 21
281.459578320312
 72
 1
 10
36.977455859375
 20
281.459578320312
 11
36.943746875
 21
281.209136914062
 72
 1
 10
36.943746875
 20
281.209136914062
 11
36.887608203125
 21
280.972898632812
 72
 1
 10
36.887608203125
 20
280.972898632812
 11
36.809075
 21
280.750793164062
 72
 1
 10
36.809075
 20
280.750793164062
 11
36.708182421875
 21
280.542750195312
 72
 1
 10
36.708182421875
 20
280.542750195312
 11
36.584965625
 21
280.348699414062
 72
 1
 10
36.584965625
 20
280.348699414062
 11
36.439459765625
 21
280.168570507812
 72
 1
 10
36.439459765625
 20
280.168570507812
 11
36.2717
 21
280.002293164062
 72
 1
 10
36.2717
 20
280.002293164062
 11
36.08466875
 21
279.853933789062
 72
 1
 10
36.08466875
 20
279.853933789062
 11
35.882075
 21
279.725355664062
 72
 1
 10
35.882075
 20
279.725355664062
 11
35.66391875
 21
279.616558789062
 72
 1
 10
35.66391875
 20
279.616558789062
 11
35.4302
 21
279.527543164062
 72
 1
 10
35.4302
 20
279.527543164062
 11
35.18091875
 21
279.458308789062
 72
 1
 10
35.18091875
 20
279.458308789062
 11
34.916075
 21
279.408855664062
 72
 1
 10
34.916075
 20
279.408855664062
 11
34.63566875
 21
279.379183789062
 72
 1
 10
34.63566875
 20
279.379183789062
 11
34.3397
 21
279.369293164062
 72
 1
 10
34.3397
 20
279.369293164062
 11
34.080334765625
 21
279.379230664062
 72
 1
 10
34.080334765625
 20
279.379230664062
 11
33.834715625
 21
279.409043164063
 72
 1
 10
33.834715625
 20
279.409043164063
 11
33.602807421875
 21
279.458730664063
 72
 1
 10
33.602807421875
 20
279.458730664063
 11
33.384575
 21
279.528293164062
 72
 1
 10
33.384575
 20
279.528293164062
 11
33.179983203125
 21
279.617730664062
 72
 1
 10
33.179983203125
 20
279.617730664062
 11
32.988996875
 21
279.727043164062
 72
 1
 10
32.988996875
 20
279.727043164062
 11
32.811580859375
 21
279.856230664063
 72
 1
 10
32.811580859375
 20
279.856230664063
 11
32.6477
 21
280.005293164062
 72
 1
 10
32.6477
 20
280.005293164062
 11
32.59623515625
 21
280.059627148437
 72
 1
 10
32.59623515625
 20
280.059627148437
 11
32.54685625
 21
280.115402539062
 72
 1
 10
32.54685625
 20
280.115402539062
 11
32.49958671875
 21
280.172654492187
 72
 1
 10
32.49958671875
 20
280.172654492187
 11
32.45445
 21
280.231418164062
 72
 1
 10
32.45445
 20
280.231418164062
 11
32.41146953125
 21
280.291728710937
 72
 1
 10
32.41146953125
 20
280.291728710937
 11
32.37066875
 21
280.353621289062
 72
 1
 10
32.37066875
 20
280.353621289062
 11
32.33207109375
 21
280.417131054688
 72
 1
 10
32.33207109375
 20
280.417131054688
 11
32.2957
 21
280.482293164062
 72
 1
 10
32.2957
 20
280.482293164062
 11
32.26824296875
 21
280.443707226562
 72
 1
 10
32.26824296875
 20
280.443707226562
 11
32.23991875
 21
280.405918164062
 72
 1
 10
32.23991875
 20
280.405918164062
 11
32.21079765625
 21
280.368879101562
 72
 1
 10
32.21079765625
 20
280.368879101562
 11
32.18095
 21
280.332543164062
 72
 1
 10
32.18095
 20
280.332543164062
 11
32.15044609375
 21
280.296863476562
 72
 1
 10
32.15044609375
 20
280.296863476562
 11
32.11935625
 21
280.261793164063
 72
 1
 10
32.11935625
 20
280.261793164063
 11
32.08775078125
 21
280.227285351563
 72
 1
 10
32.08775078125
 20
280.227285351563
 11
32.0557
 21
280.193293164062
 72
 1
 10
32.0557
 20
280.193293164062
 11
31.907342578125
 21
280.060402539062
 72
 1
 10
31.907342578125
 20
280.060402539062
 11
31.746528125
 21
279.945230664062
 72
 1
 10
31.746528125
 20
279.945230664062
 11
31.573268359375
 21
279.847777539063
 72
 1
 10
31.573268359375
 20
279.847777539063
 11
31.387575
 21
279.768043164062
 72
 1
 10
31.387575
 20
279.768043164062
 11
31.189459765625
 21
279.706027539063
 72
 1
 10
31.189459765625
 20
279.706027539063
 11
30.978934375
 21
279.661730664062
 72
 1
 10
30.978934375
 20
279.661730664062
 11
30.756010546875
 21
279.635152539062
 72
 1
 10
30.756010546875
 20
279.635152539062
 11
30.5207
 21
279.626293164062
 72
 1
 10
30.5207
 20
279.626293164062
 11
30.27832109375
 21
279.635152539062
 72
 1
 10
30.27832109375
 20
279.635152539062
 11
30.04848125
 21
279.661730664062
 72
 1
 10
30.04848125
 20
279.661730664062
 11
29.83125078125
 21
279.706027539063
 72
 1
 10
29.83125078125
 20
279.706027539063
 11
29.6267
 21
279.768043164062
 72
 1
 10
29.6267
 20
279.768043164062
 11
29.43489921875
 21
279.847777539062
 72
 1
 10
29.43489921875
 20
279.847777539062
 11
29.25591875
 21
279.945230664062
 72
 1
 10
29.25591875
 20
279.945230664062
 11
29.08982890625
 21
280.060402539062
 72
 1
 10
29.08982890625
 20
280.060402539062
 11
28.9367
 21
280.193293164062
 72
 1
 10
28.9367
 20
280.193293164062
 11
28.798514453125
 21
280.342175976562
 72
 1
 10
28.798514453125
 20
280.342175976562
 11
28.678715625
 21
280.503105664062
 72
 1
 10
28.678715625
 20
280.503105664062
 11
28.577315234375
 21
280.676129101562
 72
 1
 10
28.577315234375
 20
280.676129101562
 11
28.494325
 21
280.861293164062
 72
 1
 10
28.494325
 20
280.861293164062
 11
28.429756640625
 21
281.058644726562
 72
 1
 10
28.429756640625
 20
281.058644726562
 11
28.383621875
 21
281.268230664062
 72
 1
 10
28.383621875
 20
281.268230664062
 11
28.355932421875
 21
281.490097851563
 72
 1
 10
28.355932421875
 20
281.490097851563
 11
28.3467
 21
281.724293164062
 72
 1
 10
28.3467
 20
281.724293164062
 11
28.355932421875
 21
281.958152539062
 72
 1
 10
28.355932421875
 20
281.958152539062
 11
28.383621875
 21
282.179730664063
 72
 1
 10
28.383621875
 20
282.179730664063
 11
28.429756640625
 21
282.389027539063
 72
 1
 10
28.429756640625
 20
282.389027539063
 11
28.494325
 21
282.586043164062
 72
 1
 10
28.494325
 20
282.586043164062
 11
28.577315234375
 21
282.770777539062
 72
 1
 10
28.577315234375
 20
282.770777539062
 11
28.678715625
 21
282.943230664062
 72
 1
 10
28.678715625
 20
282.943230664062
 11
28.798514453125
 21
283.103402539062
 72
 1
 10
28.798514453125
 20
283.103402539062
 11
28.9367
 21
283.251293164062
 72
 1
 10
28.9367
 20
283.251293164062
 11
29.08982890625
 21
283.385216992187
 72
 1
 10
29.08982890625
 20
283.385216992187
 11
29.25591875
 21
283.501246289062
 72
 1
 10
29.25591875
 20
283.501246289062
 11
29.43489921875
 21
283.599392773438
 72
 1
 10
29.43489921875
 20
283.599392773438
 11
29.6267
 21
283.679668164062
 72
 1
 10
29.6267
 20
283.679668164062
 11
29.83125078125
 21
283.742084179687
 72
 1
 10
29.83125078125
 20
283.742084179687
 11
30.04848125
 21
283.786652539063
 72
 1
 10
30.04848125
 20
283.786652539063
 11
30.27832109375
 21
283.813384960938
 72
 1
 10
30.27832109375
 20
283.813384960938
 11
30.5207
 21
283.822293164063
 72
 1
 10
30.5207
 20
283.822293164063
 11
30.756104296875
 21
283.813384960937
 72
 1
 10
30.756104296875
 20
283.813384960937
 11
30.979309375
 21
283.786652539063
 72
 1
 10
30.979309375
 20
283.786652539063
 11
31.190303515625
 21
283.742084179687
 72
 1
 10
31.190303515625
 20
283.742084179687
 11
31.389075
 21
283.679668164062
 72
 1
 10
31.389075
 20
283.679668164062
 11
31.575612109375
 21
283.599392773438
 72
 1
 10
31.575612109375
 20
283.599392773438
 11
31.749903125
 21
283.501246289063
 72
 1
 10
31.749903125
 20
283.501246289063
 11
31.911936328125
 21
283.385216992187
 72
 1
 10
31.911936328125
 20
283.385216992187
 11
32.0617
 21
283.251293164062
 72
 1
 10
32.0617
 20
283.251293164062
 11
32.093575
 21
283.219084179687
 72
 1
 10
32.093575
 20
283.219084179687
 11
32.1247
 21
283.186183789062
 72
 1
 10
32.1247
 20
283.186183789062
 11
32.155075
 21
283.152556835938
 72
 1
 10
32.155075
 20
283.152556835938
 11
32.1847
 21
283.118168164062
 72
 1
 10
32.1847
 20
283.118168164062
 11
32.213575
 21
283.082982617187
 72
 1
 10
32.213575
 20
283.082982617187
 11
32.2417
 21
283.046965039062
 72
 1
 10
32.2417
 20
283.046965039062
 11
32.269075
 21
283.010080273437
 72
 1
 10
32.269075
 20
283.010080273437
 11
32.2957
 21
282.972293164062
 97
 1
 330
8F
 92
 0
 93
64             
 72
 1
 10
31.8867
 20
281.724293164062
 11
31.881448046875
 21
281.860980664062
 72
 1
 10
31.881448046875
 20
281.860980664062
 11
31.865684375
 21
281.989793164062
 72
 1
 10
31.865684375
 20
281.989793164062
 11
31.839397265625
 21
282.110730664062
 72
 1
 10
31.839397265625
 20
282.110730664062
 11
31.802575
 21
282.223793164063
 72
 1
 10
31.802575
 20
282.223793164063
 11
31.755205859375
 21
282.328980664062
 72
 1
 10
31.755205859375
 20
282.328980664062
 11
31.697278125
 21
282.426293164062
 72
 1
 10
31.697278125
 20
282.426293164062
 11
31.628780078125
 21
282.515730664063
 72
 1
 10
31.628780078125
 20
282.515730664063
 11
31.5497
 21
282.597293164062
 72
 1
 10
31.5497
 20
282.597293164062
 11
31.460815234375
 21
282.669800976562
 72
 1
 10
31.460815234375
 20
282.669800976562
 11
31.363621875
 21
282.732793164062
 72
 1
 10
31.363621875
 20
282.732793164062
 11
31.258061328125
 21
282.786222851562
 72
 1
 10
31.258061328125
 20
282.786222851562
 11
31.144075
 21
282.830043164062
 72
 1
 10
31.144075
 20
282.830043164062
 11
31.021604296875
 21
282.864207226562
 72
 1
 10
31.021604296875
 20
282.864207226562
 11
30.890590625
 21
282.888668164062
 72
 1
 10
30.890590625
 20
282.888668164062
 11
30.750975390625
 21
282.903379101562
 72
 1
 10
30.750975390625
 20
282.903379101562
 11
30.6027
 21
282.908293164062
 72
 1
 10
30.6027
 20
282.908293164062
 11
30.45022734375
 21
282.903379101562
 72
 1
 10
30.45022734375
 20
282.903379101562
 11
30.30635625
 21
282.888668164062
 72
 1
 10
30.30635625
 20
282.888668164062
 11
30.17115703125
 21
282.864207226562
 72
 1
 10
30.17115703125
 20
282.864207226562
 11
30.0447
 21
282.830043164062
 72
 1
 10
30.0447
 20
282.830043164062
 11
29.92705546875
 21
282.786222851562
 72
 1
 10
29.92705546875
 20
282.786222851562
 11
29.81829375
 21
282.732793164062
 72
 1
 10
29.81829375
 20
282.732793164062
 11
29.71848515625
 21
282.669800976562
 72
 1
 10
29.71848515625
 20
282.669800976562
 11
29.6277
 21
282.597293164062
 72
 1
 10
29.6277
 20
282.597293164062
 11
29.5460515625
 21
282.515730664062
 72
 1
 10
29.5460515625
 20
282.515730664062
 11
29.4751375
 21
282.426293164062
 72
 1
 10
29.4751375
 20
282.426293164062
 11
29.4150046875
 21
282.328980664063
 72
 1
 10
29.4150046875
 20
282.328980664063
 11
29.3657
 21
282.223793164063
 72
 1
 10
29.3657
 20
282.223793164063
 11
29.3272703125
 21
282.110730664062
 72
 1
 10
29.3272703125
 20
282.110730664062
 11
29.2997625
 21
281.989793164062
 72
 1
 10
29.2997625
 20
281.989793164062
 11
29.2832234375
 21
281.860980664062
 72
 1
 10
29.2832234375
 20
281.860980664062
 11
29.2777
 21
281.724293164062
 72
 1
 10
29.2777
 20
281.724293164062
 11
29.2832234375
 21
281.587564648437
 72
 1
 10
29.2832234375
 20
281.587564648437
 11
29.2997625
 21
281.458652539062
 72
 1
 10
29.2997625
 20
281.458652539062
 11
29.3272703125
 21
281.337591992187
 72
 1
 10
29.3272703125
 20
281.337591992187
 11
29.3657
 21
281.224418164063
 72
 1
 10
29.3657
 20
281.224418164063
 11
29.4150046875
 21
281.119166210937
 72
 1
 10
29.4150046875
 20
281.119166210937
 11
29.4751375
 21
281.021871289062
 72
 1
 10
29.4751375
 20
281.021871289062
 11
29.5460515625
 21
280.932568554687
 72
 1
 10
29.5460515625
 20
280.932568554687
 11
29.6277
 21
280.851293164063
 72
 1
 10
29.6277
 20
280.851293164063
 11
29.71848515625
 21
280.778498242188
 72
 1
 10
29.71848515625
 20
280.778498242188
 11
29.81829375
 21
280.715371289062
 72
 1
 10
29.81829375
 20
280.715371289062
 11
29.92705546875
 21
280.661924023438
 72
 1
 10
29.92705546875
 20
280.661924023438
 11
30.0447
 21
280.618168164062
 72
 1
 10
30.0447
 20
280.618168164062
 11
30.17115703125
 21
280.584115429687
 72
 1
 10
30.17115703125
 20
280.584115429687
 11
30.30635625
 21
280.559777539062
 72
 1
 10
30.30635625
 20
280.559777539062
 11
30.45022734375
 21
280.545166210937
 72
 1
 10
30.45022734375
 20
280.545166210937
 11
30.6027
 21
280.540293164062
 72
 1
 10
30.6027
 20
280.540293164062
 11
30.751061328125
 21
280.545166210937
 72
 1
 10
30.751061328125
 20
280.545166210937
 11
30.890903125
 21
280.559777539062
 72
 1
 10
30.890903125
 20
280.559777539062
 11
31.022237109375
 21
280.584115429687
 72
 1
 10
31.022237109375
 20
280.584115429687
 11
31.145075
 21
280.618168164062
 72
 1
 10
31.145075
 20
280.618168164062
 11
31.259428515625
 21
280.661924023438
 72
 1
 10
31.259428515625
 20
280.661924023438
 11
31.365309375
 21
280.715371289063
 72
 1
 10
31.365309375
 20
280.715371289063
 11
31.462729296875
 21
280.778498242188
 72
 1
 10
31.462729296875
 20
280.778498242188
 11
31.5517
 21
280.851293164063
 72
 1
 10
31.5517
 20
280.851293164063
 11
31.630119921875
 21
280.932568554687
 72
 1
 10
31.630119921875
 20
280.932568554687
 11
31.698121875
 21
281.021871289062
 72
 1
 10
31.698121875
 20
281.021871289062
 11
31.755694140625
 21
281.119166210937
 72
 1
 10
31.755694140625
 20
281.119166210937
 11
31.802825
 21
281.224418164063
 72
 1
 10
31.802825
 20
281.224418164063
 11
31.839502734375
 21
281.337591992187
 72
 1
 10
31.839502734375
 20
281.337591992187
 11
31.865715625
 21
281.458652539062
 72
 1
 10
31.865715625
 20
281.458652539062
 11
31.881451953125
 21
281.587564648437
 72
 1
 10
31.881451953125
 20
281.587564648437
 11
31.8867
 21
281.724293164062
 97
 1
 330
90
 92
 0
 93
64             
 72
 1
 10
32.7647
 20
281.724293164062
 11
32.771545703125
 21
281.559019726563
 72
 1
 10
32.771545703125
 20
281.559019726563
 11
32.792090625
 21
281.402980664062
 72
 1
 10
32.792090625
 20
281.402980664062
 11
32.826346484375
 21
281.256222851562
 72
 1
 10
32.826346484375
 20
281.256222851562
 11
32.874325
 21
281.118793164062
 72
 1
 10
32.874325
 20
281.118793164062
 11
32.936037890625
 21
280.990738476563
 72
 1
 10
32.936037890625
 20
280.990738476563
 11
33.011496875
 21
280.872105664062
 72
 1
 10
33.011496875
 20
280.872105664062
 11
33.100713671875
 21
280.762941601562
 72
 1
 10
33.100713671875
 20
280.762941601562
 11
33.2037
 21
280.663293164062
 72
 1
 10
33.2037
 20
280.663293164062
 11
33.319061328125
 21
280.574039257812
 72
 1
 10
33.319061328125
 20
280.574039257812
 11
33.445403125
 21
280.496761914062
 72
 1
 10
33.445403125
 20
280.496761914062
 11
33.582737109375
 21
280.431437695312
 72
 1
 10
33.582737109375
 20
280.431437695312
 11
33.731075
 21
280.378043164062
 72
 1
 10
33.731075
 20
280.378043164062
 11
33.890428515625
 21
280.336554882812
 72
 1
 10
33.890428515625
 20
280.336554882812
 11
34.060809375
 21
280.306949414062
 72
 1
 10
34.060809375
 20
280.306949414062
 11
34.242229296875
 21
280.289203320312
 72
 1
 10
34.242229296875
 20
280.289203320312
 11
34.4347
 21
280.283293164062
 72
 1
 10
34.4347
 20
280.283293164062
 11
34.6214421875
 21
280.289203320312
 72
 1
 10
34.6214421875
 20
280.289203320312
 11
34.7976375
 21
280.306949414062
 72
 1
 10
34.7976375
 20
280.306949414062
 11
34.9632390625
 21
280.336554882812
 72
 1
 10
34.9632390625
 20
280.336554882812
 11
35.1182
 21
280.378043164062
 72
 1
 10
35.1182
 20
280.378043164062
 11
35.2624734375
 21
280.431437695312
 72
 1
 10
35.2624734375
 20
280.431437695312
 11
35.3960125
 21
280.496761914062
 72
 1
 10
35.3960125
 20
280.496761914062
 11
35.5187703125
 21
280.574039257812
 72
 1
 10
35.5187703125
 20
280.574039257812
 11
35.6307
 21
280.663293164062
 72
 1
 10
35.6307
 20
280.663293164062
 11
35.730873828125
 21
280.762941601562
 72
 1
 10
35.730873828125
 20
280.762941601562
 11
35.817653125
 21
280.872105664062
 72
 1
 10
35.817653125
 20
280.872105664062
 11
35.891049609375
 21
280.990738476562
 72
 1
 10
35.891049609375
 20
280.990738476562
 11
35.951075
 21
281.118793164062
 72
 1
 10
35.951075
 20
281.118793164062
 11
35.997741015625
 21
281.256222851562
 72
 1
 10
35.997741015625
 20
281.256222851562
 11
36.031059375
 21
281.402980664062
 72
 1
 10
36.031059375
 20
281.402980664062
 11
36.051041796875
 21
281.559019726563
 72
 1
 10
36.051041796875
 20
281.559019726563
 11
36.0577
 21
281.724293164062
 72
 1
 10
36.0577
 20
281.724293164062
 11
36.051041796875
 21
281.890847851563
 72
 1
 10
36.051041796875
 20
281.890847851563
 11
36.031059375
 21
282.047793164062
 72
 1
 10
36.031059375
 20
282.047793164062
 11
35.997741015625
 21
282.195175976563
 72
 1
 10
35.997741015625
 20
282.195175976563
 11
35.951075
 21
282.333043164062
 72
 1
 10
35.951075
 20
282.333043164062
 11
35.891049609375
 21
282.461441601562
 72
 1
 10
35.891049609375
 20
282.461441601562
 11
35.817653125
 21
282.580418164063
 72
 1
 10
35.817653125
 20
282.580418164063
 11
35.730873828125
 21
282.690019726562
 72
 1
 10
35.730873828125
 20
282.690019726562
 11
35.6307
 21
282.790293164062
 72
 1
 10
35.6307
 20
282.790293164062
 11
35.5187703125
 21
282.879302929687
 72
 1
 10
35.5187703125
 20
282.879302929687
 11
35.3960125
 21
282.956558789062
 72
 1
 10
35.3960125
 20
282.956558789062
 11
35.2624734375
 21
283.022025585938
 72
 1
 10
35.2624734375
 20
283.022025585938
 11
35.1182
 21
283.075668164062
 72
 1
 10
35.1182
 20
283.075668164062
 11
34.9632390625
 21
283.117451367188
 72
 1
 10
34.9632390625
 20
283.117451367188
 11
34.7976375
 21
283.147340039063
 72
 1
 10
34.7976375
 20
283.147340039063
 11
34.6214421875
 21
283.165299023437
 72
 1
 10
34.6214421875
 20
283.165299023437
 11
34.4347
 21
283.171293164062
 72
 1
 10
34.4347
 20
283.171293164062
 11
34.242229296875
 21
283.165299023437
 72
 1
 10
34.242229296875
 20
283.165299023437
 11
34.060809375
 21
283.147340039063
 72
 1
 10
34.060809375
 20
283.147340039063
 11
33.890428515625
 21
283.117451367187
 72
 1
 10
33.890428515625
 20
283.117451367187
 11
33.731075
 21
283.075668164062
 72
 1
 10
33.731075
 20
283.075668164062
 11
33.582737109375
 21
283.022025585938
 72
 1
 10
33.582737109375
 20
283.022025585938
 11
33.445403125
 21
282.956558789062
 72
 1
 10
33.445403125
 20
282.956558789062
 11
33.319061328125
 21
282.879302929687
 72
 1
 10
33.319061328125
 20
282.879302929687
 11
33.2037
 21
282.790293164062
 72
 1
 10
33.2037
 20
282.790293164062
 11
33.100713671875
 21
282.690019726562
 72
 1
 10
33.100713671875
 20
282.690019726562
 11
33.011496875
 21
282.580418164062
 72
 1
 10
33.011496875
 20
282.580418164062
 11
32.936037890625
 21
282.461441601562
 72
 1
 10
32.936037890625
 20
282.461441601562
 11
32.874325
 21
282.333043164062
 72
 1
 10
32.874325
 20
282.333043164062
 11
32.826346484375
 21
282.195175976563
 72
 1
 10
32.826346484375
 20
282.195175976563
 11
32.792090625
 21
282.047793164062
 72
 1
 10
32.792090625
 20
282.047793164062
 11
32.771545703125
 21
281.890847851562
 72
 1
 10
32.771545703125
 20
281.890847851562
 11
32.7647
 21
281.724293164062
 97
 1
 330
91
 75
 0
 76
 1
 98
 1
 10
 0.0
 20
 0.0
 0
HATCH
 5
92
100
AcDbEntity
 8
Layer8
100
AcDbHatch
 10
 0.0
 20
 0.0
 30
 0.0
 210
 0.0
 220
 0.0
 230
 1.0
 2
SOLID
 70
 1
 71
 1
 91
1              
 92
 0
 93
127            
 72
 1
 10
34.036
 20
289.523093164063
 11
34.365953125
 21
289.513018945313
 72
 1
 10
34.365953125
 20
289.513018945313
 11
34.6785625
 21
289.482811914062
 72
 1
 10
34.6785625
 20
289.482811914062
 11
34.973828125
 21
289.432495507813
 72
 1
 10
34.973828125
 20
289.432495507813
 11
35.25175
 21
289.362093164063
 72
 1
 10
35.25175
 20
289.362093164063
 11
35.512328125
 21
289.271628320313
 72
 1
 10
35.512328125
 20
289.271628320313
 11
35.7555625
 21
289.161124414063
 72
 1
 10
35.7555625
 20
289.161124414063
 11
35.981453125
 21
289.030604882813
 72
 1
 10
35.981453125
 20
289.030604882813
 11
36.19
 21
288.880093164063
 72
 1
 10
36.19
 20
288.880093164063
 11
36.37769140625
 21
288.712938867188
 72
 1
 10
36.37769140625
 20
288.712938867188
 11
36.54028125
 21
288.531733789063
 72
 1
 10
36.54028125
 20
288.531733789063
 11
36.67779296875
 21
288.336489648438
 72
 1
 10
36.67779296875
 20
288.336489648438
 11
36.79025
 21
288.127218164063
 72
 1
 10
36.79025
 20
288.127218164063
 11
36.87767578125
 21
287.903931054688
 72
 1
 10
36.87767578125
 20
287.903931054688
 11
36.94009375
 21
287.666640039062
 72
 1
 10
36.94009375
 20
287.666640039062
 11
36.97752734375
 21
287.415356835938
 72
 1
 10
36.97752734375
 20
287.415356835938
 11
36.99
 21
287.150093164063
 72
 1
 10
36.99
 20
287.150093164063
 11
36.980634765625
 21
286.894712304688
 72
 1
 10
36.980634765625
 20
286.894712304688
 11
36.952578125
 21
286.652796289063
 72
 1
 10
36.952578125
 20
286.652796289063
 11
36.905888671875
 21
286.424309960938
 72
 1
 10
36.905888671875
 20
286.424309960938
 11
36.840625
 21
286.209218164063
 72
 1
 10
36.840625
 20
286.209218164063
 11
36.756845703125
 21
286.007485742188
 72
 1
 10
36.756845703125
 20
286.007485742188
 11
36.654609375
 21
285.819077539063
 72
 1
 10
36.654609375
 20
285.819077539063
 11
36.533974609375
 21
285.643958398438
 72
 1
 10
36.533974609375
 20
285.643958398438
 11
36.395
 21
285.482093164063
 72
 1
 10
36.395
 20
285.482093164063
 11
36.2385859375
 21
285.336229882813
 72
 1
 10
36.2385859375
 20
285.336229882813
 11
36.066375
 21
285.206936914063
 72
 1
 10
36.066375
 20
285.206936914063
 11
35.8784140625
 21
285.094284570313
 72
 1
 10
35.8784140625
 20
285.094284570313
 11
35.67475
 21
284.998343164062
 72
 1
 10
35.67475
 20
284.998343164062
 11
35.4554296875
 21
284.919183007813
 72
 1
 10
35.4554296875
 20
284.919183007813
 11
35.2205
 21
284.856874414063
 72
 1
 10
35.2205
 20
284.856874414063
 11
34.9700078125
 21
284.811487695313
 72
 1
 10
34.9700078125
 20
284.811487695313
 11
34.704
 21
284.783093164063
 72
 1
 10
34.704
 20
284.783093164063
 11
34.704
 21
285.685093164062
 72
 1
 10
34.704
 20
285.685093164062
 11
34.86182421875
 21
285.703282617187
 72
 1
 10
34.86182421875
 20
285.703282617187
 11
35.01053125
 21
285.731608789062
 72
 1
 10
35.01053125
 20
285.731608789062
 11
35.15009765625
 21
285.770083398438
 72
 1
 10
35.15009765625
 20
285.770083398438
 11
35.2805
 21
285.818718164062
 72
 1
 10
35.2805
 20
285.818718164062
 11
35.40171484375
 21
285.877524804687
 72
 1
 10
35.40171484375
 20
285.877524804687
 11
35.51371875
 21
285.946515039062
 72
 1
 10
35.51371875
 20
285.946515039062
 11
35.61648828125
 21
286.025700585938
 72
 1
 10
35.61648828125
 20
286.025700585938
 11
35.71
 21
286.115093164063
 72
 1
 10
35.71
 20
286.115093164063
 11
35.79296875
 21
286.213571679688
 72
 1
 10
35.79296875
 20
286.213571679688
 11
35.864875
 21
286.320733789063
 72
 1
 10
35.864875
 20
286.320733789063
 11
35.92571875
 21
286.436544335938
 72
 1
 10
35.92571875
 20
286.436544335938
 11
35.9755
 21
286.560968164063
 72
 1
 10
35.9755
 20
286.560968164063
 11
36.01421875
 21
286.693970117188
 72
 1
 10
36.01421875
 20
286.693970117188
 11
36.041875
 21
286.835515039063
 72
 1
 10
36.041875
 20
286.835515039063
 11
36.05846875
 21
286.985567773438
 72
 1
 10
36.05846875
 20
286.985567773438
 11
36.064
 21
287.144093164063
 72
 1
 10
36.064
 20
287.144093164063
 11
36.05584375
 21
287.302960351562
 72
 1
 10
36.05584375
 20
287.302960351562
 11
36.031375
 21
287.454093164063
 72
 1
 10
36.031375
 20
287.454093164063
 11
35.99059375
 21
287.597538476562
 72
 1
 10
35.99059375
 20
287.597538476562
 11
35.9335
 21
287.733343164062
 72
 1
 10
35.9335
 20
287.733343164062
 11
35.86009375
 21
287.861554101563
 72
 1
 10
35.86009375
 20
287.861554101563
 11
35.770375
 21
287.982218164062
 72
 1
 10
35.770375
 20
287.982218164062
 11
35.66434375
 21
288.095382226563
 72
 1
 10
35.66434375
 20
288.095382226563
 11
35.542
 21
288.201093164063
 72
 1
 10
35.542
 20
288.201093164063
 11
35.4068046875
 21
288.296431054688
 72
 1
 10
35.4068046875
 20
288.296431054688
 11
35.2621875
 21
288.379171289063
 72
 1
 10
35.2621875
 20
288.379171289063
 11
35.1081015625
 21
288.449278710938
 72
 1
 10
35.1081015625
 20
288.449278710938
 11
34.9445
 21
288.506718164063
 72
 1
 10
34.9445
 20
288.506718164063
 11
34.7713359375
 21
288.551454492188
 72
 1
 10
34.7713359375
 20
288.551454492188
 11
34.5885625
 21
288.583452539063
 72
 1
 10
34.5885625
 20
288.583452539063
 11
34.3961328125
 21
288.602677148438
 72
 1
 10
34.3961328125
 20
288.602677148438
 11
34.194
 21
288.609093164063
 72
 1
 10
34.194
 20
288.609093164063
 11
33.98526171875
 21
288.602677148438
 72
 1
 10
33.98526171875
 20
288.602677148438
 11
33.78653125
 21
288.583452539063
 72
 1
 10
33.78653125
 20
288.583452539063
 11
33.59778515625
 21
288.551454492188
 72
 1
 10
33.59778515625
 20
288.551454492188
 11
33.419
 21
288.506718164063
 72
 1
 10
33.419
 20
288.506718164063
 11
33.25015234375
 21
288.449278710938
 72
 1
 10
33.25015234375
 20
288.449278710938
 11
33.09121875
 21
288.379171289063
 72
 1
 10
33.09121875
 20
288.379171289063
 11
32.94217578125
 21
288.296431054688
 72
 1
 10
32.94217578125
 20
288.296431054688
 11
32.803
 21
288.201093164063
 72
 1
 10
32.803
 20
288.201093164063
 11
32.677140625
 21
288.095382226562
 72
 1
 10
32.677140625
 20
288.095382226562
 11
32.5680625
 21
287.982218164062
 72
 1
 10
32.5680625
 20
287.982218164062
 11
32.475765625
 21
287.861554101563
 72
 1
 10
32.475765625
 20
287.861554101563
 11
32.40025
 21
287.733343164062
 72
 1
 10
32.40025
 20
287.733343164062
 11
32.341515625
 21
287.597538476562
 72
 1
 10
32.341515625
 20
287.597538476562
 11
32.2995625
 21
287.454093164063
 72
 1
 10
32.2995625
 20
287.454093164063
 11
32.274390625
 21
287.302960351563
 72
 1
 10
32.274390625
 20
287.302960351563
 11
32.266
 21
287.144093164063
 72
 1
 10
32.266
 20
287.144093164063
 11
32.2697890625
 21
287.046073632813
 72
 1
 10
32.2697890625
 20
287.046073632813
 11
32.281125
 21
286.948499414063
 72
 1
 10
32.281125
 20
286.948499414063
 11
32.2999609375
 21
286.851347070313
 72
 1
 10
32.2999609375
 20
286.851347070313
 11
32.32625
 21
286.754593164063
 72
 1
 10
32.32625
 20
286.754593164063
 11
32.3599453125
 21
286.658214257812
 72
 1
 10
32.3599453125
 20
286.658214257812
 11
32.401
 21
286.562186914063
 72
 1
 10
32.401
 20
286.562186914063
 11
32.4493671875
 21
286.466487695313
 72
 1
 10
32.4493671875
 20
286.466487695313
 11
32.505
 21
286.371093164063
 72
 1
 10
32.505
 20
286.371093164063
 11
32.566083984375
 21
286.278282617188
 72
 1
 10
32.566083984375
 20
286.278282617188
 11
32.630859375
 21
286.191858789063
 72
 1
 10
32.630859375
 20
286.191858789063
 11
32.699361328125
 21
286.111833398438
 72
 1
 10
32.699361328125
 20
286.111833398438
 11
32.771625
 21
286.038218164063
 72
 1
 10
32.771625
 20
286.038218164063
 11
32.847685546875
 21
285.971024804687
 72
 1
 10
32.847685546875
 20
285.971024804687
 11
32.927578125
 21
285.910265039062
 72
 1
 10
32.927578125
 20
285.910265039062
 11
33.011337890625
 21
285.855950585938
 72
 1
 10
33.011337890625
 20
285.855950585938
 11
33.099
 21
285.808093164063
 72
 1
 10
33.099
 20
285.808093164063
 11
33.052
 21
285.064093164063
 72
 1
 10
33.052
 20
285.064093164063
 11
28.516
 21
285.603093164063
 72
 1
 10
28.516
 20
285.603093164063
 11
28.516
 21
289.171093164063
 72
 1
 10
28.516
 20
289.171093164063
 11
29.554
 21
289.171093164063
 72
 1
 10
29.554
 20
289.171093164063
 11
29.554
 21
286.238093164062
 72
 1
 10
29.554
 20
286.238093164062
 11
31.798
 21
285.962093164063
 72
 1
 10
31.798
 20
285.962093164063
 11
31.69108203125
 21
286.113776757813
 72
 1
 10
31.69108203125
 20
286.113776757813
 11
31.59834375
 21
286.269561914063
 72
 1
 10
31.59834375
 20
286.269561914063
 11
31.51980859375
 21
286.429425195313
 72
 1
 10
31.51980859375
 20
286.429425195313
 11
31.4555
 21
286.593343164063
 72
 1
 10
31.4555
 20
286.593343164063
 11
31.40544140625
 21
286.761292382813
 72
 1
 10
31.40544140625
 20
286.761292382813
 11
31.36965625
 21
286.933249414063
 72
 1
 10
31.36965625
 20
286.933249414063
 11
31.34816796875
 21
287.109190820313
 72
 1
 10
31.34816796875
 20
287.109190820313
 11
31.341
 21
287.289093164063
 72
 1
 10
31.341
 20
287.289093164063
 11
31.353052734375
 21
287.522716210938
 72
 1
 10
31.353052734375
 20
287.522716210938
 11
31.389234375
 21
287.746577539063
 72
 1
 10
31.389234375
 20
287.746577539063
 11
31.449580078125
 21
287.960665429688
 72
 1
 10
31.449580078125
 20
287.960665429688
 11
31.534125
 21
288.164968164063
 72
 1
 10
31.534125
 20
288.164968164063
 11
31.642904296875
 21
288.359474023438
 72
 1
 10
31.642904296875
 20
288.359474023438
 11
31.775953125
 21
288.544171289063
 72
 1
 10
31.775953125
 20
288.544171289063
 11
31.933306640625
 21
288.719048242188
 72
 1
 10
31.933306640625
 20
288.719048242188
 11
32.115
 21
288.884093164063
 72
 1
 10
32.115
 20
288.884093164063
 11
32.3129609375
 21
289.033858789062
 72
 1
 10
32.3129609375
 20
289.033858789062
 11
32.522875
 21
289.163655664063
 72
 1
 10
32.522875
 20
289.163655664063
 11
32.7447890625
 21
289.273483789063
 72
 1
 10
32.7447890625
 20
289.273483789063
 11
32.97875
 21
289.363343164062
 72
 1
 10
32.97875
 20
289.363343164062
 11
33.2248046875
 21
289.433233789063
 72
 1
 10
33.2248046875
 20
289.433233789063
 11
33.483
 21
289.483155664063
 72
 1
 10
33.483
 20
289.483155664063
 11
33.7533828125
 21
289.513108789063
 72
 1
 10
33.7533828125
 20
289.513108789063
 11
34.036
 21
289.523093164063
 97
 1
 330
93
 75
 0
 76
 1
 98
 1
 10
 0.0
 20
 0.0
 0
HATCH
 5
94
100
AcDbEntity
 8
Layer8
100
AcDbHatch
 10
 0.0
 20
 0.0
 30
 0.0
 210
 0.0
 220
 0.0
 230
 1.0
 2
SOLID
 70
 1
 71
 1
 91
1              
 92
 0
 93
23             
 72
 1
 10
57.1336
 20
111.528893164062
 11
55.4916
 21
111.528893164062
 72
 1
 10
55.4916
 20
111.528893164062
 11
55.4916
 21
112.344893164063
 72
 1
 10
55.4916
 20
112.344893164063
 11
55.71107265625
 21
112.357125585938
 72
 1
 10
55.71107265625
 20
112.357125585938
 11
55.91425625
 21
112.378815039062
 72
 1
 10
55.91425625
 20
112.378815039062
 11
56.10117421875
 21
112.409949804687
 72
 1
 10
56.10117421875
 20
112.409949804687
 11
56.27185
 21
112.450518164062
 72
 1
 10
56.27185
 20
112.450518164062
 11
56.42630703125
 21
112.500508398437
 72
 1
 10
56.42630703125
 20
112.500508398437
 11
56.56456875
 21
112.559908789062
 72
 1
 10
56.56456875
 20
112.559908789062
 11
56.68665859375
 21
112.628707617188
 72
 1
 10
56.68665859375
 20
112.628707617188
 11
56.7926
 21
112.706893164062
 72
 1
 10
56.7926
 20
112.706893164062
 11
56.88958828125
 21
112.800731054688
 72
 1
 10
56.88958828125
 20
112.800731054688
 11
56.97956875
 21
112.911971289063
 72
 1
 10
56.97956875
 20
112.911971289063
 11
57.06256484375
 21
113.040578710938
 72
 1
 10
57.06256484375
 20
113.040578710938
 11
57.1386
 21
113.186518164062
 72
 1
 10
57.1386
 20
113.186518164062
 11
57.20769765625
 21
113.349754492188
 72
 1
 10
57.20769765625
 20
113.349754492188
 11
57.26988125
 21
113.530252539063
 72
 1
 10
57.26988125
 20
113.530252539063
 11
57.32517421875
 21
113.727977148438
 72
 1
 10
57.32517421875
 20
113.727977148438
 11
57.3736
 21
113.942893164063
 72
 1
 10
57.3736
 20
113.942893164063
 11
58.0466
 21
113.942893164063
 72
 1
 10
58.0466
 20
113.942893164063
 11
58.0466
 21
105.522893164063
 72
 1
 10
58.0466
 20
105.522893164063
 11
57.5906
 21
105.522893164063
 72
 1
 10
57.5906
 20
105.522893164063
 11
57.1336
 21
105.522893164063
 72
 1
 10
57.1336
 20
105.522893164063
 11
57.1336
 21
111.528893164062
 97
 1
 330
95
 75
 0
 76
 1
 98
 1
 10
 0.0
 20
 0.0
 0
HATCH
 5
96
100
AcDbEntity
 8
Layer8
100
AcDbHatch
 10
 0.0
 20
 0.0
 30
 0.0
 210
 0.0
 220
 0.0
 230
 1.0
 2
SOLID
 70
 1
 71
 1
 91
1              
 92
 0
 93
133            
 72
 1
 10
64.9617
 20
111.464493164063
 11
64.955369921875
 21
111.238133789063
 72
 1
 10
64.955369921875
 20
111.238133789063
 11
64.936371875
 21
111.021055664062
 72
 1
 10
64.936371875
 20
111.021055664062
 11
64.904694140625
 21
110.813258789063
 72
 1
 10
64.904694140625
 20
110.813258789063
 11
64.860325
 21
110.614743164062
 72
 1
 10
64.860325
 20
110.614743164062
 11
64.803252734375
 21
110.425508789063
 72
 1
 10
64.803252734375
 20
110.425508789063
 11
64.733465625
 21
110.245555664062
 72
 1
 10
64.733465625
 20
110.245555664062
 11
64.650951953125
 21
110.074883789063
 72
 1
 10
64.650951953125
 20
110.074883789063
 11
64.5557
 21
109.913493164063
 72
 1
 10
64.5557
 20
109.913493164063
 11
64.443936328125
 21
109.756561523438
 72
 1
 10
64.443936328125
 20
109.756561523438
 11
64.314090625
 21
109.600040039062
 72
 1
 10
64.314090625
 20
109.600040039062
 11
64.166080859375
 21
109.443963867188
 72
 1
 10
64.166080859375
 20
109.443963867188
 11
63.999825
 21
109.288368164062
 72
 1
 10
63.999825
 20
109.288368164062
 11
63.815241015625
 21
109.133288085938
 72
 1
 10
63.815241015625
 20
109.133288085938
 11
63.612246875
 21
108.978758789063
 72
 1
 10
63.612246875
 20
108.978758789063
 11
63.390760546875
 21
108.824815429687
 72
 1
 10
63.390760546875
 20
108.824815429687
 11
63.1507
 21
108.671493164063
 72
 1
 10
63.1507
 20
108.671493164063
 11
62.861991015625
 21
108.488497070313
 72
 1
 10
62.861991015625
 20
108.488497070313
 11
62.596590625
 21
108.306274414063
 72
 1
 10
62.596590625
 20
108.306274414063
 11
62.354463671875
 21
108.124848632812
 72
 1
 10
62.354463671875
 20
108.124848632812
 11
62.135575
 21
107.944243164063
 72
 1
 10
62.135575
 20
107.944243164063
 11
61.939889453125
 21
107.764481445312
 72
 1
 10
61.939889453125
 20
107.764481445312
 11
61.767371875
 21
107.585586914063
 72
 1
 10
61.767371875
 20
107.585586914063
 11
61.617987109375
 21
107.407583007813
 72
 1
 10
61.617987109375
 20
107.407583007813
 11
61.4917
 21
107.230493164063
 72
 1
 10
61.4917
 20
107.230493164063
 11
61.442491015625
 21
107.148743164063
 72
 1
 10
61.442491015625
 20
107.148743164063
 11
61.396153125
 21
107.064743164063
 72
 1
 10
61.396153125
 20
107.064743164063
 11
61.352744921875
 21
106.978493164063
 72
 1
 10
61.352744921875
 20
106.978493164063
 11
61.312325
 21
106.889993164063
 72
 1
 10
61.312325
 20
106.889993164063
 11
61.274951953125
 21
106.799243164063
 72
 1
 10
61.274951953125
 20
106.799243164063
 11
61.240684375
 21
106.706243164063
 72
 1
 10
61.240684375
 20
106.706243164063
 11
61.209580859375
 21
106.610993164063
 72
 1
 10
61.209580859375
 20
106.610993164063
 11
61.1817
 21
106.513493164063
 72
 1
 10
61.1817
 20
106.513493164063
 11
64.9617
 21
106.513493164063
 72
 1
 10
64.9617
 20
106.513493164063
 11
64.9617
 21
105.523493164063
 72
 1
 10
64.9617
 20
105.523493164063
 11
60.2217
 21
105.523493164063
 72
 1
 10
60.2217
 20
105.523493164063
 11
60.2217
 21
105.525493164062
 72
 1
 10
60.2217
 20
105.525493164062
 11
60.230934375
 21
105.854081054688
 72
 1
 10
60.230934375
 20
105.854081054688
 11
60.2586375
 21
106.169321289063
 72
 1
 10
60.2586375
 20
106.169321289063
 11
60.304809375
 21
106.471178710937
 72
 1
 10
60.304809375
 20
106.471178710937
 11
60.36945
 21
106.759618164062
 72
 1
 10
60.36945
 20
106.759618164062
 11
60.452559375
 21
107.034604492188
 72
 1
 10
60.452559375
 20
107.034604492188
 11
60.5541375
 21
107.296102539063
 72
 1
 10
60.5541375
 20
107.296102539063
 11
60.674184375
 21
107.544077148438
 72
 1
 10
60.674184375
 20
107.544077148438
 11
60.8127
 21
107.778493164063
 72
 1
 10
60.8127
 20
107.778493164063
 11
60.974377734375
 21
108.006813476563
 72
 1
 10
60.974377734375
 20
108.006813476563
 11
61.162434375
 21
108.234243164062
 72
 1
 10
61.162434375
 20
108.234243164062
 11
61.376905078125
 21
108.460735351563
 72
 1
 10
61.376905078125
 20
108.460735351563
 11
61.617825
 21
108.686243164063
 72
 1
 10
61.617825
 20
108.686243164063
 11
61.885229296875
 21
108.910719726563
 72
 1
 10
61.885229296875
 20
108.910719726563
 11
62.179153125
 21
109.134118164063
 72
 1
 10
62.179153125
 20
109.134118164063
 11
62.499631640625
 21
109.356391601563
 72
 1
 10
62.499631640625
 20
109.356391601563
 11
62.8467
 21
109.577493164063
 72
 1
 10
62.8467
 20
109.577493164063
 11
63.004244921875
 21
109.678096679687
 72
 1
 10
63.004244921875
 20
109.678096679687
 11
63.149871875
 21
109.778946289063
 72
 1
 10
63.149871875
 20
109.778946289063
 11
63.283569140625
 21
109.880100585938
 72
 1
 10
63.283569140625
 20
109.880100585938
 11
63.405325
 21
109.981618164063
 72
 1
 10
63.405325
 20
109.981618164063
 11
63.515127734375
 21
110.083557617187
 72
 1
 10
63.515127734375
 20
110.083557617187
 11
63.612965625
 21
110.185977539063
 72
 1
 10
63.612965625
 20
110.185977539063
 11
63.698826953125
 21
110.288936523437
 72
 1
 10
63.698826953125
 20
110.288936523437
 11
63.7727
 21
110.392493164063
 72
 1
 10
63.7727
 20
110.392493164063
 11
63.835651171875
 21
110.500084960938
 72
 1
 10
63.835651171875
 20
110.500084960938
 11
63.890246875
 21
110.613665039063
 72
 1
 10
63.890246875
 20
110.613665039063
 11
63.936475390625
 21
110.733315429688
 72
 1
 10
63.936475390625
 20
110.733315429688
 11
63.974325
 21
110.859118164063
 72
 1
 10
63.974325
 20
110.859118164063
 11
64.003783984375
 21
110.991155273437
 72
 1
 10
64.003783984375
 20
110.991155273437
 11
64.024840625
 21
111.129508789062
 72
 1
 10
64.024840625
 20
111.129508789062
 11
64.037483203125
 21
111.274260742188
 72
 1
 10
64.037483203125
 20
111.274260742188
 11
64.0417
 21
111.425493164063
 72
 1
 10
64.0417
 20
111.425493164063
 11
64.035746875
 21
111.599635742188
 72
 1
 10
64.035746875
 20
111.599635742188
 11
64.0178875
 21
111.765071289063
 72
 1
 10
64.0178875
 20
111.765071289063
 11
63.988121875
 21
111.921811523438
 72
 1
 10
63.988121875
 20
111.921811523438
 11
63.94645
 21
112.069868164063
 72
 1
 10
63.94645
 20
112.069868164063
 11
63.892871875
 21
112.209252929687
 72
 1
 10
63.892871875
 20
112.209252929687
 11
63.8273875
 21
112.339977539062
 72
 1
 10
63.8273875
 20
112.339977539062
 11
63.749996875
 21
112.462053710937
 72
 1
 10
63.749996875
 20
112.462053710937
 11
63.6607
 21
112.575493164062
 72
 1
 10
63.6607
 20
112.575493164062
 11
63.56136015625
 21
112.677776367187
 72
 1
 10
63.56136015625
 20
112.677776367187
 11
63.45454375
 21
112.766383789063
 72
 1
 10
63.45454375
 20
112.766383789063
 11
63.34018046875
 21
112.841327148437
 72
 1
 10
63.34018046875
 20
112.841327148437
 11
63.2182
 21
112.902618164063
 72
 1
 10
63.2182
 20
112.902618164063
 11
63.08853203125
 21
112.950268554687
 72
 1
 10
63.08853203125
 20
112.950268554687
 11
62.95110625
 21
112.984290039062
 72
 1
 10
62.95110625
 20
112.984290039062
 11
62.80585234375
 21
113.004694335938
 72
 1
 10
62.80585234375
 20
113.004694335938
 11
62.6527
 21
113.011493164062
 72
 1
 10
62.6527
 20
113.011493164062
 11
62.494826953125
 21
113.003196289062
 72
 1
 10
62.494826953125
 20
113.003196289062
 11
62.345965625
 21
112.978305664062
 72
 1
 10
62.345965625
 20
112.978305664062
 11
62.206127734375
 21
112.936821289062
 72
 1
 10
62.206127734375
 20
112.936821289062
 11
62.075325
 21
112.878743164062
 72
 1
 10
62.075325
 20
112.878743164062
 11
61.953569140625
 21
112.804071289063
 72
 1
 10
61.953569140625
 20
112.804071289063
 11
61.840871875
 21
112.712805664063
 72
 1
 10
61.840871875
 20
112.712805664063
 11
61.737244921875
 21
112.604946289062
 72
 1
 10
61.737244921875
 20
112.604946289062
 11
61.6427
 21
112.480493164063
 72
 1
 10
61.6427
 20
112.480493164063
 11
61.558014453125
 21
112.340051757812
 72
 1
 10
61.558014453125
 20
112.340051757812
 11
61.484028125
 21
112.185711914062
 72
 1
 10
61.484028125
 20
112.185711914062
 11
61.420846484375
 21
112.017450195312
 72
 1
 10
61.420846484375
 20
112.017450195312
 11
61.368575
 21
111.835243164062
 72
 1
 10
61.368575
 20
111.835243164062
 11
61.327319140625
 21
111.639067382813
 72
 1
 10
61.327319140625
 20
111.639067382813
 11
61.297184375
 21
111.428899414062
 72
 1
 10
61.297184375
 20
111.428899414062
 11
61.278276171875
 21
111.204715820313
 72
 1
 10
61.278276171875
 20
111.204715820313
 11
61.2707
 21
110.966493164063
 72
 1
 10
61.2707
 20
110.966493164063
 11
60.4087
 21
110.966493164063
 72
 1
 10
60.4087
 20
110.966493164063
 11
60.423934375
 21
111.312905273438
 72
 1
 10
60.423934375
 20
111.312905273438
 11
60.4576375
 21
111.638915039063
 72
 1
 10
60.4576375
 20
111.638915039063
 11
60.509809375
 21
111.944557617188
 72
 1
 10
60.509809375
 20
111.944557617188
 11
60.58045
 21
112.229868164063
 72
 1
 10
60.58045
 20
112.229868164063
 11
60.669559375
 21
112.494881835937
 72
 1
 10
60.669559375
 20
112.494881835937
 11
60.7771375
 21
112.739633789062
 72
 1
 10
60.7771375
 20
112.739633789062
 11
60.903184375
 21
112.964159179688
 72
 1
 10
60.903184375
 20
112.964159179688
 11
61.0477
 21
113.168493164063
 72
 1
 10
61.0477
 20
113.168493164063
 11
61.209190234375
 21
113.350229492188
 72
 1
 10
61.209190234375
 20
113.350229492188
 11
61.386184375
 21
113.507696289063
 72
 1
 10
61.386184375
 20
113.507696289063
 11
61.578717578125
 21
113.640905273438
 72
 1
 10
61.578717578125
 20
113.640905273438
 11
61.786825
 21
113.749868164062
 72
 1
 10
61.786825
 20
113.749868164062
 11
62.010541796875
 21
113.834596679687
 72
 1
 10
62.010541796875
 20
113.834596679687
 11
62.249903125
 21
113.895102539062
 72
 1
 10
62.249903125
 20
113.895102539062
 11
62.504944140625
 21
113.931397460937
 72
 1
 10
62.504944140625
 20
113.931397460937
 11
62.7757
 21
113.943493164062
 72
 1
 10
62.7757
 20
113.943493164062
 11
63.015748828125
 21
113.932760742188
 72
 1
 10
63.015748828125
 20
113.932760742188
 11
63.243903125
 21
113.900571289062
 72
 1
 10
63.243903125
 20
113.900571289062
 11
63.460174609375
 21
113.846936523438
 72
 1
 10
63.460174609375
 20
113.846936523438
 11
63.664575
 21
113.771868164062
 72
 1
 10
63.664575
 20
113.771868164062
 11
63.857116015625
 21
113.675377929688
 72
 1
 10
63.857116015625
 20
113.675377929688
 11
64.037809375
 21
113.557477539062
 72
 1
 10
64.037809375
 20
113.557477539062
 11
64.206666796875
 21
113.418178710937
 72
 1
 10
64.206666796875
 20
113.418178710937
 11
64.3637
 21
113.257493164063
 72
 1
 10
64.3637
 20
113.257493164063
 11
64.503951953125
 21
113.081151367188
 72
 1
 10
64.503951953125
 20
113.081151367188
 11
64.625465625
 21
112.891133789063
 72
 1
 10
64.625465625
 20
112.891133789063
 11
64.728252734375
 21
112.687452148438
 72
 1
 10
64.728252734375
 20
112.687452148438
 11
64.812325
 21
112.470118164063
 72
 1
 10
64.812325
 20
112.470118164063
 11
64.877694140625
 21
112.239143554688
 72
 1
 10
64.877694140625
 20
112.239143554688
 11
64.924371875
 21
111.994540039063
 72
 1
 10
64.924371875
 20
111.994540039063
 11
64.952369921875
 21
111.736319335937
 72
 1
 10
64.952369921875
 20
111.736319335937
 11
64.9617
 21
111.464493164063
 97
 1
 330
97
 75
 0
 76
 1
 98
 1
 10
 0.0
 20
 0.0
 0
HATCH
 5
98
100
AcDbEntity
 8
Layer8
100
AcDbHatch
 10
 0.0
 20
 0.0
 30
 0.0
 210
 0.0
 220
 0.0
 230
 1.0
 2
SOLID
 70
 1
 71
 1
 91
1              
 92
 0
 93
23             
 72
 1
 10
103.1873
 20
111.528893164062
 11
101.5463
 21
111.528893164062
 72
 1
 10
101.5463
 20
111.528893164062
 11
101.5463
 21
112.344893164063
 72
 1
 10
101.5463
 20
112.344893164063
 11
101.76515546875
 21
112.357125585938
 72
 1
 10
101.76515546875
 20
112.357125585938
 11
101.96795625
 21
112.378815039062
 72
 1
 10
101.96795625
 20
112.378815039062
 11
102.15467890625
 21
112.409949804687
 72
 1
 10
102.15467890625
 20
112.409949804687
 11
102.3253
 21
112.450518164062
 72
 1
 10
102.3253
 20
112.450518164062
 11
102.47979609375
 21
112.500508398437
 72
 1
 10
102.47979609375
 20
112.500508398437
 11
102.61814375
 21
112.559908789062
 72
 1
 10
102.61814375
 20
112.559908789062
 11
102.74031953125
 21
112.628707617188
 72
 1
 10
102.74031953125
 20
112.628707617188
 11
102.8463
 21
112.706893164062
 72
 1
 10
102.8463
 20
112.706893164062
 11
102.94328828125
 21
112.800731054688
 72
 1
 10
102.94328828125
 20
112.800731054688
 11
103.03326875
 21
112.911971289063
 72
 1
 10
103.03326875
 20
112.911971289063
 11
103.11626484375
 21
113.040578710938
 72
 1
 10
103.11626484375
 20
113.040578710938
 11
103.1923
 21
113.186518164062
 72
 1
 10
103.1923
 20
113.186518164062
 11
103.26139765625
 21
113.349754492188
 72
 1
 10
103.26139765625
 20
113.349754492188
 11
103.32358125
 21
113.530252539063
 72
 1
 10
103.32358125
 20
113.530252539063
 11
103.37887421875
 21
113.727977148438
 72
 1
 10
103.37887421875
 20
113.727977148438
 11
103.4273
 21
113.942893164063
 72
 1
 10
103.4273
 20
113.942893164063
 11
104.1003
 21
113.942893164063
 72
 1
 10
104.1003
 20
113.942893164063
 11
104.1003
 21
105.522893164063
 72
 1
 10
104.1003
 20
105.522893164063
 11
103.6453
 21
105.522893164063
 72
 1
 10
103.6453
 20
105.522893164063
 11
103.1873
 21
105.522893164063
 72
 1
 10
103.1873
 20
105.522893164063
 11
103.1873
 21
111.528893164062
 97
 1
 330
99
 75
 0
 76
 1
 98
 1
 10
 0.0
 20
 0.0
 0
HATCH
 5
9A
100
AcDbEntity
 8
Layer8
100
AcDbHatch
 10
 0.0
 20
 0.0
 30
 0.0
 210
 0.0
 220
 0.0
 230
 1.0
 2
SOLID
 70
 1
 71
 1
 91
2              
 92
 0
 93
64             
 72
 1
 10
107.0008
 20
106.412693164062
 11
106.855583203125
 21
106.704529101562
 72
 1
 10
106.855583203125
 20
106.704529101562
 11
106.729690625
 21
107.025755664062
 72
 1
 10
106.729690625
 20
107.025755664062
 11
106.623133984375
 21
107.376325976563
 72
 1
 10
106.623133984375
 20
107.376325976563
 11
106.535925
 21
107.756193164062
 72
 1
 10
106.535925
 20
107.756193164062
 11
106.468075390625
 21
108.165310351562
 72
 1
 10
106.468075390625
 20
108.165310351562
 11
106.419596875
 21
108.603630664063
 72
 1
 10
106.419596875
 20
108.603630664063
 11
106.390501171875
 21
109.071107226562
 72
 1
 10
106.390501171875
 20
109.071107226562
 11
106.3808
 21
109.567693164063
 72
 1
 10
106.3808
 20
109.567693164063
 11
106.390501171875
 21
110.076991992187
 72
 1
 10
106.390501171875
 20
110.076991992187
 11
106.419596875
 21
110.556396289062
 72
 1
 10
106.419596875
 20
110.556396289062
 11
106.468075390625
 21
111.005917773437
 72
 1
 10
106.468075390625
 20
111.005917773437
 11
106.535925
 21
111.425568164063
 72
 1
 10
106.535925
 20
111.425568164063
 11
106.623133984375
 21
111.815359179688
 72
 1
 10
106.623133984375
 20
111.815359179688
 11
106.729690625
 21
112.175302539063
 72
 1
 10
106.729690625
 20
112.175302539063
 11
106.855583203125
 21
112.505409960937
 72
 1
 10
106.855583203125
 20
112.505409960937
 11
107.0008
 21
112.805693164063
 72
 1
 10
107.0008
 20
112.805693164063
 11
107.164196484375
 21
113.072177539063
 72
 1
 10
107.164196484375
 20
113.072177539063
 11
107.343846875
 21
113.303130664063
 72
 1
 10
107.343846875
 20
113.303130664063
 11
107.539692578125
 21
113.498552539062
 72
 1
 10
107.539692578125
 20
113.498552539062
 11
107.751675
 21
113.658443164063
 72
 1
 10
107.751675
 20
113.658443164063
 11
107.979735546875
 21
113.782802539062
 72
 1
 10
107.979735546875
 20
113.782802539062
 11
108.223815625
 21
113.871630664063
 72
 1
 10
108.223815625
 20
113.871630664063
 11
108.483856640625
 21
113.924927539062
 72
 1
 10
108.483856640625
 20
113.924927539062
 11
108.7598
 21
113.942693164063
 72
 1
 10
108.7598
 20
113.942693164063
 11
109.037305859375
 21
113.924927539063
 72
 1
 10
109.037305859375
 20
113.924927539063
 11
109.298346875
 21
113.871630664063
 72
 1
 10
109.298346875
 20
113.871630664063
 11
109.542958203125
 21
113.782802539063
 72
 1
 10
109.542958203125
 20
113.782802539063
 11
109.771175
 21
113.658443164062
 72
 1
 10
109.771175
 20
113.658443164062
 11
109.983032421875
 21
113.498552539062
 72
 1
 10
109.983032421875
 20
113.498552539062
 11
110.178565625
 21
113.303130664063
 72
 1
 10
110.178565625
 20
113.303130664063
 11
110.357809765625
 21
113.072177539062
 72
 1
 10
110.357809765625
 20
113.072177539062
 11
110.5208
 21
112.805693164063
 72
 1
 10
110.5208
 20
112.805693164063
 11
110.66621796875
 21
112.505409960938
 72
 1
 10
110.66621796875
 20
112.505409960938
 11
110.79201875
 21
112.175302539063
 72
 1
 10
110.79201875
 20
112.175302539063
 11
110.89827265625
 21
111.815359179688
 72
 1
 10
110.89827265625
 20
111.815359179688
 11
110.98505
 21
111.425568164063
 72
 1
 10
110.98505
 20
111.425568164063
 11
111.05242109375
 21
111.005917773438
 72
 1
 10
111.05242109375
 20
111.005917773438
 11
111.10045625
 21
110.556396289063
 72
 1
 10
111.10045625
 20
110.556396289063
 11
111.12922578125
 21
110.076991992188
 72
 1
 10
111.12922578125
 20
110.076991992188
 11
111.1388
 21
109.567693164063
 72
 1
 10
111.1388
 20
109.567693164063
 11
111.12922578125
 21
109.071107226563
 72
 1
 10
111.12922578125
 20
109.071107226563
 11
111.10045625
 21
108.603630664063
 72
 1
 10
111.10045625
 20
108.603630664063
 11
111.05242109375
 21
108.165310351562
 72
 1
 10
111.05242109375
 20
108.165310351562
 11
110.98505
 21
107.756193164062
 72
 1
 10
110.98505
 20
107.756193164062
 11
110.89827265625
 21
107.376325976563
 72
 1
 10
110.89827265625
 20
107.376325976563
 11
110.79201875
 21
107.025755664063
 72
 1
 10
110.79201875
 20
107.025755664063
 11
110.66621796875
 21
106.704529101562
 72
 1
 10
110.66621796875
 20
106.704529101562
 11
110.5208
 21
106.412693164062
 72
 1
 10
110.5208
 20
106.412693164062
 11
110.357809765625
 21
106.152249804687
 72
 1
 10
110.357809765625
 20
106.152249804687
 11
110.178565625
 21
105.926646289062
 72
 1
 10
110.178565625
 20
105.926646289062
 11
109.983032421875
 21
105.735847460937
 72
 1
 10
109.983032421875
 20
105.735847460937
 11
109.771175
 21
105.579818164062
 72
 1
 10
109.771175
 20
105.579818164062
 11
109.542958203125
 21
105.458523242187
 72
 1
 10
109.542958203125
 20
105.458523242187
 11
109.298346875
 21
105.371927539062
 72
 1
 10
109.298346875
 20
105.371927539062
 11
109.037305859375
 21
105.319995898437
 72
 1
 10
109.037305859375
 20
105.319995898437
 11
108.7598
 21
105.302693164062
 72
 1
 10
108.7598
 20
105.302693164062
 11
108.483856640625
 21
105.319995898437
 72
 1
 10
108.483856640625
 20
105.319995898437
 11
108.223815625
 21
105.371927539062
 72
 1
 10
108.223815625
 20
105.371927539062
 11
107.979735546875
 21
105.458523242187
 72
 1
 10
107.979735546875
 20
105.458523242187
 11
107.751675
 21
105.579818164062
 72
 1
 10
107.751675
 20
105.579818164062
 11
107.539692578125
 21
105.735847460937
 72
 1
 10
107.539692578125
 20
105.735847460937
 11
107.343846875
 21
105.926646289062
 72
 1
 10
107.343846875
 20
105.926646289062
 11
107.164196484375
 21
106.152249804687
 72
 1
 10
107.164196484375
 20
106.152249804687
 11
107.0008
 21
106.412693164062
 97
 1
 330
9B
 92
 0
 93
64             
 72
 1
 10
109.8458
 20
107.097693164062
 11
109.93439375
 21
107.325497851562
 72
 1
 10
109.93439375
 20
107.325497851562
 11
110.011175
 21
107.576880664063
 72
 1
 10
110.011175
 20
107.576880664063
 11
110.07614375
 21
107.851794726562
 72
 1
 10
110.07614375
 20
107.851794726562
 11
110.1293
 21
108.150193164063
 72
 1
 10
110.1293
 20
108.150193164063
 11
110.17064375
 21
108.472029101562
 72
 1
 10
110.17064375
 20
108.472029101562
 11
110.200175
 21
108.817255664062
 72
 1
 10
110.200175
 20
108.817255664062
 11
110.21789375
 21
109.185825976563
 72
 1
 10
110.21789375
 20
109.185825976563
 11
110.2238
 21
109.577693164063
 72
 1
 10
110.2238
 20
109.577693164063
 11
110.2194875
 21
109.996378710938
 72
 1
 10
110.2194875
 20
109.996378710938
 11
110.20355
 21
110.387677539063
 72
 1
 10
110.20355
 20
110.387677539063
 11
110.1759875
 21
110.751577929687
 72
 1
 10
110.1759875
 20
110.751577929687
 11
110.1368
 21
111.088068164063
 72
 1
 10
110.1368
 20
111.088068164063
 11
110.0859875
 21
111.397136523438
 72
 1
 10
110.0859875
 20
111.397136523438
 11
110.02355
 21
111.678771289062
 72
 1
 10
110.02355
 20
111.678771289062
 11
109.9494875
 21
111.932960742188
 72
 1
 10
109.9494875
 20
111.932960742188
 11
109.8638
 21
112.159693164063
 72
 1
 10
109.8638
 20
112.159693164063
 11
109.767020703125
 21
112.359667773438
 72
 1
 10
109.767020703125
 20
112.359667773438
 11
109.658253125
 21
112.532865039062
 72
 1
 10
109.658253125
 20
112.532865039062
 11
109.537602734375
 21
112.679320117188
 72
 1
 10
109.537602734375
 20
112.679320117188
 11
109.405175
 21
112.799068164063
 72
 1
 10
109.405175
 20
112.799068164063
 11
109.261075390625
 21
112.892144335938
 72
 1
 10
109.261075390625
 20
112.892144335938
 11
109.105409375
 21
112.958583789063
 72
 1
 10
109.105409375
 20
112.958583789063
 11
108.938282421875
 21
112.998421679688
 72
 1
 10
108.938282421875
 20
112.998421679688
 11
108.7598
 21
113.011693164063
 72
 1
 10
108.7598
 20
113.011693164063
 11
108.582192578125
 21
112.998421679688
 72
 1
 10
108.582192578125
 20
112.998421679688
 11
108.416128125
 21
112.958583789063
 72
 1
 10
108.416128125
 20
112.958583789063
 11
108.261618359375
 21
112.892144335938
 72
 1
 10
108.261618359375
 20
112.892144335938
 11
108.118675
 21
112.799068164063
 72
 1
 10
108.118675
 20
112.799068164063
 11
107.987309765625
 21
112.679320117188
 72
 1
 10
107.987309765625
 20
112.679320117188
 11
107.867534375
 21
112.532865039063
 72
 1
 10
107.867534375
 20
112.532865039063
 11
107.759360546875
 21
112.359667773438
 72
 1
 10
107.759360546875
 20
112.359667773438
 11
107.6628
 21
112.159693164063
 72
 1
 10
107.6628
 20
112.159693164063
 11
107.57795625
 21
111.932960742188
 72
 1
 10
107.57795625
 20
111.932960742188
 11
107.504175
 21
111.678771289063
 72
 1
 10
107.504175
 20
111.678771289063
 11
107.44145625
 21
111.397136523438
 72
 1
 10
107.44145625
 20
111.397136523438
 11
107.3898
 21
111.088068164063
 72
 1
 10
107.3898
 20
111.088068164063
 11
107.34920625
 21
110.751577929687
 72
 1
 10
107.34920625
 20
110.751577929687
 11
107.319675
 21
110.387677539063
 72
 1
 10
107.319675
 20
110.387677539063
 11
107.30120625
 21
109.996378710938
 72
 1
 10
107.30120625
 20
109.996378710938
 11
107.2938
 21
109.577693164063
 72
 1
 10
107.2938
 20
109.577693164063
 11
107.299794140625
 21
109.185825976563
 72
 1
 10
107.299794140625
 20
109.185825976563
 11
107.317753125
 21
108.817255664062
 72
 1
 10
107.317753125
 20
108.817255664062
 11
107.347641796875
 21
108.472029101563
 72
 1
 10
107.347641796875
 20
108.472029101563
 11
107.389425
 21
108.150193164063
 72
 1
 10
107.389425
 20
108.150193164063
 11
107.443067578125
 21
107.851794726563
 72
 1
 10
107.443067578125
 20
107.851794726563
 11
107.508534375
 21
107.576880664062
 72
 1
 10
107.508534375
 20
107.576880664062
 11
107.585790234375
 21
107.325497851562
 72
 1
 10
107.585790234375
 20
107.325497851562
 11
107.6748
 21
107.097693164062
 72
 1
 10
107.6748
 20
107.097693164062
 11
107.77564375
 21
106.894906054687
 72
 1
 10
107.77564375
 20
106.894906054687
 11
107.8862375
 21
106.719271289062
 72
 1
 10
107.8862375
 20
106.719271289062
 11
108.006675
 21
106.570753710937
 72
 1
 10
108.006675
 20
106.570753710937
 11
108.13705
 21
106.449318164063
 72
 1
 10
108.13705
 20
106.449318164063
 11
108.27745625
 21
106.354929492187
 72
 1
 10
108.27745625
 20
106.354929492187
 11
108.4279875
 21
106.287552539063
 72
 1
 10
108.4279875
 20
106.287552539063
 11
108.5887375
 21
106.247152148438
 72
 1
 10
108.5887375
 20
106.247152148438
 11
108.7598
 21
106.233693164063
 72
 1
 10
108.7598
 20
106.233693164063
 11
108.93172578125
 21
106.247152148438
 72
 1
 10
108.93172578125
 20
106.247152148438
 11
109.09345625
 21
106.287552539063
 72
 1
 10
109.09345625
 20
106.287552539063
 11
109.24492109375
 21
106.354929492187
 72
 1
 10
109.24492109375
 20
106.354929492187
 11
109.38605
 21
106.449318164063
 72
 1
 10
109.38605
 20
106.449318164063
 11
109.51677265625
 21
106.570753710938
 72
 1
 10
109.51677265625
 20
106.570753710938
 11
109.63701875
 21
106.719271289063
 72
 1
 10
109.63701875
 20
106.719271289063
 11
109.74671796875
 21
106.894906054688
 72
 1
 10
109.74671796875
 20
106.894906054688
 11
109.8458
 21
107.097693164062
 97
 1
 330
9C
 75
 0
 76
 1
 98
 1
 10
 0.0
 20
 0.0
 0
LWPOLYLINE
 5
9D
100
AcDbEntity
 8
Layer8
100
AcDbPolyline
 39
0.25
 370
106
 90
5              
 70
 1
 43
0.0
 10
51.4315
 20
143.947893164063
 10
69.2685
 20
143.947893164063
 10
68.7835
 20
162.181893164063
 10
51.9145
 20
162.181893164063
 10
51.4315
 20
143.947893164063
 0
LWPOLYLINE
 5
9E
100
AcDbEntity
 8
Layer8
100
AcDbPolyline
 39
0.25
 370
106
 90
5              
 70
 1
 43
0.0
 10
68.7835
 20
142.485893164063
 10
51.9155
 20
142.485893164063
 10
51.9155
 20
143.865893164063
 10
68.7835
 20
143.865893164063
 10
68.7835
 20
142.485893164063
 0
LWPOLYLINE
 5
9F
100
AcDbEntity
 8
Layer8
100
AcDbPolyline
 39
0.25
 370
106
 90
5              
 70
 1
 43
0.0
 10
114.3485
 20
423.742893164062
 10
100.5505
 20
423.742893164062
 10
100.5505
 20
163.030893164062
 10
114.3485
 20
163.030893164062
 10
114.3485
 20
423.742893164062
 0
LWPOLYLINE
 5
A0
100
AcDbEntity
 8
Layer8
100
AcDbPolyline
 39
0.25
 370
106
 90
5              
 70
 1
 43
0.0
 10
114.3485
 20
423.742893164062
 10
100.5505
 20
423.742893164062
 10
100.5505
 20
425.526893164062
 10
114.3485
 20
425.526893164062
 10
114.3485
 20
423.742893164062
 0
LWPOLYLINE
 5
A1
100
AcDbEntity
 8
Layer8
100
AcDbPolyline
 39
0.25
 370
106
 90
5              
 70
 1
 43
0.0
 10
100.0535
 20
143.940893164062
 10
100.5505
 20
163.031893164062
 10
114.3485
 20
163.031893164062
 10
114.8415
 20
143.930893164062
 10
100.0535
 20
143.940893164062
 0
LWPOLYLINE
 5
A2
100
AcDbEntity
 8
Layer8
100
AcDbPolyline
 39
0.25
 370
106
 90
5              
 70
 1
 43
0.0
 10
114.7855
 20
142.485893164063
 10
100.1115
 20
142.485893164063
 10
100.1115
 20
143.940893164062
 10
114.7855
 20
143.940893164062
 10
114.7855
 20
142.485893164063
 0
LWPOLYLINE
 5
A3
100
AcDbEntity
 8
Layer8
100
AcDbPolyline
 39
0.25
 370
106
 90
5              
 70
 1
 43
0.0
 10
115.1855
 20
72.4428931640625
 10
100.3975
 20
72.4428931640625
 10
100.3975
 20
90.2788931640625
 10
115.1855
 20
90.2788931640625
 10
115.1855
 20
72.4428931640625
 0
CIRCLE
 5
A4
100
AcDbEntity
 8
Layer8
100
AcDbCircle
 39
0.25
 370
106
 10
113.619
 20
73.9993931640625
 30
0.0
 40
0.228499999999997
 370
106
 0
CIRCLE
 5
A5
100
AcDbEntity
 8
Layer8
100
AcDbCircle
 39
0.25
 370
106
 10
101.967
 20
73.9993931640625
 30
0.0
 40
0.228999999999999
 370
106
 0
CIRCLE
 5
A6
100
AcDbEntity
 8
Layer8
100
AcDbCircle
 39
0.25
 370
106
 10
113.619
 20
88.7188931640625
 30
0.0
 40
0.229250000000008
 370
106
 0
CIRCLE
 5
A7
100
AcDbEntity
 8
Layer8
100
AcDbCircle
 39
0.25
 370
106
 10
101.967
 20
88.7188931640625
 30
0.0
 40
0.22975000000001
 370
106
 0
LINE
 5
A8
100
AcDbEntity
 8
Layer8
100
AcDbLine
 39
0.25
 370
106
 10
35.9813
 20
142.544593164063
 30
0.0
 11
29.8113
 21
142.544593164063
 31
0.0
 0
LWPOLYLINE
 5
A9
100
AcDbEntity
 8
Layer8
100
AcDbPolyline
 39
0.25
 370
106
 90
5              
 70
 1
 43
0.0
 10
65.7795
 20
162.181893164063
 10
68.7835
 20
162.181893164063
 10
68.7835
 20
424.302893164062
 10
65.7795
 20
424.302893164062
 10
65.7795
 20
162.181893164063
 0
HATCH
 5
AA
100
AcDbEntity
 8
Layer22
100
AcDbHatch
 10
 0.0
 20
 0.0
 30
 0.0
 210
 0.0
 220
 0.0
 230
 1.0
 2
SOLID
 70
 1
 71
 1
 91
1              
 92
 0
 93
42             
 72
 1
 10
30.7598
 20
16.3947931640625
 11
34.7978
 21
16.3947931640625
 72
 1
 10
34.7978
 20
16.3947931640625
 11
34.6768
 21
25.2757931640625
 72
 1
 10
34.6768
 20
25.2757931640625
 11
34.665688671875
 21
25.9575841796875
 72
 1
 10
34.665688671875
 20
25.9575841796875
 11
34.653159375
 21
26.6894962890625
 72
 1
 10
34.653159375
 20
26.6894962890625
 11
34.637794140625
 21
27.4543380859375
 72
 1
 10
34.637794140625
 20
27.4543380859375
 11
34.618175
 21
28.2349181640625
 72
 1
 10
34.618175
 20
28.2349181640625
 11
34.592883984375
 21
29.0140451171875
 72
 1
 10
34.592883984375
 20
29.0140451171875
 11
34.560503125
 21
29.7745275390625
 72
 1
 10
34.560503125
 20
29.7745275390625
 11
34.519614453125
 21
30.4991740234375
 72
 1
 10
34.519614453125
 20
30.4991740234375
 11
34.4688
 21
31.1707931640625
 72
 1
 10
34.4688
 20
31.1707931640625
 11
34.6546359375
 21
30.6149591796875
 72
 1
 10
34.6546359375
 20
30.6149591796875
 11
34.9122375
 21
29.9281212890625
 72
 1
 10
34.9122375
 20
29.9281212890625
 11
35.2293703125
 21
29.1334005859375
 72
 1
 10
35.2293703125
 20
29.1334005859375
 11
35.5938
 21
28.2539181640625
 72
 1
 10
35.5938
 20
28.2539181640625
 11
35.9932921875
 21
27.3127951171875
 72
 1
 10
35.9932921875
 20
27.3127951171875
 11
36.4156125
 21
26.3331525390624
 72
 1
 10
36.4156125
 20
26.3331525390624
 11
36.8485265625
 21
25.3381115234375
 72
 1
 10
36.8485265625
 20
25.3381115234375
 11
37.2798
 21
24.3507931640625
 72
 1
 10
37.2798
 20
24.3507931640625
 11
40.8398
 21
16.3947931640625
 72
 1
 10
40.8398
 20
16.3947931640625
 11
45.2058
 21
16.3947931640625
 72
 1
 10
45.2058
 20
16.3947931640625
 11
45.2058
 21
37.1807931640625
 72
 1
 10
45.2058
 20
37.1807931640625
 11
41.2278
 21
37.1807931640625
 72
 1
 10
41.2278
 20
37.1807931640625
 11
41.3178
 21
28.6867931640625
 72
 1
 10
41.3178
 20
28.6867931640625
 11
41.334149609375
 21
28.0955099609375
 72
 1
 10
41.334149609375
 20
28.0955099609375
 11
41.360471875
 21
27.4157150390625
 72
 1
 10
41.360471875
 20
27.4157150390625
 11
41.395301953125
 21
26.6741154296875
 72
 1
 10
41.395301953125
 20
26.6741154296875
 11
41.437175
 21
25.8974181640625
 72
 1
 10
41.437175
 20
25.8974181640625
 11
41.484626171875
 21
25.1123302734375
 72
 1
 10
41.484626171875
 20
25.1123302734375
 11
41.536190625
 21
24.3455587890625
 72
 1
 10
41.536190625
 20
24.3455587890625
 11
41.590403515625
 21
23.6238107421875
 72
 1
 10
41.590403515625
 20
23.6238107421875
 11
41.6458
 21
22.9737931640625
 72
 1
 10
41.6458
 20
22.9737931640625
 11
41.4711046875
 21
23.5654298828125
 72
 1
 10
41.4711046875
 20
23.5654298828125
 11
41.261675
 21
24.2139494140625
 72
 1
 10
41.261675
 20
24.2139494140625
 11
41.0192453125
 21
24.9116408203125
 72
 1
 10
41.0192453125
 20
24.9116408203125
 11
40.74555
 21
25.6507931640625
 72
 1
 10
40.74555
 20
25.6507931640625
 11
40.4423234375
 21
26.4236955078125
 72
 1
 10
40.4423234375
 20
26.4236955078125
 11
40.1113
 21
27.2226369140625
 72
 1
 10
40.1113
 20
27.2226369140625
 11
39.7542140625
 21
28.0399064453125
 72
 1
 10
39.7542140625
 20
28.0399064453125
 11
39.3728
 21
28.8677931640625
 72
 1
 10
39.3728
 20
28.8677931640625
 11
35.3968
 21
37.1807931640625
 72
 1
 10
35.3968
 20
37.1807931640625
 11
30.7598
 21
37.1807931640625
 72
 1
 10
30.7598
 20
37.1807931640625
 11
30.7598
 21
16.3947931640625
 97
 1
 330
AB
 75
 0
 76
 1
 98
 1
 10
 0.0
 20
 0.0
 0
HATCH
 5
AC
100
AcDbEntity
 8
Layer22
100
AcDbHatch
 10
 0.0
 20
 0.0
 30
 0.0
 210
 0.0
 220
 0.0
 230
 1.0
 2
SOLID
 70
 1
 71
 1
 91
1              
 92
 0
 93
12             
 72
 1
 10
47.714
 20
37.1811931640625
 11
47.714
 21
16.3951931640625
 72
 1
 10
47.714
 20
16.3951931640625
 11
59.828
 21
16.3951931640625
 72
 1
 10
59.828
 20
16.3951931640625
 11
59.828
 21
19.9841931640625
 72
 1
 10
59.828
 20
19.9841931640625
 11
51.963
 21
19.9841931640625
 72
 1
 10
51.963
 20
19.9841931640625
 11
51.963
 21
25.5461931640625
 72
 1
 10
51.963
 20
25.5461931640625
 11
57.853
 21
25.5461931640625
 72
 1
 10
57.853
 20
25.5461931640625
 11
57.853
 21
28.9571931640625
 72
 1
 10
57.853
 20
28.9571931640625
 11
51.901
 21
28.9571931640625
 72
 1
 10
51.901
 20
28.9571931640625
 11
51.901
 21
33.7711931640625
 72
 1
 10
51.901
 20
33.7711931640625
 11
59.019
 21
33.7711931640625
 72
 1
 10
59.019
 20
33.7711931640625
 11
59.558
 21
37.1811931640625
 72
 1
 10
59.558
 20
37.1811931640625
 11
47.714
 21
37.1811931640625
 97
 1
 330
AD
 75
 0
 76
 1
 98
 1
 10
 0.0
 20
 0.0
 0
HATCH
 5
AE
100
AcDbEntity
 8
Layer22
100
AcDbHatch
 10
 0.0
 20
 0.0
 30
 0.0
 210
 0.0
 220
 0.0
 230
 1.0
 2
SOLID
 70
 1
 71
 1
 91
1              
 92
 0
 93
49             
 72
 1
 10
61.3814
 20
16.3947931640625
 11
65.5984
 21
16.3947931640625
 72
 1
 10
65.5984
 20
16.3947931640625
 11
66.3154
 21
27.2517931640625
 72
 1
 10
66.3154
 20
27.2517931640625
 11
66.347398046875
 21
27.7284865234375
 72
 1
 10
66.347398046875
 20
27.7284865234375
 11
66.376384375
 21
28.1962150390625
 72
 1
 10
66.376384375
 20
28.1962150390625
 11
66.401972265625
 21
28.6570763671875
 72
 1
 10
66.401972265625
 20
28.6570763671875
 11
66.423775
 21
29.1131681640625
 72
 1
 10
66.423775
 20
29.1131681640625
 11
66.441405859375
 21
29.5665880859375
 72
 1
 10
66.441405859375
 20
29.5665880859375
 11
66.454478125
 21
30.0194337890625
 72
 1
 10
66.454478125
 20
30.0194337890625
 11
66.462605078125
 21
30.4738029296875
 72
 1
 10
66.462605078125
 20
30.4738029296875
 11
66.4654
 21
30.9317931640625
 72
 1
 10
66.4654
 20
30.9317931640625
 11
70.2644
 21
16.3947931640625
 72
 1
 10
70.2644
 20
16.3947931640625
 11
73.9434
 21
16.3947931640625
 72
 1
 10
73.9434
 20
16.3947931640625
 11
75.197503515625
 21
20.7607638671875
 72
 1
 10
75.197503515625
 20
20.7607638671875
 11
76.142853125
 21
24.0563087890625
 72
 1
 10
76.142853125
 20
24.0563087890625
 11
76.826757421875
 21
26.4503771484375
 72
 1
 10
76.826757421875
 20
26.4503771484375
 11
77.296525
 21
28.1119181640624
 72
 1
 10
77.296525
 20
28.1119181640624
 11
77.599464453125
 21
29.2098810546875
 72
 1
 10
77.599464453125
 20
29.2098810546875
 11
77.782884375
 21
29.9132150390625
 72
 1
 10
77.782884375
 20
29.9132150390625
 11
77.894093359375
 21
30.3908693359376
 72
 1
 10
77.894093359375
 20
30.3908693359376
 11
77.9804
 21
30.8117931640625
 72
 1
 10
77.9804
 20
30.8117931640625
 11
78.02152109375
 21
29.8741955078125
 72
 1
 10
78.02152109375
 20
29.8741955078125
 11
78.12993125
 21
28.0916994140625
 72
 1
 10
78.12993125
 20
28.0916994140625
 11
78.28320078125
 21
25.7632501953125
 72
 1
 10
78.28320078125
 20
25.7632501953125
 11
78.4589
 21
23.1877931640626
 72
 1
 10
78.4589
 20
23.1877931640626
 11
78.63459921875
 21
20.6642736328125
 72
 1
 10
78.63459921875
 20
20.6642736328125
 11
78.78786875
 21
18.4916369140625
 72
 1
 10
78.78786875
 20
18.4916369140625
 11
78.89627890625
 21
16.9688283203125
 72
 1
 10
78.89627890625
 20
16.9688283203125
 11
78.9374
 21
16.3947931640625
 72
 1
 10
78.9374
 20
16.3947931640625
 11
83.0654
 21
16.3947931640625
 72
 1
 10
83.0654
 20
16.3947931640625
 11
81.2114
 21
37.1807931640625
 72
 1
 10
81.2114
 20
37.1807931640625
 11
75.7374
 21
37.1807931640625
 72
 1
 10
75.7374
 20
37.1807931640625
 11
74.631562109375
 21
33.0520509765625
 72
 1
 10
74.631562109375
 20
33.0520509765625
 11
73.798009375
 21
29.9362306640625
 72
 1
 10
73.798009375
 20
29.9362306640625
 11
73.195058203125
 21
27.6741916015625
 72
 1
 10
73.195058203125
 20
27.6741916015625
 11
72.781025
 21
26.1067931640625
 72
 1
 10
72.781025
 20
26.1067931640625
 11
72.514226171875
 21
25.0748947265625
 72
 1
 10
72.514226171875
 20
25.0748947265625
 11
72.352978125
 21
24.4193556640625
 72
 1
 10
72.352978125
 20
24.4193556640625
 11
72.255597265625
 21
23.9810353515625
 72
 1
 10
72.255597265625
 20
23.9810353515625
 11
72.1804
 21
23.6007931640625
 72
 1
 10
72.1804
 20
23.6007931640625
 11
71.980534765625
 21
24.4938126953125
 72
 1
 10
71.980534765625
 20
24.4938126953125
 11
71.566228125
 21
26.1774494140625
 72
 1
 10
71.566228125
 20
26.1774494140625
 11
71.011788671875
 21
28.3713205078125
 72
 1
 10
71.011788671875
 20
28.3713205078125
 11
70.391525
 21
30.7950431640625
 72
 1
 10
70.391525
 20
30.7950431640625
 11
69.779745703125
 21
33.1682345703126
 72
 1
 10
69.779745703125
 20
33.1682345703126
 11
69.250759375
 21
35.2105119140625
 72
 1
 10
69.250759375
 20
35.2105119140625
 11
68.878874609375
 21
36.6414923828125
 72
 1
 10
68.878874609375
 20
36.6414923828125
 11
68.7384
 21
37.1807931640625
 72
 1
 10
68.7384
 20
37.1807931640625
 11
63.3264
 21
37.1807931640625
 72
 1
 10
63.3264
 20
37.1807931640625
 11
61.3814
 21
16.3947931640625
 97
 1
 330
AF
 75
 0
 76
 1
 98
 1
 10
 0.0
 20
 0.0
 0
HATCH
 5
B0
100
AcDbEntity
 8
Layer22
100
AcDbHatch
 10
 0.0
 20
 0.0
 30
 0.0
 210
 0.0
 220
 0.0
 230
 1.0
 2
SOLID
 70
 1
 71
 1
 91
2              
 92
 0
 93
56             
 72
 1
 10
96.9543
 20
31.5890931640625
 11
97.079872265625
 21
31.1341751953125
 72
 1
 10
97.079872265625
 20
31.1341751953125
 11
97.188815625
 21
30.6428119140625
 72
 1
 10
97.188815625
 20
30.6428119140625
 11
97.281094921875
 21
30.1122142578125
 72
 1
 10
97.281094921875
 20
30.1122142578125
 11
97.356675
 21
29.5395931640625
 72
 1
 10
97.356675
 20
29.5395931640625
 11
97.415520703125
 21
28.9221595703125
 72
 1
 10
97.415520703125
 20
28.9221595703125
 11
97.457596875
 21
28.2571244140626
 72
 1
 10
97.457596875
 20
28.2571244140626
 11
97.482868359375
 21
27.5416986328125
 72
 1
 10
97.482868359375
 20
27.5416986328125
 11
97.4913
 21
26.7730931640625
 72
 1
 10
97.4913
 20
26.7730931640625
 11
97.432997265625
 21
24.9311869140625
 72
 1
 10
97.432997265625
 20
24.9311869140625
 11
97.254565625
 21
23.3677181640625
 72
 1
 10
97.254565625
 20
23.3677181640625
 11
96.950719921875
 21
22.0725619140625
 72
 1
 10
96.950719921875
 20
22.0725619140625
 11
96.516175
 21
21.0355931640625
 72
 1
 10
96.516175
 20
21.0355931640625
 11
95.945645703125
 21
20.2466869140625
 72
 1
 10
95.945645703125
 20
20.2466869140625
 11
95.233846875
 21
19.6957181640625
 72
 1
 10
95.233846875
 20
19.6957181640625
 11
94.375493359375
 21
19.3725619140624
 72
 1
 10
94.375493359375
 20
19.3725619140624
 11
93.3653
 21
19.2670931640625
 72
 1
 10
93.3653
 20
19.2670931640625
 11
93.00193671875
 21
19.2782572265625
 72
 1
 10
93.00193671875
 20
19.2782572265625
 11
92.65308125
 21
19.3117806640625
 72
 1
 10
92.65308125
 20
19.3117806640625
 11
92.31908515625
 21
19.3677103515624
 72
 1
 10
92.31908515625
 20
19.3677103515624
 11
92.0003
 21
19.4460931640625
 72
 1
 10
92.0003
 20
19.4460931640625
 11
91.69707734375
 21
19.5469759765625
 72
 1
 10
91.69707734375
 20
19.5469759765625
 11
91.40976875
 21
19.6704056640625
 72
 1
 10
91.40976875
 20
19.6704056640625
 11
91.13872578125
 21
19.8164291015624
 72
 1
 10
91.13872578125
 20
19.8164291015624
 11
90.8843
 21
19.9850931640625
 72
 1
 10
90.8843
 20
19.9850931640625
 11
90.451649609375
 21
20.3925599609374
 72
 1
 10
90.451649609375
 20
20.3925599609374
 11
90.075659375
 21
20.9218900390625
 72
 1
 10
90.075659375
 20
20.9218900390625
 11
89.756645703125
 21
21.5741029296875
 72
 1
 10
89.756645703125
 20
21.5741029296875
 11
89.494925
 21
22.3502181640625
 72
 1
 10
89.494925
 20
22.3502181640625
 11
89.290813671875
 21
23.2512552734375
 72
 1
 10
89.290813671875
 20
23.2512552734375
 11
89.144628125
 21
24.2782337890625
 72
 1
 10
89.144628125
 20
24.2782337890625
 11
89.056684765625
 21
25.4321732421875
 72
 1
 10
89.056684765625
 20
25.4321732421875
 11
89.0273
 21
26.7140931640625
 72
 1
 10
89.0273
 20
26.7140931640625
 11
89.0428390625
 21
27.6242123046875
 72
 1
 10
89.0428390625
 20
27.6242123046875
 11
89.089925
 21
28.4722337890625
 72
 1
 10
89.089925
 20
28.4722337890625
 11
89.1692609375
 21
29.2606537109375
 72
 1
 10
89.1692609375
 20
29.2606537109375
 11
89.28155
 21
29.9919681640625
 72
 1
 10
89.28155
 20
29.9919681640625
 11
89.4274953125
 21
30.6686732421875
 72
 1
 10
89.4274953125
 20
30.6686732421875
 11
89.6078
 21
31.2932650390625
 72
 1
 10
89.6078
 20
31.2932650390625
 11
89.8231671875
 21
31.8682396484376
 72
 1
 10
89.8231671875
 20
31.8682396484376
 11
90.0743
 21
32.3960931640625
 72
 1
 10
90.0743
 20
32.3960931640625
 11
90.31882734375
 21
32.7920111328125
 72
 1
 10
90.31882734375
 20
32.7920111328125
 11
90.62145625
 21
33.1476869140625
 72
 1
 10
90.62145625
 20
33.1476869140625
 11
90.97588203125
 21
33.4592533203125
 72
 1
 10
90.97588203125
 20
33.4592533203125
 11
91.3758
 21
33.7228431640626
 72
 1
 10
91.3758
 20
33.7228431640626
 11
91.81490546875
 21
33.9345892578125
 72
 1
 10
91.81490546875
 20
33.9345892578125
 11
92.28689375
 21
34.0906244140625
 72
 1
 10
92.28689375
 20
34.0906244140625
 11
92.78546015625
 21
34.1870814453126
 72
 1
 10
92.78546015625
 20
34.1870814453126
 11
93.3043
 21
34.2200931640625
 72
 1
 10
93.3043
 20
34.2200931640625
 11
94.083630078125
 21
34.1500267578125
 72
 1
 10
94.083630078125
 20
34.1500267578125
 11
94.762940625
 21
33.9563744140625
 72
 1
 10
94.762940625
 20
33.9563744140625
 11
95.346087109375
 21
33.6639564453125
 72
 1
 10
95.346087109375
 20
33.6639564453125
 11
95.836925
 21
33.2975931640625
 72
 1
 10
95.836925
 20
33.2975931640625
 11
96.239309765625
 21
32.8821048828125
 72
 1
 10
96.239309765625
 20
32.8821048828125
 11
96.557096875
 21
32.4423119140625
 72
 1
 10
96.557096875
 20
32.4423119140625
 11
96.794141796875
 21
32.0030345703125
 72
 1
 10
96.794141796875
 20
32.0030345703125
 11
96.9543
 21
31.5890931640625
 97
 1
 330
B1
 92
 0
 93
56             
 72
 1
 10
89.0583
 20
36.4340931640625
 11
88.005770703125
 21
35.7287123046875
 72
 1
 10
88.005770703125
 20
35.7287123046875
 11
87.074378125
 21
34.8530462890625
 72
 1
 10
87.074378125
 20
34.8530462890625
 11
86.270040234375
 21
33.8194349609375
 72
 1
 10
86.270040234375
 20
33.8194349609375
 11
85.598675
 21
32.6402181640625
 72
 1
 10
85.598675
 20
32.6402181640625
 11
85.066200390625
 21
31.3277357421874
 72
 1
 10
85.066200390625
 20
31.3277357421874
 11
84.678534375
 21
29.8943275390625
 72
 1
 10
84.678534375
 20
29.8943275390625
 11
84.441594921875
 21
28.3523333984376
 72
 1
 10
84.441594921875
 20
28.3523333984376
 11
84.3613
 21
26.7140931640625
 72
 1
 10
84.3613
 20
26.7140931640625
 11
84.399114453125
 21
25.5897513671875
 72
 1
 10
84.399114453125
 20
25.5897513671875
 11
84.512315625
 21
24.5070462890625
 72
 1
 10
84.512315625
 20
24.5070462890625
 11
84.700540234375
 21
23.4679583984375
 72
 1
 10
84.700540234375
 20
23.4679583984375
 11
84.963425
 21
22.4744681640625
 72
 1
 10
84.963425
 20
22.4744681640625
 11
85.300606640625
 21
21.5285560546875
 72
 1
 10
85.300606640625
 20
21.5285560546875
 11
85.711721875
 21
20.6322025390625
 72
 1
 10
85.711721875
 20
20.6322025390625
 11
86.196407421875
 21
19.7873880859376
 72
 1
 10
86.196407421875
 20
19.7873880859376
 11
86.7543
 21
18.9960931640625
 72
 1
 10
86.7543
 20
18.9960931640625
 11
87.371048046875
 21
18.2781322265625
 72
 1
 10
87.371048046875
 20
18.2781322265625
 11
88.037659375
 21
17.6682181640625
 72
 1
 10
88.037659375
 20
17.6682181640625
 11
88.761809765625
 21
17.1625541015625
 72
 1
 10
88.761809765625
 20
17.1625541015625
 11
89.551175
 21
16.7573431640625
 72
 1
 10
89.551175
 20
16.7573431640625
 11
90.413430859375
 21
16.4487884765625
 72
 1
 10
90.413430859375
 20
16.4487884765625
 11
91.356253125
 21
16.2330931640625
 72
 1
 10
91.356253125
 20
16.2330931640625
 11
92.387317578125
 21
16.1064603515624
 72
 1
 10
92.387317578125
 20
16.1064603515624
 11
93.5143
 21
16.0650931640625
 72
 1
 10
93.5143
 20
16.0650931640625
 11
94.139536328125
 21
16.0780833984375
 72
 1
 10
94.139536328125
 20
16.0780833984375
 11
94.719128125
 21
16.1182025390625
 72
 1
 10
94.719128125
 20
16.1182025390625
 11
95.260774609375
 21
16.1871732421876
 72
 1
 10
95.260774609375
 20
16.1871732421876
 11
95.772175
 21
16.2867181640625
 72
 1
 10
95.772175
 20
16.2867181640625
 11
96.261028515625
 21
16.4185599609375
 72
 1
 10
96.261028515625
 20
16.4185599609375
 11
96.735034375
 21
16.5844212890625
 72
 1
 10
96.735034375
 20
16.5844212890625
 11
97.201891796875
 21
16.7860248046875
 72
 1
 10
97.201891796875
 20
16.7860248046875
 11
97.6693
 21
17.0250931640625
 72
 1
 10
97.6693
 20
17.0250931640625
 11
98.72828046875
 21
17.7365443359375
 72
 1
 10
98.72828046875
 20
17.7365443359375
 11
99.65739375
 21
18.6119525390625
 72
 1
 10
99.65739375
 20
18.6119525390625
 11
100.45314765625
 21
19.6438998046875
 72
 1
 10
100.45314765625
 20
19.6438998046875
 11
101.11205
 21
20.8249681640625
 72
 1
 10
101.11205
 20
20.8249681640625
 11
101.63060859375
 21
22.1477396484374
 72
 1
 10
101.63060859375
 20
22.1477396484374
 11
102.00533125
 21
23.6047962890625
 72
 1
 10
102.00533125
 20
23.6047962890625
 11
102.23272578125
 21
25.1887201171874
 72
 1
 10
102.23272578125
 20
25.1887201171874
 11
102.3093
 21
26.8920931640625
 72
 1
 10
102.3093
 20
26.8920931640625
 11
102.1518859375
 21
29.2180404296874
 72
 1
 10
102.1518859375
 20
29.2180404296874
 11
101.6897375
 21
31.2929837890625
 72
 1
 10
101.6897375
 20
31.2929837890625
 11
100.9379953125
 21
33.0987005859375
 72
 1
 10
100.9379953125
 20
33.0987005859375
 11
99.9118
 21
34.6169681640625
 72
 1
 10
99.9118
 20
34.6169681640625
 11
98.6262921875
 21
35.8295638671876
 72
 1
 10
98.6262921875
 20
35.8295638671876
 11
97.0966125
 21
36.7182650390625
 72
 1
 10
97.0966125
 20
36.7182650390625
 11
95.3379015625
 21
37.2648490234375
 72
 1
 10
95.3379015625
 20
37.2648490234375
 11
93.3653
 21
37.4510931640625
 72
 1
 10
93.3653
 20
37.4510931640625
 11
92.783735546875
 21
37.4343822265625
 72
 1
 10
92.783735546875
 20
37.4343822265625
 11
92.208159375
 21
37.3847181640625
 72
 1
 10
92.208159375
 20
37.3847181640625
 11
91.641747265625
 21
37.3028041015625
 72
 1
 10
91.641747265625
 20
37.3028041015625
 11
91.087675
 21
37.1893431640625
 72
 1
 10
91.087675
 20
37.1893431640625
 11
90.549118359375
 21
37.0450384765625
 72
 1
 10
90.549118359375
 20
37.0450384765625
 11
90.029253125
 21
36.8705931640625
 72
 1
 10
90.029253125
 20
36.8705931640625
 11
89.531255078125
 21
36.6667103515625
 72
 1
 10
89.531255078125
 20
36.6667103515625
 11
89.0583
 21
36.4340931640625
 97
 1
 330
B2
 75
 0
 76
 1
 98
 1
 10
 0.0
 20
 0.0
 0
LINE
 5
B3
100
AcDbEntity
 8
Layer8
100
AcDbLine
 39
0.25
 370
106
 10
68.7835
 20
425.528893164063
 30
0.0
 11
51.9145
 21
425.528893164063
 31
0.0
 0
LINE
 5
B4
100
AcDbEntity
 8
Layer8
100
AcDbLine
 39
0.25
 370
106
 10
51.9145
 20
425.528893164063
 30
0.0
 11
51.9145
 21
162.181893164063
 31
0.0
 0
LINE
 5
B5
100
AcDbEntity
 8
Layer8
100
AcDbLine
 39
0.25
 370
106
 10
51.9145
 20
162.181893164063
 30
0.0
 11
53.2665
 21
162.181893164063
 31
0.0
 0
LINE
 5
B6
100
AcDbEntity
 8
Layer8
100
AcDbLine
 39
0.25
 370
106
 10
53.2665
 20
162.181893164063
 30
0.0
 11
53.2665
 21
424.301893164062
 31
0.0
 0
LINE
 5
B7
100
AcDbEntity
 8
Layer8
100
AcDbLine
 39
0.25
 370
106
 10
53.2665
 20
424.301893164062
 30
0.0
 11
68.7835
 21
424.301893164062
 31
0.0
 0
LINE
 5
B8
100
AcDbEntity
 8
Layer8
100
AcDbLine
 39
0.25
 370
106
 10
68.7835
 20
424.301893164062
 30
0.0
 11
68.7835
 21
425.528893164063
 31
0.0
  0
ENDSEC
  0
SECTION
  2
OBJECTS
  0
DICTIONARY
  5
19
100
AcDbDictionary
  3
ACAD_GROUP
350
1A
  3
ACAD_MLINESTYLE
350
1B
  0
DICTIONARY
  5
1A
102
{ACAD_REACTORS
330
19
102
}
100
AcDbDictionary
  0
DICTIONARY
  5
1B
102
{ACAD_REACTORS
330
19
102
}
100
AcDbDictionary
  3
STANDARD
350
1C
  0
MLINESTYLE
  5
1C
102
{ACAD_REACTORS
330
1B
102
}
100
AcDbMlineStyle
  2
STANDARD
 70
     0
  3

 62
     0
 51
90.0
 52
90.0
 71
     2
 49
0.5
 62
   256
  6
BYLAYER
 49
-0.5
 62
   256
  6
BYLAYER
  0
ENDSEC
  0
EOF
