 999
SCAN2CAD Date : 01/26/16
 999
SCAN2CAD ScalePixelX : 1
 999
SCAN2CAD ScalePixelY : 1
 999
SCAN2CAD TileXOffset : 0
 999
SCAN2CAD TileYOffset : 0
 999
SCAN2CAD MeasureType : 1
 999
SCAN2CAD DotsPerInch : 0
 999
SCAN2CAD GeScalePixX : 1
 999
SCAN2CAD GeScalePixY : 1
 999
SCAN2CAD GeRasTiePtX : 0
 999
SCAN2CAD GeRasTiePtY : 0
 999
SCAN2CAD ScalRasDist : 1
 999
SCAN2CAD ScalVecDist : 1
 999
SCAN2CAD ScalUnitTyp : 0
 999
SCAN2CAD ScalDistFac : 1
 999
SCAN2CAD ScalAdjustX : 1
 999
SCAN2CAD ScalAdjustY : 1
 999
SCAN2CAD MeasureMeth : 1
 999
SCAN2CAD OgDrawScale : 1
 999
SCAN2CAD OgDrawUType : 0
 999
SCAN2CAD ToDrawScale : 1
 999
SCAN2CAD ToDrawUType : 0
  0
SECTION
  2
HEADER
  9
$ACADVER
  1
AC1014
  9
$ACADMAINTVER
 70
     0
  9
$DWGCODEPAGE
  3
ANSI_1252
  9
$INSBASE
 10
0.0
 20
0.0
 30
0.0
 9
$EXTMIN
 10
27.5314
 20
13.3262984130859
 30
0.0
 9
$EXTMAX
 10
198.2148
 20
179.652898413086
 30
0.0
 9
$LIMMIN
 10
0
 20
0
 9
$LIMMAX
 10
227
 20
208
  9
$ORTHOMODE
 70
     0
  9
$REGENMODE
 70
     1
  9
$FILLMODE
 70
     1
  9
$QTEXTMODE
 70
     0
  9
$MIRRTEXT
 70
     1
  9
$DRAGMODE
 70
     2
  9
$LTSCALE
 40
1.0
  9
$OSMODE
 70
     0
  9
$ATTMODE
 70
     1
  9
$TEXTSIZE
 40
0.2
  9
$TRACEWID
 40
0.05
  9
$TEXTSTYLE
  7
STANDARD
  9
$CLAYER
  8
0
  9
$CELTYPE
  6
CONTINUOUS
  9
$CECOLOR
 62
   256
  9
$CELTSCALE
 40
1.0
  9
$DELOBJ
 70
     1
  9
$DISPSILH
 70
     0
  9
$DIMSCALE
 40
1.0
  9
$DIMASZ
 40
0.18
  9
$DIMEXO
 40
0.0625
  9
$DIMDLI
 40
0.38
  9
$DIMRND
 40
0.0
  9
$DIMDLE
 40
0.0
  9
$DIMEXE
 40
0.18
  9
$DIMTP
 40
0.0
  9
$DIMTM
 40
0.0
  9
$DIMTXT
 40
0.18
  9
$DIMCEN
 40
0.09
  9
$DIMTSZ
 40
0.0
  9
$DIMTOL
 70
     0
  9
$DIMLIM
 70
     0
  9
$DIMTIH
 70
     1
  9
$DIMTOH
 70
     1
  9
$DIMSE1
 70
     0
  9
$DIMSE2
 70
     0
  9
$DIMTAD
 70
     0
  9
$DIMZIN
 70
     0
  9
$DIMBLK
  1

  9
$DIMASO
 70
     1
  9
$DIMSHO
 70
     1
  9
$DIMPOST
  1

  9
$DIMAPOST
  1

  9
$DIMALT
 70
     0
  9
$DIMALTD
 70
     2
  9
$DIMALTF
 40
25.4
  9
$DIMLFAC
 40
1.0
  9
$DIMTOFL
 70
     0
  9
$DIMTVP
 40
0.0
  9
$DIMTIX
 70
     0
  9
$DIMSOXD
 70
     0
  9
$DIMSAH
 70
     0
  9
$DIMBLK1
  1

  9
$DIMBLK2
  1

  9
$DIMSTYLE
  2
STANDARD
  9
$DIMCLRD
 70
     0
  9
$DIMCLRE
 70
     0
  9
$DIMCLRT
 70
     0
  9
$DIMTFAC
 40
1.0
  9
$DIMGAP
 40
0.09
  9
$DIMJUST
 70
     0
  9
$DIMSD1
 70
     0
  9
$DIMSD2
 70
     0
  9
$DIMTOLJ
 70
     1
  9
$DIMTZIN
 70
     0
  9
$DIMALTZ
 70
     0
  9
$DIMALTTZ
 70
     0
  9
$DIMFIT
 70
     3
  9
$DIMUPT
 70
     0
  9
$DIMUNIT
 70
     2
  9
$DIMDEC
 70
     4
  9
$DIMTDEC
 70
     4
  9
$DIMALTU
 70
     2
  9
$DIMALTTD
 70
     2
  9
$DIMTXSTY
  7
STANDARD
  9
$DIMAUNIT
 70
     0
  9
$LUNITS
 70
     2
  9
$LUPREC
 70
     4
  9
$SKETCHINC
 40
0.1
  9
$FILLETRAD
 40
0.0
  9
$AUNITS
 70
     0
  9
$AUPREC
 70
     0
  9
$MENU
  1
acad
  9
$ELEVATION
 40
0.0
  9
$PELEVATION
 40
0.0
  9
$THICKNESS
 40
0.0
  9
$LIMCHECK
 70
     0
  9
$BLIPMODE
 70
     1
  9
$CHAMFERA
 40
0.0
  9
$CHAMFERB
 40
0.0
  9
$CHAMFERC
 40
0.0
  9
$CHAMFERD
 40
0.0
  9
$SKPOLY
 70
     0
  9
$TDCREATE
 40
0.000000000
  9
$TDUPDATE
 40
0.000000000
  9
$TDINDWG
 40
0.0000000000
  9
$TDUSRTIMER
 40
0.0000000000
  9
$USRTIMER
 70
     1
  9
$ANGBASE
 50
0.0
  9
$ANGDIR
 70
     0
  9
$PDMODE
 70
     0
  9
$PDSIZE
 40
0.0
  9
$PLINEWID
 40
0.0
  9
$COORDS
 70
     0
  9
$SPLFRAME
 70
     0
  9
$SPLINETYPE
 70
     6
  9
$SPLINESEGS
 70
     8
  9
$ATTDIA
 70
     0
  9
$ATTREQ
 70
     1
  9
$HANDLING
 70
     1
  9
$HANDSEED
  5
      AE
  9
$SURFTAB1
 70
     6
  9
$SURFTAB2
 70
     6
  9
$SURFTYPE
 70
     6
  9
$SURFU
 70
     6
  9
$SURFV
 70
     6
  9
$UCSNAME
  2

  9
$UCSORG
 10
0.0
 20
0.0
 30
0.0
  9
$UCSXDIR
 10
1.0
 20
0.0
 30
0.0
  9
$UCSYDIR
 10
0.0
 20
1.0
 30
0.0
  9
$PUCSNAME
  2

  9
$PUCSORG
 10
0.0
 20
0.0
 30
0.0
  9
$PUCSXDIR
 10
1.0
 20
0.0
 30
0.0
  9
$PUCSYDIR
 10
0.0
 20
1.0
 30
0.0
  9
$USERI1
 70
     0
  9
$USERI2
 70
     0
  9
$USERI3
 70
     0
  9
$USERI4
 70
     0
  9
$USERI5
 70
     0
  9
$USERR1
 40
0.0
  9
$USERR2
 40
0.0
  9
$USERR3
 40
0.0
  9
$USERR4
 40
0.0
  9
$USERR5
 40
0.0
  9
$WORLDVIEW
 70
     1
  9
$SHADEDGE
 70
     3
  9
$SHADEDIF
 70
    70
  9
$TILEMODE
 70
     1
  9
$MAXACTVP
 70
    16
  9
$PINSBASE
 10
0.0
 20
0.0
 30
0.0
  9
$PLIMCHECK
 70
     0
 9
$PEXTMIN
 10
27.5314
 20
13.3262984130859
 30
0.0
 9
$PEXTMAX
 10
198.2148
 20
179.652898413086
 30
0.0
 9
$PLIMMIN
 10
0
 20
0
 9
$PLIMMAX
 10
227
 20
208
  9
$UNITMODE
 70
     0
  9
$VISRETAIN
 70
     0
  9
$PLINEGEN
 70
     1
  9
$PSLTSCALE
 70
     0
  9
$TREEDEPTH
 70
  3020
  9
$PICKSTYLE
 70
     1
  9
$CMLSTYLE
  2
STANDARD
  9
$CMLJUST
 70
     0
  9
$CMLSCALE
 40
1.0
  9
$PROXYGRAPHICS
 70
     0
  9
$MEASUREMENT
 70
     0
  0
ENDSEC
  0
SECTION
  2
CLASSES
  0
CLASS
  1
LWPOLYLINE
  2
AcDbPolyline
  3
"AutoCAD"
 90
        0
280
     0
281
     1
  0
CLASS
  1
IMAGE
  2
AcDbRasterImage
  3
ISM
 90
      127
280
     0
281
     1
  0
CLASS
  1
OLE2FRAME
  2
AcDbOle2Frame
  3
""
 90
        0
280
     0
281
     1
  0
CLASS
  1
HATCH
  2
AcDbHatch
  3
"ACAD_SEDONA"
 90
        0
280
     0
281
     1
  0
CLASS
  1
DICTIONARYVAR
  2
AcDbDictionaryVar
  3
"AutoCAD"
 90
        0
280
     0
281
     0
  0
CLASS
  1
RASTERVARIABLES
  2
AcDbRasterVariables
  3
ISM
 90
        0
280
     0
281
     0
  0
CLASS
  1
IMAGEDEF
  2
AcDbRasterImageDef
  3
ISM
 90
        0
280
     0
281
     0
  0
CLASS
  1
IMAGEDEF_REACTOR
  2
AcDbRasterImageDefReactor
  3
ISM
 90
        1
280
     0
281
     0
  0
CLASS
  1
IDBUFFER
  2
AcDbIdBuffer
  3
"Acad"
 90
        0
280
     0
281
     0
  0
CLASS
  1
SPATIAL_FILTER
  2
AcDbSpatialFilter
  3
"Acad"
 90
        0
280
     0
281
     0
  0
CLASS
  1
XRECORD
  2
AcDbXrecord
  3
"<Built In>"
 90
        0
280
     0
281
     0
  0
CLASS
  1
SORTENTSTABLE
  2
AcDbSortentsTable
  3
"AutoCAD"
 90
        0
280
     0
281
     0
  0
CLASS
  1
LAYER_INDEX
  2
AcDbLayerIndex
  3
"Acad"
 90
        0
280
     0
281
     0
  0
CLASS
  1
SPATIAL_INDEX
  2
AcDbSpatialIndex
  3
"Acad"
 90
        0
280
     0
281
     0
  0
CLASS
  1
OBJECT_PTR
  2
CAseDLPNTableRecord
  3
"ASE-LPNTableRecord"
 90
        1
280
     0
281
     0
  0
ENDSEC
  0
SECTION
  2
TABLES
  0
TABLE
  2
VPORT
  5
7
100
AcDbSymbolTable
 70
     1
  0
VPORT
  5
15
100
AcDbSymbolTableRecord
100
AcDbViewportTableRecord
 2
*ACTIVE
 70
     0
 10
0
 20
0
 11
1.0
 21
1.0
 12
0.0
 22
0.0
 13
0.0
 23
0.0
 14
1.0
 24
1.0
 15
0.0
 25
0.0
 16
0.0
 26
0.0
 36
1.0
 17
112.8731
 27
96.4895984130859
 37
0.0
 40
170.3266
 41
1.02557909334185
 42
50.0
 43
0.0
 44
0.0
 50
0.0
 51
0.0
 71
     0
 72
   100
 73
     1
 74
     1
 75
     0
 76
     0
 77
     0
 78
     0
   0
ENDTAB
  0
TABLE
  2
LTYPE
  5
4
100
AcDbSymbolTable
 70
3
  0
LTYPE
  5
11
100
AcDbSymbolTableRecord
100
AcDbLinetypeTableRecord
  2
BYBLOCK
 70
     0
  3

 72
    65
 73
     0
 40
0.0
  0
LTYPE
  5
12
100
AcDbSymbolTableRecord
100
AcDbLinetypeTableRecord
  2
BYLAYER
 70
     0
  3

 72
    65
 73
     0
 40
0.0
  0
LTYPE
  5
80
330
5
100
AcDbSymbolTableRecord
100
AcDbLinetypeTableRecord
  2
CONTINUOUS
 70
     0
  3
Continuous
 72
    65
 73
     0
 40
0.0
  0
LTYPE
  5
81
330
5
100
AcDbSymbolTableRecord
100
AcDbLinetypeTableRecord
  2
DASH
 70
     0
  3
Dash
 72
    65
 73
     2
 40
48.0
 49
24.0
 74
     0
 49
-24.0
 74
     0
  0
LTYPE
  5
82
330
5
100
AcDbSymbolTableRecord
100
AcDbLinetypeTableRecord
  2
DASHDOT
 70
     0
  3
DashDot
 72
    65
 73
     4
 40
48.0
 49
24.0
 74
     0
 49
 -12.0
 74
     0
 49
0.0
 74
     0
 49
 -12.0
 74
     0	
  0
ENDTAB
  0
TABLE
  2
LAYER
  5
2
100
AcDbSymbolTable
 70
4              
  0
LAYER
  5
83
100
AcDbSymbolTableRecord
100
AcDbLayerTableRecord
  2
0
 70
     0
 62
     7
  6
CONTINUOUS
 0
LAYER
  5
84
100
AcDbSymbolTableRecord
100
AcDbLayerTableRecord
 2
Layer0
 70
 64
 62
 7
 6
CONTINUOUS
 0
LAYER
  5
85
100
AcDbSymbolTableRecord
100
AcDbLayerTableRecord
 2
Layer8
 70
 64
 62
 8
 6
CONTINUOUS
 0
LAYER
  5
86
100
AcDbSymbolTableRecord
100
AcDbLayerTableRecord
 2
Layer22
 70
 64
 62
 22
 6
CONTINUOUS
  0
ENDTAB
  0
TABLE
  2
STYLE
  5
3
100
AcDbSymbolTable
 70
1              
 0
STYLE
 5
17
100
AcDbSymbolTableRecord
100
AcDbTextStyleTableRecord
 2
STANDARD
 70
 0
 40
 0.0
 41
 1.0
 50
 0.0
 71
  0
 42
 8.0
 3
 txt
 4

  0
ENDTAB
  0
TABLE
  2
VIEW
  5
5
100
AcDbSymbolTable
 70
     0
  0
ENDTAB
  0
TABLE
  2
UCS
  5
6
100
AcDbSymbolTable
 70
     0
  0
ENDTAB
  0
TABLE
  2
APPID
  5
8
100
AcDbSymbolTable
 70
     1
  0
APPID
  5
16
100
AcDbSymbolTableRecord
100
AcDbRegAppTableRecord
  2
ACAD
 70
     0
  0
ENDTAB
  0
TABLE
  2
DIMSTYLE
  5
9
100
AcDbSymbolTable
 70
     1
  0
DIMSTYLE
105
18
100
AcDbSymbolTableRecord
100
AcDbDimStyleTableRecord
  2
STANDARD
 70
     0
  3

  4

  5

  6

  7

 40
1.0
 41
0.18
 42
0.0625
 43
0.38
 44
0.18
 45
0.0
 46
0.0
 47
0.0
 48
0.0
140
0.18
141
0.09
142
0.0
143
25.4
144
1.0
145
0.0
146
1.0
147
0.09
 71
     0
 72
     0
 73
     1
 74
     1
 75
     0
 76
     0
 77
     0
 78
     0
170
     0
171
     2
172
     0
173
     0
174
     0
175
     0
176
     0
177
     0
178
     0
270
     2
271
     4
272
     4
273
     2
274
     2
340
17
275
     0
280
     0
281
     0
282
     0
283
     1
284
     0
285
     0
286
     0
287
     0
288
     0
  0
ENDTAB
  0
TABLE
  2
BLOCK_RECORD
  5
1
100
AcDbSymbolTable
 70
     0
  0
BLOCK_RECORD
  5
A
100
AcDbSymbolTableRecord
100
AcDbBlockTableRecord
  2
*MODEL_SPACE
  0
BLOCK_RECORD
  5
B
100
AcDbSymbolTableRecord
100
AcDbBlockTableRecord
  2
*PAPER_SPACE
  0
ENDTAB
  0
ENDSEC
  0
SECTION
  2
BLOCKS
  0
BLOCK
  5
D
100
AcDbEntity
  8
0
100
AcDbBlockBegin
  2
*MODEL_SPACE
 70
     0
 10
0.0
 20
0.0
 30
0.0
  3
*MODEL_SPACE
  1

  0
ENDBLK
  5
E
100
AcDbEntity
  8
0
100
AcDbBlockEnd
  0
BLOCK
  5
F
100
AcDbEntity
 67
     1
  8
0
100
AcDbBlockBegin
  2
*PAPER_SPACE
 70
     0
 10
0.0
 20
0.0
 30
0.0
  3
*PAPER_SPACE
  1

  0
ENDBLK
  5
10
100
AcDbEntity
 67
     1
  8
0
100
AcDbBlockEnd
 0
ENDSEC
 0
SECTION
 2
ENTITIES
 0
LINE
 5
87
100
AcDbEntity
 8
Layer8
100
AcDbLine
 39
0.25
 370
106
 10
28.4754
 20
170.873798413086
 30
0.0
 11
28.4754
 21
178.322798413086
 31
0.0
 0
LINE
 5
88
100
AcDbEntity
 8
Layer8
100
AcDbLine
 39
0.25
 370
106
 10
176.6454
 20
170.873798413086
 30
0.0
 11
176.6454
 21
178.322798413086
 31
0.0
 0
LINE
 5
89
100
AcDbEntity
 8
Layer8
100
AcDbLine
 39
0.25
 370
106
 10
189.5954
 20
72.6647984130859
 30
0.0
 11
197.7404
 21
72.6647984130859
 31
0.0
 0
HATCH
 5
8A
100
AcDbEntity
 8
Layer8
100
AcDbHatch
 10
 0.0
 20
 0.0
 30
 0.0
 210
 0.0
 220
 0.0
 230
 1.0
 2
SOLID
 70
 1
 71
 1
 91
2              
 92
 0
 93
13             
 72
 1
 10
95.6024
 20
172.545698413086
 11
95.6024
 21
173.110698413086
 72
 1
 10
95.6024
 20
173.110698413086
 11
95.6024
 21
173.678698413086
 72
 1
 10
95.6024
 20
173.678698413086
 11
98.7544
 21
179.652698413086
 72
 1
 10
98.7544
 20
179.652698413086
 11
99.1394
 21
179.652698413086
 72
 1
 10
99.1394
 20
179.652698413086
 11
99.5284
 21
179.652698413086
 72
 1
 10
99.5284
 20
179.652698413086
 11
99.5284
 21
173.533698413086
 72
 1
 10
99.5284
 20
173.533698413086
 11
100.5104
 21
173.533698413086
 72
 1
 10
100.5104
 20
173.533698413086
 11
100.5104
 21
172.545698413086
 72
 1
 10
100.5104
 20
172.545698413086
 11
99.5284
 21
172.545698413086
 72
 1
 10
99.5284
 20
172.545698413086
 11
99.5284
 21
170.298698413086
 72
 1
 10
99.5284
 20
170.298698413086
 11
98.6554
 21
170.298698413086
 72
 1
 10
98.6554
 20
170.298698413086
 11
98.6554
 21
172.545698413086
 72
 1
 10
98.6554
 20
172.545698413086
 11
95.6024
 21
172.545698413086
 97
 1
 330
8B
 92
 0
 93
4              
 72
 1
 10
98.6554
 20
173.533698413086
 11
98.6554
 21
177.918698413086
 72
 1
 10
98.6554
 20
177.918698413086
 11
96.4784
 21
173.678698413086
 72
 1
 10
96.4784
 20
173.678698413086
 11
96.4024
 21
173.533698413086
 72
 1
 10
96.4024
 20
173.533698413086
 11
98.6554
 21
173.533698413086
 97
 1
 330
8C
 75
 0
 76
 1
 98
 1
 10
 0.0
 20
 0.0
 0
HATCH
 5
8D
100
AcDbEntity
 8
Layer8
100
AcDbHatch
 10
 0.0
 20
 0.0
 30
 0.0
 210
 0.0
 220
 0.0
 230
 1.0
 2
SOLID
 70
 1
 71
 1
 91
2              
 92
 0
 93
64             
 72
 1
 10
101.8133
 20
171.285898413086
 11
101.66717890625
 21
171.610330053711
 72
 1
 10
101.66717890625
 20
171.610330053711
 11
101.54076875
 21
171.967164038086
 72
 1
 10
101.54076875
 20
171.967164038086
 11
101.43399921875
 21
172.356458959961
 72
 1
 10
101.43399921875
 20
172.356458959961
 11
101.3468
 21
172.778273413086
 72
 1
 10
101.3468
 20
172.778273413086
 11
101.27910078125
 21
173.232665991211
 72
 1
 10
101.27910078125
 20
173.232665991211
 11
101.23083125
 21
173.719695288086
 72
 1
 10
101.23083125
 20
173.719695288086
 11
101.20192109375
 21
174.239419897461
 72
 1
 10
101.20192109375
 20
174.239419897461
 11
101.1923
 21
174.791898413086
 72
 1
 10
101.1923
 20
174.791898413086
 11
101.20192109375
 21
175.357677709961
 72
 1
 10
101.20192109375
 20
175.357677709961
 11
101.23083125
 21
175.890257788086
 72
 1
 10
101.23083125
 20
175.890257788086
 11
101.27910078125
 21
176.389626928711
 72
 1
 10
101.27910078125
 20
176.389626928711
 11
101.3468
 21
176.855773413086
 72
 1
 10
101.3468
 20
176.855773413086
 11
101.43399921875
 21
177.288685522461
 72
 1
 10
101.43399921875
 20
177.288685522461
 11
101.54076875
 21
177.688351538086
 72
 1
 10
101.54076875
 20
177.688351538086
 11
101.66717890625
 21
178.054759741211
 72
 1
 10
101.66717890625
 20
178.054759741211
 11
101.8133
 21
178.387898413086
 72
 1
 10
101.8133
 20
178.387898413086
 11
101.975997265625
 21
178.684861303711
 72
 1
 10
101.975997265625
 20
178.684861303711
 11
102.155065625
 21
178.942039038086
 72
 1
 10
102.155065625
 20
178.942039038086
 11
102.350469921875
 21
179.159490209961
 72
 1
 10
102.350469921875
 20
179.159490209961
 11
102.562175
 21
179.337273413086
 72
 1
 10
102.562175
 20
179.337273413086
 11
102.790145703125
 21
179.475447241211
 72
 1
 10
102.790145703125
 20
179.475447241211
 11
103.034346875
 21
179.574070288086
 72
 1
 10
103.034346875
 20
179.574070288086
 11
103.294743359375
 21
179.633201147461
 72
 1
 10
103.294743359375
 20
179.633201147461
 11
103.5713
 21
179.652898413086
 72
 1
 10
103.5713
 20
179.652898413086
 11
103.848723828125
 21
179.633201147461
 72
 1
 10
103.848723828125
 20
179.633201147461
 11
104.109565625
 21
179.574070288086
 72
 1
 10
104.109565625
 20
179.574070288086
 11
104.353930859375
 21
179.475447241211
 72
 1
 10
104.353930859375
 20
179.475447241211
 11
104.581925
 21
179.337273413086
 72
 1
 10
104.581925
 20
179.337273413086
 11
104.793653515625
 21
179.159490209961
 72
 1
 10
104.793653515625
 20
179.159490209961
 11
104.989221875
 21
178.942039038086
 72
 1
 10
104.989221875
 20
178.942039038086
 11
105.168735546875
 21
178.684861303711
 72
 1
 10
105.168735546875
 20
178.684861303711
 11
105.3323
 21
178.387898413086
 72
 1
 10
105.3323
 20
178.387898413086
 11
105.47656953125
 21
178.054759741211
 72
 1
 10
105.47656953125
 20
178.054759741211
 11
105.60183125
 21
177.688351538086
 72
 1
 10
105.60183125
 20
177.688351538086
 11
105.70801484375
 21
177.288685522461
 72
 1
 10
105.70801484375
 20
177.288685522461
 11
105.79505
 21
176.855773413086
 72
 1
 10
105.79505
 20
176.855773413086
 11
105.86286640625
 21
176.389626928711
 72
 1
 10
105.86286640625
 20
176.389626928711
 11
105.91139375
 21
175.890257788086
 72
 1
 10
105.91139375
 20
175.890257788086
 11
105.94056171875
 21
175.357677709961
 72
 1
 10
105.94056171875
 20
175.357677709961
 11
105.9503
 21
174.791898413086
 72
 1
 10
105.9503
 20
174.791898413086
 11
105.94056171875
 21
174.239419897461
 72
 1
 10
105.94056171875
 20
174.239419897461
 11
105.91139375
 21
173.719695288086
 72
 1
 10
105.91139375
 20
173.719695288086
 11
105.86286640625
 21
173.232665991211
 72
 1
 10
105.86286640625
 20
173.232665991211
 11
105.79505
 21
172.778273413086
 72
 1
 10
105.79505
 20
172.778273413086
 11
105.70801484375
 21
172.356458959961
 72
 1
 10
105.70801484375
 20
172.356458959961
 11
105.60183125
 21
171.967164038086
 72
 1
 10
105.60183125
 20
171.967164038086
 11
105.47656953125
 21
171.610330053711
 72
 1
 10
105.47656953125
 20
171.610330053711
 11
105.3323
 21
171.285898413086
 72
 1
 10
105.3323
 20
171.285898413086
 11
105.168735546875
 21
170.996583959961
 72
 1
 10
105.168735546875
 20
170.996583959961
 11
104.989221875
 21
170.745882788086
 72
 1
 10
104.989221875
 20
170.745882788086
 11
104.793653515625
 21
170.533783178711
 72
 1
 10
104.793653515625
 20
170.533783178711
 11
104.581925
 21
170.360273413086
 72
 1
 10
104.581925
 20
170.360273413086
 11
104.353930859375
 21
170.225341772461
 72
 1
 10
104.353930859375
 20
170.225341772461
 11
104.109565625
 21
170.128976538086
 72
 1
 10
104.109565625
 20
170.128976538086
 11
103.848723828125
 21
170.071165991211
 72
 1
 10
103.848723828125
 20
170.071165991211
 11
103.5713
 21
170.051898413086
 72
 1
 10
103.5713
 20
170.051898413086
 11
103.294743359375
 21
170.071165991211
 72
 1
 10
103.294743359375
 20
170.071165991211
 11
103.034346875
 21
170.128976538086
 72
 1
 10
103.034346875
 20
170.128976538086
 11
102.790145703125
 21
170.225341772461
 72
 1
 10
102.790145703125
 20
170.225341772461
 11
102.562175
 21
170.360273413086
 72
 1
 10
102.562175
 20
170.360273413086
 11
102.350469921875
 21
170.533783178711
 72
 1
 10
102.350469921875
 20
170.533783178711
 11
102.155065625
 21
170.745882788086
 72
 1
 10
102.155065625
 20
170.745882788086
 11
101.975997265625
 21
170.996583959961
 72
 1
 10
101.975997265625
 20
170.996583959961
 11
101.8133
 21
171.285898413086
 97
 1
 330
8E
 92
 0
 93
64             
 72
 1
 10
104.6573
 20
172.047898413086
 11
104.74585078125
 21
172.300935522461
 72
 1
 10
104.74585078125
 20
172.300935522461
 11
104.82251875
 21
172.580070288086
 72
 1
 10
104.82251875
 20
172.580070288086
 11
104.88732734375
 21
172.885337866211
 72
 1
 10
104.88732734375
 20
172.885337866211
 11
104.9403
 21
173.216773413086
 72
 1
 10
104.9403
 20
173.216773413086
 11
104.98146015625
 21
173.574412084961
 72
 1
 10
104.98146015625
 20
173.574412084961
 11
105.01083125
 21
173.958289038086
 72
 1
 10
105.01083125
 20
173.958289038086
 11
105.02843671875
 21
174.368439428711
 72
 1
 10
105.02843671875
 20
174.368439428711
 11
105.0343
 21
174.804898413086
 72
 1
 10
105.0343
 20
174.804898413086
 11
105.0299484375
 21
175.269095678711
 72
 1
 10
105.0299484375
 20
175.269095678711
 11
105.013925
 21
175.703164038086
 72
 1
 10
105.013925
 20
175.703164038086
 11
104.9862765625
 21
176.107068334961
 72
 1
 10
104.9862765625
 20
176.107068334961
 11
104.94705
 21
176.480773413086
 72
 1
 10
104.94705
 20
176.480773413086
 11
104.8962921875
 21
176.824244116211
 72
 1
 10
104.8962921875
 20
176.824244116211
 11
104.83405
 21
177.137445288086
 72
 1
 10
104.83405
 20
177.137445288086
 11
104.7603703125
 21
177.420341772461
 72
 1
 10
104.7603703125
 20
177.420341772461
 11
104.6753
 21
177.672898413086
 72
 1
 10
104.6753
 20
177.672898413086
 11
104.57741328125
 21
177.894712866211
 72
 1
 10
104.57741328125
 20
177.894712866211
 11
104.46820625
 21
178.086914038086
 72
 1
 10
104.46820625
 20
178.086914038086
 11
104.34760859375
 21
178.249513647461
 72
 1
 10
104.34760859375
 20
178.249513647461
 11
104.21555
 21
178.382523413086
 72
 1
 10
104.21555
 20
178.382523413086
 11
104.07196015625
 21
178.485955053711
 72
 1
 10
104.07196015625
 20
178.485955053711
 11
103.91676875
 21
178.559820288086
 72
 1
 10
103.91676875
 20
178.559820288086
 11
103.74990546875
 21
178.604130834961
 72
 1
 10
103.74990546875
 20
178.604130834961
 11
103.5713
 21
178.618898413086
 72
 1
 10
103.5713
 20
178.618898413086
 11
103.393649609375
 21
178.604130834961
 72
 1
 10
103.393649609375
 20
178.604130834961
 11
103.227471875
 21
178.559820288086
 72
 1
 10
103.227471875
 20
178.559820288086
 11
103.072801953125
 21
178.485955053711
 72
 1
 10
103.072801953125
 20
178.485955053711
 11
102.929675
 21
178.382523413086
 72
 1
 10
102.929675
 20
178.382523413086
 11
102.798126171875
 21
178.249513647461
 72
 1
 10
102.798126171875
 20
178.249513647461
 11
102.678190625
 21
178.086914038086
 72
 1
 10
102.678190625
 20
178.086914038086
 11
102.569903515625
 21
177.894712866211
 72
 1
 10
102.569903515625
 20
177.894712866211
 11
102.4733
 21
177.672898413086
 72
 1
 10
102.4733
 20
177.672898413086
 11
102.388128125
 21
177.420341772461
 72
 1
 10
102.388128125
 20
177.420341772461
 11
102.3141125
 21
177.137445288086
 72
 1
 10
102.3141125
 20
177.137445288086
 11
102.251253125
 21
176.824244116211
 72
 1
 10
102.251253125
 20
176.824244116211
 11
102.19955
 21
176.480773413086
 72
 1
 10
102.19955
 20
176.480773413086
 11
102.159003125
 21
176.107068334961
 72
 1
 10
102.159003125
 20
176.107068334961
 11
102.1296125
 21
175.703164038086
 72
 1
 10
102.1296125
 20
175.703164038086
 11
102.111378125
 21
175.269095678711
 72
 1
 10
102.111378125
 20
175.269095678711
 11
102.1043
 21
174.804898413086
 72
 1
 10
102.1043
 20
174.804898413086
 11
102.11025703125
 21
174.368439428711
 72
 1
 10
102.11025703125
 20
174.368439428711
 11
102.12814375
 21
173.958289038086
 72
 1
 10
102.12814375
 20
173.958289038086
 11
102.15798359375
 21
173.574412084961
 72
 1
 10
102.15798359375
 20
173.574412084961
 11
102.1998
 21
173.216773413086
 72
 1
 10
102.1998
 20
173.216773413086
 11
102.25361640625
 21
172.885337866211
 72
 1
 10
102.25361640625
 20
172.885337866211
 11
102.31945625
 21
172.580070288086
 72
 1
 10
102.31945625
 20
172.580070288086
 11
102.39734296875
 21
172.300935522461
 72
 1
 10
102.39734296875
 20
172.300935522461
 11
102.4873
 21
172.047898413086
 72
 1
 10
102.4873
 20
172.047898413086
 11
102.586911328125
 21
171.822281225586
 72
 1
 10
102.586911328125
 20
171.822281225586
 11
102.696753125
 21
171.626898413086
 72
 1
 10
102.696753125
 20
171.626898413086
 11
102.816837109375
 21
171.461703100586
 72
 1
 10
102.816837109375
 20
171.461703100586
 11
102.947175
 21
171.326648413086
 72
 1
 10
102.947175
 20
171.326648413086
 11
103.087778515625
 21
171.221687475586
 72
 1
 10
103.087778515625
 20
171.221687475586
 11
103.238659375
 21
171.146773413086
 72
 1
 10
103.238659375
 20
171.146773413086
 11
103.399829296875
 21
171.101859350586
 72
 1
 10
103.399829296875
 20
171.101859350586
 11
103.5713
 21
171.086898413086
 72
 1
 10
103.5713
 20
171.086898413086
 11
103.74289765625
 21
171.101859350586
 72
 1
 10
103.74289765625
 20
171.101859350586
 11
103.90439375
 21
171.146773413086
 72
 1
 10
103.90439375
 20
171.146773413086
 11
104.05571796875
 21
171.221687475586
 72
 1
 10
104.05571796875
 20
171.221687475586
 11
104.1968
 21
171.326648413086
 72
 1
 10
104.1968
 20
171.326648413086
 11
104.32756953125
 21
171.461703100586
 72
 1
 10
104.32756953125
 20
171.461703100586
 11
104.44795625
 21
171.626898413086
 72
 1
 10
104.44795625
 20
171.626898413086
 11
104.55788984375
 21
171.822281225586
 72
 1
 10
104.55788984375
 20
171.822281225586
 11
104.6573
 21
172.047898413086
 97
 1
 330
8F
 75
 0
 76
 1
 98
 1
 10
 0.0
 20
 0.0
 0
HATCH
 5
90
100
AcDbEntity
 8
Layer8
100
AcDbHatch
 10
 0.0
 20
 0.0
 30
 0.0
 210
 0.0
 220
 0.0
 230
 1.0
 2
SOLID
 70
 1
 71
 1
 91
1              
 92
 0
 93
133            
 72
 1
 10
191.3651
 20
112.487098413086
 11
191.61808828125
 21
112.480768334961
 72
 1
 10
191.61808828125
 20
112.480768334961
 11
191.86031875
 21
112.461770288086
 72
 1
 10
191.86031875
 20
112.461770288086
 11
192.09181484375
 21
112.430092553711
 72
 1
 10
192.09181484375
 20
112.430092553711
 11
192.3126
 21
112.385723413086
 72
 1
 10
192.3126
 20
112.385723413086
 11
192.52269765625
 21
112.328651147461
 72
 1
 10
192.52269765625
 20
112.328651147461
 11
192.72213125
 21
112.258864038086
 72
 1
 10
192.72213125
 20
112.258864038086
 11
192.91092421875
 21
112.176350366211
 72
 1
 10
192.91092421875
 20
112.176350366211
 11
193.0891
 21
112.081098413086
 72
 1
 10
193.0891
 20
112.081098413086
 11
193.263898828125
 21
111.969912866211
 72
 1
 10
193.263898828125
 20
111.969912866211
 11
193.438053125
 21
111.840364038086
 72
 1
 10
193.438053125
 20
111.840364038086
 11
193.611574609375
 21
111.692463647461
 72
 1
 10
193.611574609375
 20
111.692463647461
 11
193.784475
 21
111.526223413086
 72
 1
 10
193.784475
 20
111.526223413086
 11
193.956766015625
 21
111.341655053711
 72
 1
 10
193.956766015625
 20
111.341655053711
 11
194.128459375
 21
111.138770288086
 72
 1
 10
194.128459375
 20
111.138770288086
 11
194.299566796875
 21
110.917580834961
 72
 1
 10
194.299566796875
 20
110.917580834961
 11
194.4701
 21
110.678098413086
 72
 1
 10
194.4701
 20
110.678098413086
 11
194.673961328125
 21
110.389387475586
 72
 1
 10
194.673961328125
 20
110.389387475586
 11
194.876803125
 21
110.123973413086
 72
 1
 10
194.876803125
 20
110.123973413086
 11
195.078637109375
 21
109.881809350586
 72
 1
 10
195.078637109375
 20
109.881809350586
 11
195.279475
 21
109.662848413086
 72
 1
 10
195.279475
 20
109.662848413086
 11
195.479328515625
 21
109.467043725586
 72
 1
 10
195.479328515625
 20
109.467043725586
 11
195.678209375
 21
109.294348413086
 72
 1
 10
195.678209375
 20
109.294348413086
 11
195.876129296875
 21
109.144715600586
 72
 1
 10
195.876129296875
 20
109.144715600586
 11
196.0731
 21
109.018098413086
 72
 1
 10
196.0731
 20
109.018098413086
 11
196.16422890625
 21
108.968602319336
 72
 1
 10
196.16422890625
 20
108.968602319336
 11
196.25763125
 21
108.922129663086
 72
 1
 10
196.25763125
 20
108.922129663086
 11
196.35333046875
 21
108.878703881836
 72
 1
 10
196.35333046875
 20
108.878703881836
 11
196.45135
 21
108.838348413086
 72
 1
 10
196.45135
 20
108.838348413086
 11
196.55171328125
 21
108.801086694336
 72
 1
 10
196.55171328125
 20
108.801086694336
 11
196.65444375
 21
108.766942163086
 72
 1
 10
196.65444375
 20
108.766942163086
 11
196.75956484375
 21
108.735938256836
 72
 1
 10
196.75956484375
 20
108.735938256836
 11
196.8671
 21
108.708098413086
 72
 1
 10
196.8671
 20
108.708098413086
 11
196.8671
 21
112.487098413086
 72
 1
 10
196.8671
 20
112.487098413086
 11
197.9681
 21
112.487098413086
 72
 1
 10
197.9681
 20
112.487098413086
 11
197.9681
 21
107.749098413086
 72
 1
 10
197.9681
 20
107.749098413086
 11
197.9641
 21
107.749098413086
 72
 1
 10
197.9641
 20
107.749098413086
 11
197.599215234375
 21
107.758248803711
 72
 1
 10
197.599215234375
 20
107.758248803711
 11
197.249271875
 21
107.785739038086
 72
 1
 10
197.249271875
 20
107.785739038086
 11
196.914211328125
 21
107.831627709961
 72
 1
 10
196.914211328125
 20
107.831627709961
 11
196.593975
 21
107.895973413086
 72
 1
 10
196.593975
 20
107.895973413086
 11
196.288504296875
 21
107.978834741211
 72
 1
 10
196.288504296875
 20
107.978834741211
 11
195.997740625
 21
108.080270288086
 72
 1
 10
195.997740625
 20
108.080270288086
 11
195.721625390625
 21
108.200338647461
 72
 1
 10
195.721625390625
 20
108.200338647461
 11
195.4601
 21
108.339098413086
 72
 1
 10
195.4601
 20
108.339098413086
 11
195.206535546875
 21
108.500449975586
 72
 1
 10
195.206535546875
 20
108.500449975586
 11
194.954271875
 21
108.688285913086
 72
 1
 10
194.954271875
 20
108.688285913086
 11
194.703203515625
 21
108.902653100586
 72
 1
 10
194.703203515625
 20
108.902653100586
 11
194.453225
 21
109.143598413086
 72
 1
 10
194.453225
 20
109.143598413086
 11
194.204230859375
 21
109.411168725586
 72
 1
 10
194.204230859375
 20
109.411168725586
 11
193.956115625
 21
109.705410913086
 72
 1
 10
193.956115625
 20
109.705410913086
 11
193.708773828125
 21
110.026371850586
 72
 1
 10
193.708773828125
 20
110.026371850586
 11
193.4621
 21
110.374098413086
 72
 1
 10
193.4621
 20
110.374098413086
 11
193.351148828125
 21
110.531352319336
 72
 1
 10
193.351148828125
 20
110.531352319336
 11
193.239553125
 21
110.676817163086
 72
 1
 10
193.239553125
 20
110.676817163086
 11
193.127324609375
 21
110.810422631836
 72
 1
 10
193.127324609375
 20
110.810422631836
 11
193.014475
 21
110.932098413086
 72
 1
 10
193.014475
 20
110.932098413086
 11
192.901016015625
 21
111.041774194336
 72
 1
 10
192.901016015625
 20
111.041774194336
 11
192.786959375
 21
111.139379663086
 72
 1
 10
192.786959375
 20
111.139379663086
 11
192.672316796875
 21
111.224844506836
 72
 1
 10
192.672316796875
 20
111.224844506836
 11
192.5571
 21
111.298098413086
 72
 1
 10
192.5571
 20
111.298098413086
 11
192.438500390625
 21
111.361135522461
 72
 1
 10
192.438500390625
 20
111.361135522461
 11
192.312928125
 21
111.415957788086
 72
 1
 10
192.312928125
 20
111.415957788086
 11
192.180348046875
 21
111.462506616211
 72
 1
 10
192.180348046875
 20
111.462506616211
 11
192.040725
 21
111.500723413086
 72
 1
 10
192.040725
 20
111.500723413086
 11
191.894023828125
 21
111.530549584961
 72
 1
 10
191.894023828125
 20
111.530549584961
 11
191.740209375
 21
111.551926538086
 72
 1
 10
191.740209375
 20
111.551926538086
 11
191.579246484375
 21
111.564795678711
 72
 1
 10
191.579246484375
 20
111.564795678711
 11
191.4111
 21
111.569098413086
 72
 1
 10
191.4111
 20
111.569098413086
 11
191.2175921875
 21
111.563104272461
 72
 1
 10
191.2175921875
 20
111.563104272461
 11
191.0337875
 21
111.545145288086
 72
 1
 10
191.0337875
 20
111.545145288086
 11
190.8596390625
 21
111.515256616211
 72
 1
 10
190.8596390625
 20
111.515256616211
 11
190.6951
 21
111.473473413086
 72
 1
 10
190.6951
 20
111.473473413086
 11
190.5401234375
 21
111.419830834961
 72
 1
 10
190.5401234375
 20
111.419830834961
 11
190.3946625
 21
111.354364038086
 72
 1
 10
190.3946625
 20
111.354364038086
 11
190.2586703125
 21
111.277108178711
 72
 1
 10
190.2586703125
 20
111.277108178711
 11
190.1321
 21
111.188098413086
 72
 1
 10
190.1321
 20
111.188098413086
 11
190.018523828125
 21
111.088389428711
 72
 1
 10
190.018523828125
 20
111.088389428711
 11
189.920053125
 21
110.981239038086
 72
 1
 10
189.920053125
 20
110.981239038086
 11
189.836699609375
 21
110.866612084961
 72
 1
 10
189.836699609375
 20
110.866612084961
 11
189.768475
 21
110.744473413086
 72
 1
 10
189.768475
 20
110.744473413086
 11
189.715391015625
 21
110.614787866211
 72
 1
 10
189.715391015625
 20
110.614787866211
 11
189.677459375
 21
110.477520288086
 72
 1
 10
189.677459375
 20
110.477520288086
 11
189.654691796875
 21
110.332635522461
 72
 1
 10
189.654691796875
 20
110.332635522461
 11
189.6471
 21
110.180098413086
 72
 1
 10
189.6471
 20
110.180098413086
 11
189.656297265625
 21
110.022139428711
 72
 1
 10
189.656297265625
 20
110.022139428711
 11
189.683928125
 21
109.873051538086
 72
 1
 10
189.683928125
 20
109.873051538086
 11
189.730051171875
 21
109.732893334961
 72
 1
 10
189.730051171875
 20
109.732893334961
 11
189.794725
 21
109.601723413086
 72
 1
 10
189.794725
 20
109.601723413086
 11
189.878008203125
 21
109.479600366211
 72
 1
 10
189.878008203125
 20
109.479600366211
 11
189.979959375
 21
109.366582788086
 72
 1
 10
189.979959375
 20
109.366582788086
 11
190.100637109375
 21
109.262729272461
 72
 1
 10
190.100637109375
 20
109.262729272461
 11
190.2401
 21
109.168098413086
 72
 1
 10
190.2401
 20
109.168098413086
 11
190.39624453125
 21
109.083535913086
 72
 1
 10
190.39624453125
 20
109.083535913086
 11
190.56769375
 21
109.009848413086
 72
 1
 10
190.56769375
 20
109.009848413086
 11
190.75447109375
 21
108.947035913086
 72
 1
 10
190.75447109375
 20
108.947035913086
 11
190.9566
 21
108.895098413086
 72
 1
 10
190.9566
 20
108.895098413086
 11
191.17410390625
 21
108.854035913086
 72
 1
 10
191.17410390625
 20
108.854035913086
 11
191.40700625
 21
108.823848413086
 72
 1
 10
191.40700625
 20
108.823848413086
 11
191.65533046875
 21
108.804535913086
 72
 1
 10
191.65533046875
 20
108.804535913086
 11
191.9191
 21
108.796098413086
 72
 1
 10
191.9191
 20
108.796098413086
 11
191.9191
 21
107.936098413086
 72
 1
 10
191.9191
 20
107.936098413086
 11
191.53476796875
 21
107.950676538086
 72
 1
 10
191.53476796875
 20
107.950676538086
 11
191.17300625
 21
107.983910913086
 72
 1
 10
191.17300625
 20
107.983910913086
 11
190.83379140625
 21
108.035801538086
 72
 1
 10
190.83379140625
 20
108.035801538086
 11
190.5171
 21
108.106348413086
 72
 1
 10
190.5171
 20
108.106348413086
 11
190.22290859375
 21
108.195551538086
 72
 1
 10
190.22290859375
 20
108.195551538086
 11
189.95119375
 21
108.303410913086
 72
 1
 10
189.95119375
 20
108.303410913086
 11
189.70193203125
 21
108.429926538086
 72
 1
 10
189.70193203125
 20
108.429926538086
 11
189.4751
 21
108.575098413086
 72
 1
 10
189.4751
 20
108.575098413086
 11
189.2726
 21
108.736014428711
 72
 1
 10
189.2726
 20
108.736014428711
 11
189.0971
 21
108.912739038086
 72
 1
 10
189.0971
 20
108.912739038086
 11
188.9486
 21
109.105237084961
 72
 1
 10
188.9486
 20
109.105237084961
 11
188.8271
 21
109.313473413086
 72
 1
 10
188.8271
 20
109.313473413086
 11
188.7326
 21
109.537412866211
 72
 1
 10
188.7326
 20
109.537412866211
 11
188.6651
 21
109.777020288086
 72
 1
 10
188.6651
 20
109.777020288086
 11
188.6246
 21
110.032260522461
 72
 1
 10
188.6246
 20
110.032260522461
 11
188.6111
 21
110.303098413086
 72
 1
 10
188.6111
 20
110.303098413086
 11
188.623047265625
 21
110.542819116211
 72
 1
 10
188.623047265625
 20
110.542819116211
 11
188.658865625
 21
110.770739038086
 72
 1
 10
188.658865625
 20
110.770739038086
 11
188.718519921875
 21
110.986869897461
 72
 1
 10
188.718519921875
 20
110.986869897461
 11
188.801975
 21
111.191223413086
 72
 1
 10
188.801975
 20
111.191223413086
 11
188.909195703125
 21
111.383811303711
 72
 1
 10
188.909195703125
 20
111.383811303711
 11
189.040146875
 21
111.564645288086
 72
 1
 10
189.040146875
 20
111.564645288086
 11
189.194793359375
 21
111.733737084961
 72
 1
 10
189.194793359375
 20
111.733737084961
 11
189.3731
 21
111.891098413086
 72
 1
 10
189.3731
 20
111.891098413086
 11
189.569641015625
 21
112.030690209961
 72
 1
 10
189.569641015625
 20
112.030690209961
 11
189.781240625
 21
112.151707788086
 72
 1
 10
189.781240625
 20
112.151707788086
 11
190.007863671875
 21
112.254139428711
 72
 1
 10
190.007863671875
 20
112.254139428711
 11
190.249475
 21
112.337973413086
 72
 1
 10
190.249475
 20
112.337973413086
 11
190.506039453125
 21
112.403198022461
 72
 1
 10
190.506039453125
 20
112.403198022461
 11
190.777521875
 21
112.449801538086
 72
 1
 10
190.777521875
 20
112.449801538086
 11
191.063887109375
 21
112.477772241211
 72
 1
 10
191.063887109375
 20
112.477772241211
 11
191.3651
 21
112.487098413086
 97
 1
 330
91
 75
 0
 76
 1
 98
 1
 10
 0.0
 20
 0.0
 0
HATCH
 5
92
100
AcDbEntity
 8
Layer8
100
AcDbHatch
 10
 0.0
 20
 0.0
 30
 0.0
 210
 0.0
 220
 0.0
 230
 1.0
 2
SOLID
 70
 1
 71
 1
 91
1              
 92
 0
 93
190            
 72
 1
 10
191.1658
 20
116.947998413086
 11
191.0017296875
 21
116.942566772461
 72
 1
 10
191.0017296875
 20
116.942566772461
 11
190.8454875
 21
116.926295288086
 72
 1
 10
190.8454875
 20
116.926295288086
 11
190.6970265625
 21
116.899219116211
 72
 1
 10
190.6970265625
 20
116.899219116211
 11
190.5563
 21
116.861373413086
 72
 1
 10
190.5563
 20
116.861373413086
 11
190.4232609375
 21
116.812793334961
 72
 1
 10
190.4232609375
 20
116.812793334961
 11
190.2978625
 21
116.753514038086
 72
 1
 10
190.2978625
 20
116.753514038086
 11
190.1800578125
 21
116.683570678711
 72
 1
 10
190.1800578125
 20
116.683570678711
 11
190.0698
 21
116.602998413086
 72
 1
 10
190.0698
 20
116.602998413086
 11
189.970946484375
 21
116.514223022461
 72
 1
 10
189.970946484375
 20
116.514223022461
 11
189.885159375
 21
116.418920288086
 72
 1
 10
189.885159375
 20
116.418920288086
 11
189.812473828125
 21
116.317125366211
 72
 1
 10
189.812473828125
 20
116.317125366211
 11
189.752925
 21
116.208873413086
 72
 1
 10
189.752925
 20
116.208873413086
 11
189.706548046875
 21
116.094199584961
 72
 1
 10
189.706548046875
 20
116.094199584961
 11
189.673378125
 21
115.973139038086
 72
 1
 10
189.673378125
 20
115.973139038086
 11
189.653450390625
 21
115.845726928711
 72
 1
 10
189.653450390625
 20
115.845726928711
 11
189.6468
 21
115.711998413086
 72
 1
 10
189.6468
 20
115.711998413086
 11
189.6550578125
 21
115.551963256836
 72
 1
 10
189.6550578125
 20
115.551963256836
 11
189.6798625
 21
115.401092163086
 72
 1
 10
189.6798625
 20
115.401092163086
 11
189.7212609375
 21
115.259361694336
 72
 1
 10
189.7212609375
 20
115.259361694336
 11
189.7793
 21
115.126748413086
 72
 1
 10
189.7793
 20
115.126748413086
 11
189.8540265625
 21
115.003228881836
 72
 1
 10
189.8540265625
 20
115.003228881836
 11
189.9454875
 21
114.888779663086
 72
 1
 10
189.9454875
 20
114.888779663086
 11
190.0537296875
 21
114.783377319336
 72
 1
 10
190.0537296875
 20
114.783377319336
 11
190.1788
 21
114.686998413086
 72
 1
 10
190.1788
 20
114.686998413086
 11
190.318446484375
 21
114.601357788086
 72
 1
 10
190.318446484375
 20
114.601357788086
 11
190.471909375
 21
114.526685913086
 72
 1
 10
190.471909375
 20
114.526685913086
 11
190.639223828125
 21
114.462982788086
 72
 1
 10
190.639223828125
 20
114.462982788086
 11
190.820425
 21
114.410248413086
 72
 1
 10
190.820425
 20
114.410248413086
 11
191.015548046875
 21
114.368482788086
 72
 1
 10
191.015548046875
 20
114.368482788086
 11
191.224628125
 21
114.337685913086
 72
 1
 10
191.224628125
 20
114.337685913086
 11
191.447700390625
 21
114.317857788086
 72
 1
 10
191.447700390625
 20
114.317857788086
 11
191.6848
 21
114.308998413086
 72
 1
 10
191.6848
 20
114.308998413086
 11
191.6848
 21
113.449998413086
 72
 1
 10
191.6848
 20
113.449998413086
 11
191.327425
 21
113.463459350586
 72
 1
 10
191.327425
 20
113.463459350586
 11
190.99105
 21
113.494873413086
 72
 1
 10
190.99105
 20
113.494873413086
 11
190.675675
 21
113.544287475586
 72
 1
 10
190.675675
 20
113.544287475586
 11
190.3813
 21
113.611748413086
 72
 1
 10
190.3813
 20
113.611748413086
 11
190.107925
 21
113.697303100586
 72
 1
 10
190.107925
 20
113.697303100586
 11
189.85555
 21
113.800998413086
 72
 1
 10
189.85555
 20
113.800998413086
 11
189.624175
 21
113.922881225586
 72
 1
 10
189.624175
 20
113.922881225586
 11
189.4138
 21
114.062998413086
 72
 1
 10
189.4138
 20
114.062998413086
 11
189.226266796875
 21
114.220695678711
 72
 1
 10
189.226266796875
 20
114.220695678711
 11
189.063471875
 21
114.393076538086
 72
 1
 10
189.063471875
 20
114.393076538086
 11
188.925497265625
 21
114.580199584961
 72
 1
 10
188.925497265625
 20
114.580199584961
 11
188.812425
 21
114.782123413086
 72
 1
 10
188.812425
 20
114.782123413086
 11
188.724337109375
 21
114.998906616211
 72
 1
 10
188.724337109375
 20
114.998906616211
 11
188.661315625
 21
115.230607788086
 72
 1
 10
188.661315625
 20
115.230607788086
 11
188.623442578125
 21
115.477285522461
 72
 1
 10
188.623442578125
 20
115.477285522461
 11
188.6108
 21
115.738998413086
 72
 1
 10
188.6108
 20
115.738998413086
 11
188.62181171875
 21
115.963166381836
 72
 1
 10
188.62181171875
 20
115.963166381836
 11
188.65483125
 21
116.177467163086
 72
 1
 10
188.65483125
 20
116.177467163086
 11
188.70983515625
 21
116.381971069336
 72
 1
 10
188.70983515625
 20
116.381971069336
 11
188.7868
 21
116.576748413086
 72
 1
 10
188.7868
 20
116.576748413086
 11
188.88570234375
 21
116.761869506836
 72
 1
 10
188.88570234375
 20
116.761869506836
 11
189.00651875
 21
116.937404663086
 72
 1
 10
189.00651875
 20
116.937404663086
 11
189.14922578125
 21
117.103424194336
 72
 1
 10
189.14922578125
 20
117.103424194336
 11
189.3138
 21
117.259998413086
 72
 1
 10
189.3138
 20
117.259998413086
 11
189.49529609375
 21
117.402316772461
 72
 1
 10
189.49529609375
 20
117.402316772461
 11
189.68801875
 21
117.525545288086
 72
 1
 10
189.68801875
 20
117.525545288086
 11
189.89194453125
 21
117.629719116211
 72
 1
 10
189.89194453125
 20
117.629719116211
 11
190.10705
 21
117.714873413086
 72
 1
 10
190.10705
 20
117.714873413086
 11
190.33331171875
 21
117.781043334961
 72
 1
 10
190.33331171875
 20
117.781043334961
 11
190.57070625
 21
117.828264038086
 72
 1
 10
190.57070625
 20
117.828264038086
 11
190.81921015625
 21
117.856570678711
 72
 1
 10
190.81921015625
 20
117.856570678711
 11
191.0788
 21
117.865998413086
 72
 1
 10
191.0788
 20
117.865998413086
 11
191.330700390625
 21
117.856189819336
 72
 1
 10
191.330700390625
 20
117.856189819336
 11
191.571878125
 21
117.826717163086
 72
 1
 10
191.571878125
 20
117.826717163086
 11
191.802298046875
 21
117.777510131836
 72
 1
 10
191.802298046875
 20
117.777510131836
 11
192.021925
 21
117.708498413086
 72
 1
 10
192.021925
 20
117.708498413086
 11
192.230723828125
 21
117.619611694336
 72
 1
 10
192.230723828125
 20
117.619611694336
 11
192.428659375
 21
117.510779663086
 72
 1
 10
192.428659375
 20
117.510779663086
 11
192.615696484375
 21
117.381932006836
 72
 1
 10
192.615696484375
 20
117.381932006836
 11
192.7918
 21
117.232998413086
 72
 1
 10
192.7918
 20
117.232998413086
 11
193.0318
 21
116.976998413086
 72
 1
 10
193.0318
 20
116.976998413086
 11
193.067284375
 21
117.055414428711
 72
 1
 10
193.067284375
 20
117.055414428711
 11
193.1054875
 21
117.130889038086
 72
 1
 10
193.1054875
 20
117.130889038086
 11
193.146409375
 21
117.203387084961
 72
 1
 10
193.146409375
 20
117.203387084961
 11
193.19005
 21
117.272873413086
 72
 1
 10
193.19005
 20
117.272873413086
 11
193.236409375
 21
117.339312866211
 72
 1
 10
193.236409375
 20
117.339312866211
 11
193.2854875
 21
117.402670288086
 72
 1
 10
193.2854875
 20
117.402670288086
 11
193.337284375
 21
117.462910522461
 72
 1
 10
193.337284375
 20
117.462910522461
 11
193.3918
 21
117.519998413086
 72
 1
 10
193.3918
 20
117.519998413086
 11
193.545684765625
 21
117.657437866211
 72
 1
 10
193.545684765625
 20
117.657437866211
 11
193.719315625
 21
117.776514038086
 72
 1
 10
193.719315625
 20
117.776514038086
 11
193.912657421875
 21
117.877238647461
 72
 1
 10
193.912657421875
 20
117.877238647461
 11
194.125675
 21
117.959623413086
 72
 1
 10
194.125675
 20
117.959623413086
 11
194.358333203125
 21
118.023680053711
 72
 1
 10
194.358333203125
 20
118.023680053711
 11
194.610596875
 21
118.069420288086
 72
 1
 10
194.610596875
 20
118.069420288086
 11
194.882430859375
 21
118.096855834961
 72
 1
 10
194.882430859375
 20
118.096855834961
 11
195.1738
 21
118.105998413086
 72
 1
 10
195.1738
 20
118.105998413086
 11
195.513348828125
 21
118.095914428711
 72
 1
 10
195.513348828125
 20
118.095914428711
 11
195.835190625
 21
118.065639038086
 72
 1
 10
195.835190625
 20
118.065639038086
 11
196.139243359375
 21
118.015137084961
 72
 1
 10
196.139243359375
 20
118.015137084961
 11
196.425425
 21
117.944373413086
 72
 1
 10
196.425425
 20
117.944373413086
 11
196.693653515625
 21
117.853312866211
 72
 1
 10
196.693653515625
 20
117.853312866211
 11
196.943846875
 21
117.741920288086
 72
 1
 10
196.943846875
 20
117.741920288086
 11
197.175923046875
 21
117.610160522461
 72
 1
 10
197.175923046875
 20
117.610160522461
 11
197.3898
 21
117.457998413086
 72
 1
 10
197.3898
 20
117.457998413086
 11
197.58373359375
 21
117.288176147461
 72
 1
 10
197.58373359375
 20
117.288176147461
 11
197.75158125
 21
117.104232788086
 72
 1
 10
197.75158125
 20
117.104232788086
 11
197.89341328125
 21
116.906203491211
 72
 1
 10
197.89341328125
 20
116.906203491211
 11
198.0093
 21
116.694123413086
 72
 1
 10
198.0093
 20
116.694123413086
 11
198.09931171875
 21
116.468027709961
 72
 1
 10
198.09931171875
 20
116.468027709961
 11
198.16351875
 21
116.227951538086
 72
 1
 10
198.16351875
 20
116.227951538086
 11
198.20199140625
 21
115.973930053711
 72
 1
 10
198.20199140625
 20
115.973930053711
 11
198.2148
 21
115.705998413086
 72
 1
 10
198.2148
 20
115.705998413086
 11
198.202204296875
 21
115.430795288086
 72
 1
 10
198.202204296875
 20
115.430795288086
 11
198.164471875
 21
115.171435913086
 72
 1
 10
198.164471875
 20
115.171435913086
 11
198.101684765625
 21
114.927920288086
 72
 1
 10
198.101684765625
 20
114.927920288086
 11
198.013925
 21
114.700248413086
 72
 1
 10
198.013925
 20
114.700248413086
 11
197.901274609375
 21
114.488420288086
 72
 1
 10
197.901274609375
 20
114.488420288086
 11
197.763815625
 21
114.292435913086
 72
 1
 10
197.763815625
 20
114.292435913086
 11
197.601630078125
 21
114.112295288086
 72
 1
 10
197.601630078125
 20
114.112295288086
 11
197.4148
 21
113.947998413086
 72
 1
 10
197.4148
 20
113.947998413086
 11
197.20433515625
 21
113.800105834961
 72
 1
 10
197.20433515625
 20
113.800105834961
 11
196.97270625
 21
113.671420288086
 72
 1
 10
196.97270625
 20
113.671420288086
 11
196.71993671875
 21
113.561930053711
 72
 1
 10
196.71993671875
 20
113.561930053711
 11
196.44605
 21
113.471623413086
 72
 1
 10
196.44605
 20
113.471623413086
 11
196.15106953125
 21
113.400488647461
 72
 1
 10
196.15106953125
 20
113.400488647461
 11
195.83501875
 21
113.348514038086
 72
 1
 10
195.83501875
 20
113.348514038086
 11
195.49792109375
 21
113.315687866211
 72
 1
 10
195.49792109375
 20
113.315687866211
 11
195.1398
 21
113.301998413086
 72
 1
 10
195.1398
 20
113.301998413086
 11
195.1398
 21
114.205998413086
 72
 1
 10
195.1398
 20
114.205998413086
 11
195.37822578125
 21
114.214529663086
 72
 1
 10
195.37822578125
 20
114.214529663086
 11
195.60233125
 21
114.234873413086
 72
 1
 10
195.60233125
 20
114.234873413086
 11
195.81223359375
 21
114.267029663086
 72
 1
 10
195.81223359375
 20
114.267029663086
 11
196.00805
 21
114.310998413086
 72
 1
 10
196.00805
 20
114.310998413086
 11
196.18989765625
 21
114.366779663086
 72
 1
 10
196.18989765625
 20
114.366779663086
 11
196.35789375
 21
114.434373413086
 72
 1
 10
196.35789375
 20
114.434373413086
 11
196.51215546875
 21
114.513779663086
 72
 1
 10
196.51215546875
 20
114.513779663086
 11
196.6528
 21
114.604998413086
 72
 1
 10
196.6528
 20
114.604998413086
 11
196.777669140625
 21
114.707666381836
 72
 1
 10
196.777669140625
 20
114.707666381836
 11
196.886003125
 21
114.819967163086
 72
 1
 10
196.886003125
 20
114.819967163086
 11
196.977766796875
 21
114.941971069336
 72
 1
 10
196.977766796875
 20
114.941971069336
 11
197.052925
 21
115.073748413086
 72
 1
 10
197.052925
 20
115.073748413086
 11
197.111442578125
 21
115.215369506836
 72
 1
 10
197.111442578125
 20
115.215369506836
 11
197.153284375
 21
115.366904663086
 72
 1
 10
197.153284375
 20
115.366904663086
 11
197.178415234375
 21
115.528424194336
 72
 1
 10
197.178415234375
 20
115.528424194336
 11
197.1868
 21
115.699998413086
 72
 1
 10
197.1868
 20
115.699998413086
 11
197.179157421875
 21
115.861203491211
 72
 1
 10
197.179157421875
 20
115.861203491211
 11
197.156221875
 21
116.014826538086
 72
 1
 10
197.156221875
 20
116.014826538086
 11
197.117981640625
 21
116.160879272461
 72
 1
 10
197.117981640625
 20
116.160879272461
 11
197.064425
 21
116.299373413086
 72
 1
 10
197.064425
 20
116.299373413086
 11
196.995540234375
 21
116.430320678711
 72
 1
 10
196.995540234375
 20
116.430320678711
 11
196.911315625
 21
116.553732788086
 72
 1
 10
196.911315625
 20
116.553732788086
 11
196.811739453125
 21
116.669621459961
 72
 1
 10
196.811739453125
 20
116.669621459961
 11
196.6968
 21
116.777998413086
 72
 1
 10
196.6968
 20
116.777998413086
 11
196.5702921875
 21
116.875316772461
 72
 1
 10
196.5702921875
 20
116.875316772461
 11
196.43455
 21
116.959545288086
 72
 1
 10
196.43455
 20
116.959545288086
 11
196.2896203125
 21
117.030719116211
 72
 1
 10
196.2896203125
 20
117.030719116211
 11
196.13555
 21
117.088873413086
 72
 1
 10
196.13555
 20
117.088873413086
 11
195.9723859375
 21
117.134043334961
 72
 1
 10
195.9723859375
 20
117.134043334961
 11
195.800175
 21
117.166264038086
 72
 1
 10
195.800175
 20
117.166264038086
 11
195.6189640625
 21
117.185570678711
 72
 1
 10
195.6189640625
 20
117.185570678711
 11
195.4288
 21
117.191998413086
 72
 1
 10
195.4288
 20
117.191998413086
 11
195.22025703125
 21
117.185859741211
 72
 1
 10
195.22025703125
 20
117.185859741211
 11
195.02364375
 21
117.167451538086
 72
 1
 10
195.02364375
 20
117.167451538086
 11
194.83898359375
 21
117.136785522461
 72
 1
 10
194.83898359375
 20
117.136785522461
 11
194.6663
 21
117.093873413086
 72
 1
 10
194.6663
 20
117.093873413086
 11
194.50561640625
 21
117.038726928711
 72
 1
 10
194.50561640625
 20
117.038726928711
 11
194.35695625
 21
116.971357788086
 72
 1
 10
194.35695625
 20
116.971357788086
 11
194.22034296875
 21
116.891777709961
 72
 1
 10
194.22034296875
 20
116.891777709961
 11
194.0958
 21
116.799998413086
 72
 1
 10
194.0958
 20
116.799998413086
 11
193.9833859375
 21
116.697115600586
 72
 1
 10
193.9833859375
 20
116.697115600586
 11
193.8861125
 21
116.584248413086
 72
 1
 10
193.8861125
 20
116.584248413086
 11
193.8039328125
 21
116.461443725586
 72
 1
 10
193.8039328125
 20
116.461443725586
 11
193.7368
 21
116.328748413086
 72
 1
 10
193.7368
 20
116.328748413086
 11
193.6846671875
 21
116.186209350586
 72
 1
 10
193.6846671875
 20
116.186209350586
 11
193.6474875
 21
116.033873413086
 72
 1
 10
193.6474875
 20
116.033873413086
 11
193.6252140625
 21
115.871787475586
 72
 1
 10
193.6252140625
 20
115.871787475586
 11
193.6178
 21
115.699998413086
 72
 1
 10
193.6178
 20
115.699998413086
 11
193.6178
 21
115.170998413086
 72
 1
 10
193.6178
 20
115.170998413086
 11
192.6418
 21
115.170998413086
 72
 1
 10
192.6418
 20
115.170998413086
 11
192.6418
 21
115.603998413086
 72
 1
 10
192.6418
 20
115.603998413086
 11
192.6360265625
 21
115.767158569336
 72
 1
 10
192.6360265625
 20
115.767158569336
 11
192.618675
 21
115.919842163086
 72
 1
 10
192.618675
 20
115.919842163086
 11
192.5896984375
 21
116.061978881836
 72
 1
 10
192.5896984375
 20
116.061978881836
 11
192.54905
 21
116.193498413086
 72
 1
 10
192.54905
 20
116.193498413086
 11
192.4966828125
 21
116.314330444336
 72
 1
 10
192.4966828125
 20
116.314330444336
 11
192.43255
 21
116.424404663086
 72
 1
 10
192.43255
 20
116.424404663086
 11
192.3566046875
 21
116.523650756836
 72
 1
 10
192.3566046875
 20
116.523650756836
 11
192.2688
 21
116.611998413086
 72
 1
 10
192.2688
 20
116.611998413086
 11
192.1721046875
 21
116.691035522461
 72
 1
 10
192.1721046875
 20
116.691035522461
 11
192.06355
 21
116.759420288086
 72
 1
 10
192.06355
 20
116.759420288086
 11
191.9431828125
 21
116.817187866211
 72
 1
 10
191.9431828125
 20
116.817187866211
 11
191.81105
 21
116.864373413086
 72
 1
 10
191.81105
 20
116.864373413086
 11
191.6671984375
 21
116.901012084961
 72
 1
 10
191.6671984375
 20
116.901012084961
 11
191.511675
 21
116.927139038086
 72
 1
 10
191.511675
 20
116.927139038086
 11
191.3445265625
 21
116.942789428711
 72
 1
 10
191.3445265625
 20
116.942789428711
 11
191.1658
 21
116.947998413086
 97
 1
 330
93
 75
 0
 76
 1
 98
 1
 10
 0.0
 20
 0.0
 0
LINE
 5
94
100
AcDbEntity
 8
Layer8
100
AcDbLine
 39
0.25
 370
106
 10
189.5954
 20
156.727798413086
 30
0.0
 11
197.7404
 21
156.727798413086
 31
0.0
 0
LWPOLYLINE
 5
95
100
AcDbEntity
 8
Layer8
100
AcDbPolyline
 39
0.25
 370
106
 90
5              
 70
 1
 43
0.0
 10
105.5302
 20
75.9932984130859
 10
99.5892
 20
75.9932984130859
 10
99.5892
 20
83.1082984130859
 10
105.5302
 20
83.1082984130859
 10
105.5302
 20
75.9932984130859
 0
LWPOLYLINE
 5
96
100
AcDbEntity
 8
Layer8
100
AcDbPolyline
 39
0.25
 370
106
 90
5              
 70
 1
 43
0.0
 10
169.2462
 20
74.514298413086
 10
35.8782
 20
74.514298413086
 10
35.8782
 20
75.9942984130859
 10
169.2462
 20
75.9942984130859
 10
169.2462
 20
74.514298413086
 0
LWPOLYLINE
 5
97
100
AcDbEntity
 8
Layer8
100
AcDbPolyline
 39
0.25
 370
106
 90
5              
 70
 1
 43
0.0
 10
137.7572
 20
72.6142984130859
 10
130.3452
 20
72.6142984130859
 10
130.3452
 20
74.5152984130859
 10
137.7572
 20
74.5152984130859
 10
137.7572
 20
72.6142984130859
 0
LWPOLYLINE
 5
98
100
AcDbEntity
 8
Layer8
100
AcDbPolyline
 39
0.25
 370
106
 90
5              
 70
 1
 43
0.0
 10
74.7802
 20
72.6142984130859
 10
67.3662
 20
72.6142984130859
 10
67.3662
 20
74.5152984130859
 10
74.7802
 20
74.5152984130859
 10
74.7802
 20
72.6142984130859
 0
HATCH
 5
99
100
AcDbEntity
 8
Layer22
100
AcDbHatch
 10
 0.0
 20
 0.0
 30
 0.0
 210
 0.0
 220
 0.0
 230
 1.0
 2
SOLID
 70
 1
 71
 1
 91
1              
 92
 0
 93
42             
 72
 1
 10
27.5314
 20
13.6559984130859
 11
31.5694
 21
13.6559984130859
 72
 1
 10
31.5694
 20
13.6559984130859
 11
31.4484
 21
22.5369984130859
 72
 1
 10
31.4484
 20
22.5369984130859
 11
31.437288671875
 21
23.2187894287109
 72
 1
 10
31.437288671875
 20
23.2187894287109
 11
31.424759375
 21
23.9507015380859
 72
 1
 10
31.424759375
 20
23.9507015380859
 11
31.409394140625
 21
24.7155433349609
 72
 1
 10
31.409394140625
 20
24.7155433349609
 11
31.389775
 21
25.4961234130859
 72
 1
 10
31.389775
 20
25.4961234130859
 11
31.364483984375
 21
26.2752503662109
 72
 1
 10
31.364483984375
 20
26.2752503662109
 11
31.332103125
 21
27.0357327880859
 72
 1
 10
31.332103125
 20
27.0357327880859
 11
31.291214453125
 21
27.7603792724609
 72
 1
 10
31.291214453125
 20
27.7603792724609
 11
31.2404
 21
28.4319984130859
 72
 1
 10
31.2404
 20
28.4319984130859
 11
31.4262359375
 21
27.8761644287109
 72
 1
 10
31.4262359375
 20
27.8761644287109
 11
31.6838375
 21
27.1893265380859
 72
 1
 10
31.6838375
 20
27.1893265380859
 11
32.0009703125
 21
26.3946058349609
 72
 1
 10
32.0009703125
 20
26.3946058349609
 11
32.3654
 21
25.5151234130859
 72
 1
 10
32.3654
 20
25.5151234130859
 11
32.7648921875
 21
24.5740003662109
 72
 1
 10
32.7648921875
 20
24.5740003662109
 11
33.1872125
 21
23.5943577880859
 72
 1
 10
33.1872125
 20
23.5943577880859
 11
33.6201265625
 21
22.5993167724609
 72
 1
 10
33.6201265625
 20
22.5993167724609
 11
34.0514
 21
21.6119984130859
 72
 1
 10
34.0514
 20
21.6119984130859
 11
37.6114
 21
13.6559984130859
 72
 1
 10
37.6114
 20
13.6559984130859
 11
41.9774
 21
13.6559984130859
 72
 1
 10
41.9774
 20
13.6559984130859
 11
41.9774
 21
34.4419984130859
 72
 1
 10
41.9774
 20
34.4419984130859
 11
37.9994
 21
34.4419984130859
 72
 1
 10
37.9994
 20
34.4419984130859
 11
38.0894
 21
25.9479984130859
 72
 1
 10
38.0894
 20
25.9479984130859
 11
38.105749609375
 21
25.3567152099609
 72
 1
 10
38.105749609375
 20
25.3567152099609
 11
38.132071875
 21
24.6769202880859
 72
 1
 10
38.132071875
 20
24.6769202880859
 11
38.166901953125
 21
23.9353206787109
 72
 1
 10
38.166901953125
 20
23.9353206787109
 11
38.208775
 21
23.158623413086
 72
 1
 10
38.208775
 20
23.158623413086
 11
38.256226171875
 21
22.3735355224609
 72
 1
 10
38.256226171875
 20
22.3735355224609
 11
38.307790625
 21
21.606764038086
 72
 1
 10
38.307790625
 20
21.606764038086
 11
38.362003515625
 21
20.885015991211
 72
 1
 10
38.362003515625
 20
20.885015991211
 11
38.4174
 21
20.2349984130859
 72
 1
 10
38.4174
 20
20.2349984130859
 11
38.2427046875
 21
20.8266351318359
 72
 1
 10
38.2427046875
 20
20.8266351318359
 11
38.033275
 21
21.4751546630859
 72
 1
 10
38.033275
 20
21.4751546630859
 11
37.7908453125
 21
22.1728460693359
 72
 1
 10
37.7908453125
 20
22.1728460693359
 11
37.51715
 21
22.9119984130859
 72
 1
 10
37.51715
 20
22.9119984130859
 11
37.2139234375
 21
23.6849007568359
 72
 1
 10
37.2139234375
 20
23.6849007568359
 11
36.8829
 21
24.4838421630859
 72
 1
 10
36.8829
 20
24.4838421630859
 11
36.5258140625
 21
25.3011116943359
 72
 1
 10
36.5258140625
 20
25.3011116943359
 11
36.1444
 21
26.1289984130859
 72
 1
 10
36.1444
 20
26.1289984130859
 11
32.1684
 21
34.4419984130859
 72
 1
 10
32.1684
 20
34.4419984130859
 11
27.5314
 21
34.4419984130859
 72
 1
 10
27.5314
 20
34.4419984130859
 11
27.5314
 21
13.6559984130859
 97
 1
 330
9A
 75
 0
 76
 1
 98
 1
 10
 0.0
 20
 0.0
 0
HATCH
 5
9B
100
AcDbEntity
 8
Layer22
100
AcDbHatch
 10
 0.0
 20
 0.0
 30
 0.0
 210
 0.0
 220
 0.0
 230
 1.0
 2
SOLID
 70
 1
 71
 1
 91
1              
 92
 0
 93
12             
 72
 1
 10
44.4856
 20
34.4423984130859
 11
44.4856
 21
13.6563984130859
 72
 1
 10
44.4856
 20
13.6563984130859
 11
56.5996
 21
13.6563984130859
 72
 1
 10
56.5996
 20
13.6563984130859
 11
56.5996
 21
17.245398413086
 72
 1
 10
56.5996
 20
17.245398413086
 11
48.7346
 21
17.245398413086
 72
 1
 10
48.7346
 20
17.245398413086
 11
48.7346
 21
22.8073984130859
 72
 1
 10
48.7346
 20
22.8073984130859
 11
54.6246
 21
22.8073984130859
 72
 1
 10
54.6246
 20
22.8073984130859
 11
54.6246
 21
26.2183984130859
 72
 1
 10
54.6246
 20
26.2183984130859
 11
48.6726
 21
26.2183984130859
 72
 1
 10
48.6726
 20
26.2183984130859
 11
48.6726
 21
31.0323984130859
 72
 1
 10
48.6726
 20
31.0323984130859
 11
55.7906
 21
31.0323984130859
 72
 1
 10
55.7906
 20
31.0323984130859
 11
56.3296
 21
34.4423984130859
 72
 1
 10
56.3296
 20
34.4423984130859
 11
44.4856
 21
34.4423984130859
 97
 1
 330
9C
 75
 0
 76
 1
 98
 1
 10
 0.0
 20
 0.0
 0
HATCH
 5
9D
100
AcDbEntity
 8
Layer22
100
AcDbHatch
 10
 0.0
 20
 0.0
 30
 0.0
 210
 0.0
 220
 0.0
 230
 1.0
 2
SOLID
 70
 1
 71
 1
 91
1              
 92
 0
 93
49             
 72
 1
 10
58.153
 20
13.6559984130859
 11
62.37
 21
13.6559984130859
 72
 1
 10
62.37
 20
13.6559984130859
 11
63.087
 21
24.5129984130859
 72
 1
 10
63.087
 20
24.5129984130859
 11
63.118998046875
 21
24.989691772461
 72
 1
 10
63.118998046875
 20
24.989691772461
 11
63.147984375
 21
25.4574202880859
 72
 1
 10
63.147984375
 20
25.4574202880859
 11
63.173572265625
 21
25.9182816162109
 72
 1
 10
63.173572265625
 20
25.9182816162109
 11
63.195375
 21
26.3743734130859
 72
 1
 10
63.195375
 20
26.3743734130859
 11
63.213005859375
 21
26.8277933349609
 72
 1
 10
63.213005859375
 20
26.8277933349609
 11
63.226078125
 21
27.2806390380859
 72
 1
 10
63.226078125
 20
27.2806390380859
 11
63.234205078125
 21
27.735008178711
 72
 1
 10
63.234205078125
 20
27.735008178711
 11
63.237
 21
28.1929984130859
 72
 1
 10
63.237
 20
28.1929984130859
 11
67.036
 21
13.6559984130859
 72
 1
 10
67.036
 20
13.6559984130859
 11
70.715
 21
13.6559984130859
 72
 1
 10
70.715
 20
13.6559984130859
 11
71.969103515625
 21
18.021969116211
 72
 1
 10
71.969103515625
 20
18.021969116211
 11
72.914453125
 21
21.317514038086
 72
 1
 10
72.914453125
 20
21.317514038086
 11
73.598357421875
 21
23.7115823974609
 72
 1
 10
73.598357421875
 20
23.7115823974609
 11
74.068125
 21
25.3731234130859
 72
 1
 10
74.068125
 20
25.3731234130859
 11
74.371064453125
 21
26.471086303711
 72
 1
 10
74.371064453125
 20
26.471086303711
 11
74.554484375
 21
27.1744202880859
 72
 1
 10
74.554484375
 20
27.1744202880859
 11
74.665693359375
 21
27.652074584961
 72
 1
 10
74.665693359375
 20
27.652074584961
 11
74.752
 21
28.0729984130859
 72
 1
 10
74.752
 20
28.0729984130859
 11
74.79312109375
 21
27.1354007568359
 72
 1
 10
74.79312109375
 20
27.1354007568359
 11
74.90153125
 21
25.352904663086
 72
 1
 10
74.90153125
 20
25.352904663086
 11
75.05480078125
 21
23.024455444336
 72
 1
 10
75.05480078125
 20
23.024455444336
 11
75.2305
 21
20.4489984130859
 72
 1
 10
75.2305
 20
20.4489984130859
 11
75.40619921875
 21
17.9254788818359
 72
 1
 10
75.40619921875
 20
17.9254788818359
 11
75.55946875
 21
15.7528421630859
 72
 1
 10
75.55946875
 20
15.7528421630859
 11
75.66787890625
 21
14.2300335693359
 72
 1
 10
75.66787890625
 20
14.2300335693359
 11
75.709
 21
13.6559984130859
 72
 1
 10
75.709
 20
13.6559984130859
 11
79.837
 21
13.6559984130859
 72
 1
 10
79.837
 20
13.6559984130859
 11
77.983
 21
34.4419984130859
 72
 1
 10
77.983
 20
34.4419984130859
 11
72.509
 21
34.4419984130859
 72
 1
 10
72.509
 20
34.4419984130859
 11
71.403162109375
 21
30.3132562255859
 72
 1
 10
71.403162109375
 20
30.3132562255859
 11
70.569609375
 21
27.1974359130859
 72
 1
 10
70.569609375
 20
27.1974359130859
 11
69.966658203125
 21
24.9353968505859
 72
 1
 10
69.966658203125
 20
24.9353968505859
 11
69.552625
 21
23.3679984130859
 72
 1
 10
69.552625
 20
23.3679984130859
 11
69.285826171875
 21
22.3360999755859
 72
 1
 10
69.285826171875
 20
22.3360999755859
 11
69.124578125
 21
21.6805609130859
 72
 1
 10
69.124578125
 20
21.6805609130859
 11
69.027197265625
 21
21.2422406005859
 72
 1
 10
69.027197265625
 20
21.2422406005859
 11
68.952
 21
20.8619984130859
 72
 1
 10
68.952
 20
20.8619984130859
 11
68.752134765625
 21
21.7550179443359
 72
 1
 10
68.752134765625
 20
21.7550179443359
 11
68.337828125
 21
23.4386546630859
 72
 1
 10
68.337828125
 20
23.4386546630859
 11
67.783388671875
 21
25.6325257568359
 72
 1
 10
67.783388671875
 20
25.6325257568359
 11
67.163125
 21
28.0562484130859
 72
 1
 10
67.163125
 20
28.0562484130859
 11
66.551345703125
 21
30.4294398193359
 72
 1
 10
66.551345703125
 20
30.4294398193359
 11
66.022359375
 21
32.4717171630859
 72
 1
 10
66.022359375
 20
32.4717171630859
 11
65.650474609375
 21
33.902697631836
 72
 1
 10
65.650474609375
 20
33.902697631836
 11
65.51
 21
34.4419984130859
 72
 1
 10
65.51
 20
34.4419984130859
 11
60.098
 21
34.4419984130859
 72
 1
 10
60.098
 20
34.4419984130859
 11
58.153
 21
13.6559984130859
 97
 1
 330
9E
 75
 0
 76
 1
 98
 1
 10
 0.0
 20
 0.0
 0
HATCH
 5
9F
100
AcDbEntity
 8
Layer22
100
AcDbHatch
 10
 0.0
 20
 0.0
 30
 0.0
 210
 0.0
 220
 0.0
 230
 1.0
 2
SOLID
 70
 1
 71
 1
 91
2              
 92
 0
 93
56             
 72
 1
 10
93.7259
 20
28.8502984130859
 11
93.851472265625
 21
28.395380444336
 72
 1
 10
93.851472265625
 20
28.395380444336
 11
93.960415625
 21
27.9040171630859
 72
 1
 10
93.960415625
 20
27.9040171630859
 11
94.052694921875
 21
27.3734195068359
 72
 1
 10
94.052694921875
 20
27.3734195068359
 11
94.128275
 21
26.8007984130859
 72
 1
 10
94.128275
 20
26.8007984130859
 11
94.187120703125
 21
26.1833648193359
 72
 1
 10
94.187120703125
 20
26.1833648193359
 11
94.229196875
 21
25.5183296630859
 72
 1
 10
94.229196875
 20
25.5183296630859
 11
94.254468359375
 21
24.8029038818359
 72
 1
 10
94.254468359375
 20
24.8029038818359
 11
94.2629
 21
24.0342984130859
 72
 1
 10
94.2629
 20
24.0342984130859
 11
94.204597265625
 21
22.1923921630859
 72
 1
 10
94.204597265625
 20
22.1923921630859
 11
94.026165625
 21
20.6289234130859
 72
 1
 10
94.026165625
 20
20.6289234130859
 11
93.722319921875
 21
19.333767163086
 72
 1
 10
93.722319921875
 20
19.333767163086
 11
93.287775
 21
18.296798413086
 72
 1
 10
93.287775
 20
18.296798413086
 11
92.717245703125
 21
17.507892163086
 72
 1
 10
92.717245703125
 20
17.507892163086
 11
92.005446875
 21
16.9569234130859
 72
 1
 10
92.005446875
 20
16.9569234130859
 11
91.147093359375
 21
16.633767163086
 72
 1
 10
91.147093359375
 20
16.633767163086
 11
90.1369
 21
16.5282984130859
 72
 1
 10
90.1369
 20
16.5282984130859
 11
89.77353671875
 21
16.5394624755859
 72
 1
 10
89.77353671875
 20
16.5394624755859
 11
89.42468125
 21
16.5729859130859
 72
 1
 10
89.42468125
 20
16.5729859130859
 11
89.09068515625
 21
16.6289156005859
 72
 1
 10
89.09068515625
 20
16.6289156005859
 11
88.7719
 21
16.7072984130859
 72
 1
 10
88.7719
 20
16.7072984130859
 11
88.46867734375
 21
16.8081812255859
 72
 1
 10
88.46867734375
 20
16.8081812255859
 11
88.18136875
 21
16.9316109130859
 72
 1
 10
88.18136875
 20
16.9316109130859
 11
87.91032578125
 21
17.0776343505859
 72
 1
 10
87.91032578125
 20
17.0776343505859
 11
87.6559
 21
17.2462984130859
 72
 1
 10
87.6559
 20
17.2462984130859
 11
87.223249609375
 21
17.6537652099609
 72
 1
 10
87.223249609375
 20
17.6537652099609
 11
86.847259375
 21
18.183095288086
 72
 1
 10
86.847259375
 20
18.183095288086
 11
86.528245703125
 21
18.8353081787109
 72
 1
 10
86.528245703125
 20
18.8353081787109
 11
86.266525
 21
19.6114234130859
 72
 1
 10
86.266525
 20
19.6114234130859
 11
86.062413671875
 21
20.5124605224609
 72
 1
 10
86.062413671875
 20
20.5124605224609
 11
85.916228125
 21
21.5394390380859
 72
 1
 10
85.916228125
 20
21.5394390380859
 11
85.828284765625
 21
22.6933784912109
 72
 1
 10
85.828284765625
 20
22.6933784912109
 11
85.7989
 21
23.9752984130859
 72
 1
 10
85.7989
 20
23.9752984130859
 11
85.8144390625
 21
24.8854175537109
 72
 1
 10
85.8144390625
 20
24.8854175537109
 11
85.861525
 21
25.7334390380859
 72
 1
 10
85.861525
 20
25.7334390380859
 11
85.9408609375
 21
26.5218589599609
 72
 1
 10
85.9408609375
 20
26.5218589599609
 11
86.05315
 21
27.253173413086
 72
 1
 10
86.05315
 20
27.253173413086
 11
86.1990953125
 21
27.9298784912109
 72
 1
 10
86.1990953125
 20
27.9298784912109
 11
86.3794
 21
28.554470288086
 72
 1
 10
86.3794
 20
28.554470288086
 11
86.5947671875
 21
29.1294448974609
 72
 1
 10
86.5947671875
 20
29.1294448974609
 11
86.8459
 21
29.6572984130859
 72
 1
 10
86.8459
 20
29.6572984130859
 11
87.09042734375
 21
30.0532163818359
 72
 1
 10
87.09042734375
 20
30.0532163818359
 11
87.39305625
 21
30.4088921630859
 72
 1
 10
87.39305625
 20
30.4088921630859
 11
87.74748203125
 21
30.7204585693359
 72
 1
 10
87.74748203125
 20
30.7204585693359
 11
88.1474
 21
30.984048413086
 72
 1
 10
88.1474
 20
30.984048413086
 11
88.58650546875
 21
31.1957945068359
 72
 1
 10
88.58650546875
 20
31.1957945068359
 11
89.05849375
 21
31.3518296630859
 72
 1
 10
89.05849375
 20
31.3518296630859
 11
89.55706015625
 21
31.4482866943359
 72
 1
 10
89.55706015625
 20
31.4482866943359
 11
90.0759
 21
31.4812984130859
 72
 1
 10
90.0759
 20
31.4812984130859
 11
90.855230078125
 21
31.4112320068359
 72
 1
 10
90.855230078125
 20
31.4112320068359
 11
91.534540625
 21
31.2175796630859
 72
 1
 10
91.534540625
 20
31.2175796630859
 11
92.117687109375
 21
30.9251616943359
 72
 1
 10
92.117687109375
 20
30.9251616943359
 11
92.608525
 21
30.5587984130859
 72
 1
 10
92.608525
 20
30.5587984130859
 11
93.010909765625
 21
30.1433101318359
 72
 1
 10
93.010909765625
 20
30.1433101318359
 11
93.328696875
 21
29.7035171630859
 72
 1
 10
93.328696875
 20
29.7035171630859
 11
93.565741796875
 21
29.2642398193359
 72
 1
 10
93.565741796875
 20
29.2642398193359
 11
93.7259
 21
28.8502984130859
 97
 1
 330
A0
 92
 0
 93
56             
 72
 1
 10
85.8299
 20
33.6952984130859
 11
84.777370703125
 21
32.9899175537109
 72
 1
 10
84.777370703125
 20
32.9899175537109
 11
83.845978125
 21
32.1142515380859
 72
 1
 10
83.845978125
 20
32.1142515380859
 11
83.041640234375
 21
31.080640209961
 72
 1
 10
83.041640234375
 20
31.080640209961
 11
82.370275
 21
29.901423413086
 72
 1
 10
82.370275
 20
29.901423413086
 11
81.837800390625
 21
28.5889409912109
 72
 1
 10
81.837800390625
 20
28.5889409912109
 11
81.450134375
 21
27.1555327880859
 72
 1
 10
81.450134375
 20
27.1555327880859
 11
81.213194921875
 21
25.6135386474609
 72
 1
 10
81.213194921875
 20
25.6135386474609
 11
81.1329
 21
23.9752984130859
 72
 1
 10
81.1329
 20
23.9752984130859
 11
81.170714453125
 21
22.8509566162109
 72
 1
 10
81.170714453125
 20
22.8509566162109
 11
81.283915625
 21
21.7682515380859
 72
 1
 10
81.283915625
 20
21.7682515380859
 11
81.472140234375
 21
20.729163647461
 72
 1
 10
81.472140234375
 20
20.729163647461
 11
81.735025
 21
19.7356734130859
 72
 1
 10
81.735025
 20
19.7356734130859
 11
82.072206640625
 21
18.7897613037109
 72
 1
 10
82.072206640625
 20
18.7897613037109
 11
82.483321875
 21
17.8934077880859
 72
 1
 10
82.483321875
 20
17.8934077880859
 11
82.968007421875
 21
17.0485933349609
 72
 1
 10
82.968007421875
 20
17.0485933349609
 11
83.5259
 21
16.2572984130859
 72
 1
 10
83.5259
 20
16.2572984130859
 11
84.142648046875
 21
15.5393374755859
 72
 1
 10
84.142648046875
 20
15.5393374755859
 11
84.809259375
 21
14.9294234130859
 72
 1
 10
84.809259375
 20
14.9294234130859
 11
85.533409765625
 21
14.423759350586
 72
 1
 10
85.533409765625
 20
14.423759350586
 11
86.322775
 21
14.0185484130859
 72
 1
 10
86.322775
 20
14.0185484130859
 11
87.185030859375
 21
13.7099937255859
 72
 1
 10
87.185030859375
 20
13.7099937255859
 11
88.127853125
 21
13.4942984130859
 72
 1
 10
88.127853125
 20
13.4942984130859
 11
89.158917578125
 21
13.3676656005859
 72
 1
 10
89.158917578125
 20
13.3676656005859
 11
90.2859
 21
13.3262984130859
 72
 1
 10
90.2859
 20
13.3262984130859
 11
90.911136328125
 21
13.3392886474609
 72
 1
 10
90.911136328125
 20
13.3392886474609
 11
91.490728125
 21
13.3794077880859
 72
 1
 10
91.490728125
 20
13.3794077880859
 11
92.032374609375
 21
13.4483784912109
 72
 1
 10
92.032374609375
 20
13.4483784912109
 11
92.543775
 21
13.5479234130859
 72
 1
 10
92.543775
 20
13.5479234130859
 11
93.032628515625
 21
13.6797652099609
 72
 1
 10
93.032628515625
 20
13.6797652099609
 11
93.506634375
 21
13.8456265380859
 72
 1
 10
93.506634375
 20
13.8456265380859
 11
93.973491796875
 21
14.0472300537109
 72
 1
 10
93.973491796875
 20
14.0472300537109
 11
94.4409
 21
14.2862984130859
 72
 1
 10
94.4409
 20
14.2862984130859
 11
95.49988046875
 21
14.9977495849609
 72
 1
 10
95.49988046875
 20
14.9977495849609
 11
96.42899375
 21
15.873157788086
 72
 1
 10
96.42899375
 20
15.873157788086
 11
97.22474765625
 21
16.9051050537109
 72
 1
 10
97.22474765625
 20
16.9051050537109
 11
97.88365
 21
18.086173413086
 72
 1
 10
97.88365
 20
18.086173413086
 11
98.40220859375
 21
19.4089448974609
 72
 1
 10
98.40220859375
 20
19.4089448974609
 11
98.77693125
 21
20.866001538086
 72
 1
 10
98.77693125
 20
20.866001538086
 11
99.00432578125
 21
22.4499253662109
 72
 1
 10
99.00432578125
 20
22.4499253662109
 11
99.0809
 21
24.1532984130859
 72
 1
 10
99.0809
 20
24.1532984130859
 11
98.9234859375
 21
26.4792456787109
 72
 1
 10
98.9234859375
 20
26.4792456787109
 11
98.4613375
 21
28.554189038086
 72
 1
 10
98.4613375
 20
28.554189038086
 11
97.7095953125
 21
30.359905834961
 72
 1
 10
97.7095953125
 20
30.359905834961
 11
96.6834
 21
31.8781734130859
 72
 1
 10
96.6834
 20
31.8781734130859
 11
95.3978921875
 21
33.090769116211
 72
 1
 10
95.3978921875
 20
33.090769116211
 11
93.8682125
 21
33.9794702880859
 72
 1
 10
93.8682125
 20
33.9794702880859
 11
92.1095015625
 21
34.526054272461
 72
 1
 10
92.1095015625
 20
34.526054272461
 11
90.1369
 21
34.7122984130859
 72
 1
 10
90.1369
 20
34.7122984130859
 11
89.555335546875
 21
34.6955874755859
 72
 1
 10
89.555335546875
 20
34.6955874755859
 11
88.979759375
 21
34.6459234130859
 72
 1
 10
88.979759375
 20
34.6459234130859
 11
88.413347265625
 21
34.5640093505859
 72
 1
 10
88.413347265625
 20
34.5640093505859
 11
87.859275
 21
34.450548413086
 72
 1
 10
87.859275
 20
34.450548413086
 11
87.320718359375
 21
34.3062437255859
 72
 1
 10
87.320718359375
 20
34.3062437255859
 11
86.800853125
 21
34.131798413086
 72
 1
 10
86.800853125
 20
34.131798413086
 11
86.302855078125
 21
33.9279156005859
 72
 1
 10
86.302855078125
 20
33.9279156005859
 11
85.8299
 21
33.6952984130859
 97
 1
 330
A1
 75
 0
 76
 1
 98
 1
 10
 0.0
 20
 0.0
 0
ARC
 5
A2
100
AcDbEntity
 8
Layer8
100
AcDbCircle
 39
0.25
 370
106
 10
33.7811995116271
 20
123.844405290028
 30
0.0
 40
142.911643937901
100
AcDbArc
 50
-16.1440758530392
 51
2.32497075622348
 0
ARC
 5
A3
100
AcDbEntity
 8
Layer8
100
AcDbCircle
 39
0.25
 370
106
 10
67.0930682648745
 20
120.562461792778
 30
0.0
 40
109.857972292936
100
AcDbArc
 50
4.74075548428487
 51
17.7451059991523
 0
ARC
 5
A4
100
AcDbEntity
 8
Layer8
100
AcDbCircle
 39
0.25
 370
106
 10
168.014441695336
 20
152.80902314901
 30
0.0
 40
3.9103303194983
100
AcDbArc
 50
18.4306280263501
 51
88.1423593802375
 0
ARC
 5
A5
100
AcDbEntity
 8
Layer8
100
AcDbCircle
 39
0.25
 370
106
 10
38.3041914218495
 20
151.1833278896
 30
0.0
 40
5.69271743995954
100
AcDbArc
 50
103.562660532708
 51
-177.792145937076
 0
ARC
 5
A6
100
AcDbEntity
 8
Layer8
100
AcDbCircle
 39
0.25
 370
106
 10
165.182505151962
 20
117.421308698607
 30
0.0
 40
136.744546945504
100
AcDbArc
 50
165.800751550476
 51
178.736621028082
 0
ARC
 5
A7
100
AcDbEntity
 8
Layer8
100
AcDbCircle
 39
0.25
 370
106
 10
211.789066673838
 20
128.918306905065
 30
0.0
 40
183.513990501828
100
AcDbArc
 50
-177.350847819911
 51
-165.866439497606
 0
LINE
 5
A8
100
AcDbEntity
 8
Layer8
100
AcDbLine
 39
0.25
 370
106
 10
171.0572
 20
84.1072984130859
 30
0.0
 11
170.0982
 21
84.1072984130859
 31
0.0
 0
LINE
 5
A9
100
AcDbEntity
 8
Layer8
100
AcDbLine
 39
0.25
 370
106
 10
170.0982
 20
84.1072984130859
 30
0.0
 11
170.0982
 21
82.9982984130859
 31
0.0
 0
LINE
 5
AA
100
AcDbEntity
 8
Layer8
100
AcDbLine
 39
0.25
 370
106
 10
170.0982
 20
82.9982984130859
 30
0.0
 11
34.9482
 21
82.9982984130859
 31
0.0
 0
LINE
 5
AB
100
AcDbEntity
 8
Layer8
100
AcDbLine
 39
0.25
 370
106
 10
34.9482
 20
82.9982984130859
 30
0.0
 11
34.9482
 21
84.1072984130859
 31
0.0
 0
LINE
 5
AC
100
AcDbEntity
 8
Layer8
100
AcDbLine
 39
0.25
 370
106
 10
34.9482
 20
84.1072984130859
 30
0.0
 11
33.8302
 21
84.1072984130859
 31
0.0
 0
LINE
 5
AD
100
AcDbEntity
 8
Layer8
100
AcDbLine
 39
0.25
 370
106
 10
36.9692
 20
156.717298413086
 30
0.0
 11
168.1412
 21
156.717298413086
 31
0.0
  0
ENDSEC
  0
SECTION
  2
OBJECTS
  0
DICTIONARY
  5
19
100
AcDbDictionary
  3
ACAD_GROUP
350
1A
  3
ACAD_MLINESTYLE
350
1B
  0
DICTIONARY
  5
1A
102
{ACAD_REACTORS
330
19
102
}
100
AcDbDictionary
  0
DICTIONARY
  5
1B
102
{ACAD_REACTORS
330
19
102
}
100
AcDbDictionary
  3
STANDARD
350
1C
  0
MLINESTYLE
  5
1C
102
{ACAD_REACTORS
330
1B
102
}
100
AcDbMlineStyle
  2
STANDARD
 70
     0
  3

 62
     0
 51
90.0
 52
90.0
 71
     2
 49
0.5
 62
   256
  6
BYLAYER
 49
-0.5
 62
   256
  6
BYLAYER
  0
ENDSEC
  0
EOF
