 999
SCAN2CAD Date : 01/26/16
 999
SCAN2CAD ScalePixelX : 1
 999
SCAN2CAD ScalePixelY : 1
 999
SCAN2CAD TileXOffset : 0
 999
SCAN2CAD TileYOffset : 0
 999
SCAN2CAD MeasureType : 1
 999
SCAN2CAD DotsPerInch : 0
 999
SCAN2CAD GeScalePixX : 1
 999
SCAN2CAD GeScalePixY : 1
 999
SCAN2CAD GeRasTiePtX : 0
 999
SCAN2CAD GeRasTiePtY : 0
 999
SCAN2CAD ScalRasDist : 1
 999
SCAN2CAD ScalVecDist : 1
 999
SCAN2CAD ScalUnitTyp : 0
 999
SCAN2CAD ScalDistFac : 1
 999
SCAN2CAD ScalAdjustX : 1
 999
SCAN2CAD ScalAdjustY : 1
 999
SCAN2CAD MeasureMeth : 1
 999
SCAN2CAD OgDrawScale : 1
 999
SCAN2CAD OgDrawUType : 0
 999
SCAN2CAD ToDrawScale : 1
 999
SCAN2CAD ToDrawUType : 0
  0
SECTION
  2
HEADER
  9
$ACADVER
  1
AC1014
  9
$ACADMAINTVER
 70
     0
  9
$DWGCODEPAGE
  3
ANSI_1252
  9
$INSBASE
 10
0.0
 20
0.0
 30
0.0
 9
$EXTMIN
 10
27.9066
 20
14.1044170898438
 30
0.0
 9
$EXTMAX
 10
162.441
 20
489.223082289844
 30
0.0
 9
$LIMMIN
 10
0
 20
0
 9
$LIMMAX
 10
191
 20
515
  9
$ORTHOMODE
 70
     0
  9
$REGENMODE
 70
     1
  9
$FILLMODE
 70
     1
  9
$QTEXTMODE
 70
     0
  9
$MIRRTEXT
 70
     1
  9
$DRAGMODE
 70
     2
  9
$LTSCALE
 40
1.0
  9
$OSMODE
 70
     0
  9
$ATTMODE
 70
     1
  9
$TEXTSIZE
 40
0.2
  9
$TRACEWID
 40
0.05
  9
$TEXTSTYLE
  7
STANDARD
  9
$CLAYER
  8
0
  9
$CELTYPE
  6
CONTINUOUS
  9
$CECOLOR
 62
   256
  9
$CELTSCALE
 40
1.0
  9
$DELOBJ
 70
     1
  9
$DISPSILH
 70
     0
  9
$DIMSCALE
 40
1.0
  9
$DIMASZ
 40
0.18
  9
$DIMEXO
 40
0.0625
  9
$DIMDLI
 40
0.38
  9
$DIMRND
 40
0.0
  9
$DIMDLE
 40
0.0
  9
$DIMEXE
 40
0.18
  9
$DIMTP
 40
0.0
  9
$DIMTM
 40
0.0
  9
$DIMTXT
 40
0.18
  9
$DIMCEN
 40
0.09
  9
$DIMTSZ
 40
0.0
  9
$DIMTOL
 70
     0
  9
$DIMLIM
 70
     0
  9
$DIMTIH
 70
     1
  9
$DIMTOH
 70
     1
  9
$DIMSE1
 70
     0
  9
$DIMSE2
 70
     0
  9
$DIMTAD
 70
     0
  9
$DIMZIN
 70
     0
  9
$DIMBLK
  1

  9
$DIMASO
 70
     1
  9
$DIMSHO
 70
     1
  9
$DIMPOST
  1

  9
$DIMAPOST
  1

  9
$DIMALT
 70
     0
  9
$DIMALTD
 70
     2
  9
$DIMALTF
 40
25.4
  9
$DIMLFAC
 40
1.0
  9
$DIMTOFL
 70
     0
  9
$DIMTVP
 40
0.0
  9
$DIMTIX
 70
     0
  9
$DIMSOXD
 70
     0
  9
$DIMSAH
 70
     0
  9
$DIMBLK1
  1

  9
$DIMBLK2
  1

  9
$DIMSTYLE
  2
STANDARD
  9
$DIMCLRD
 70
     0
  9
$DIMCLRE
 70
     0
  9
$DIMCLRT
 70
     0
  9
$DIMTFAC
 40
1.0
  9
$DIMGAP
 40
0.09
  9
$DIMJUST
 70
     0
  9
$DIMSD1
 70
     0
  9
$DIMSD2
 70
     0
  9
$DIMTOLJ
 70
     1
  9
$DIMTZIN
 70
     0
  9
$DIMALTZ
 70
     0
  9
$DIMALTTZ
 70
     0
  9
$DIMFIT
 70
     3
  9
$DIMUPT
 70
     0
  9
$DIMUNIT
 70
     2
  9
$DIMDEC
 70
     4
  9
$DIMTDEC
 70
     4
  9
$DIMALTU
 70
     2
  9
$DIMALTTD
 70
     2
  9
$DIMTXSTY
  7
STANDARD
  9
$DIMAUNIT
 70
     0
  9
$LUNITS
 70
     2
  9
$LUPREC
 70
     4
  9
$SKETCHINC
 40
0.1
  9
$FILLETRAD
 40
0.0
  9
$AUNITS
 70
     0
  9
$AUPREC
 70
     0
  9
$MENU
  1
acad
  9
$ELEVATION
 40
0.0
  9
$PELEVATION
 40
0.0
  9
$THICKNESS
 40
0.0
  9
$LIMCHECK
 70
     0
  9
$BLIPMODE
 70
     1
  9
$CHAMFERA
 40
0.0
  9
$CHAMFERB
 40
0.0
  9
$CHAMFERC
 40
0.0
  9
$CHAMFERD
 40
0.0
  9
$SKPOLY
 70
     0
  9
$TDCREATE
 40
0.000000000
  9
$TDUPDATE
 40
0.000000000
  9
$TDINDWG
 40
0.0000000000
  9
$TDUSRTIMER
 40
0.0000000000
  9
$USRTIMER
 70
     1
  9
$ANGBASE
 50
0.0
  9
$ANGDIR
 70
     0
  9
$PDMODE
 70
     0
  9
$PDSIZE
 40
0.0
  9
$PLINEWID
 40
0.0
  9
$COORDS
 70
     0
  9
$SPLFRAME
 70
     0
  9
$SPLINETYPE
 70
     6
  9
$SPLINESEGS
 70
     8
  9
$ATTDIA
 70
     0
  9
$ATTREQ
 70
     1
  9
$HANDLING
 70
     1
  9
$HANDSEED
  5
     23A
  9
$SURFTAB1
 70
     6
  9
$SURFTAB2
 70
     6
  9
$SURFTYPE
 70
     6
  9
$SURFU
 70
     6
  9
$SURFV
 70
     6
  9
$UCSNAME
  2

  9
$UCSORG
 10
0.0
 20
0.0
 30
0.0
  9
$UCSXDIR
 10
1.0
 20
0.0
 30
0.0
  9
$UCSYDIR
 10
0.0
 20
1.0
 30
0.0
  9
$PUCSNAME
  2

  9
$PUCSORG
 10
0.0
 20
0.0
 30
0.0
  9
$PUCSXDIR
 10
1.0
 20
0.0
 30
0.0
  9
$PUCSYDIR
 10
0.0
 20
1.0
 30
0.0
  9
$USERI1
 70
     0
  9
$USERI2
 70
     0
  9
$USERI3
 70
     0
  9
$USERI4
 70
     0
  9
$USERI5
 70
     0
  9
$USERR1
 40
0.0
  9
$USERR2
 40
0.0
  9
$USERR3
 40
0.0
  9
$USERR4
 40
0.0
  9
$USERR5
 40
0.0
  9
$WORLDVIEW
 70
     1
  9
$SHADEDGE
 70
     3
  9
$SHADEDIF
 70
    70
  9
$TILEMODE
 70
     1
  9
$MAXACTVP
 70
    16
  9
$PINSBASE
 10
0.0
 20
0.0
 30
0.0
  9
$PLIMCHECK
 70
     0
 9
$PEXTMIN
 10
27.9066
 20
14.1044170898438
 30
0.0
 9
$PEXTMAX
 10
162.441
 20
489.223082289844
 30
0.0
 9
$PLIMMIN
 10
0
 20
0
 9
$PLIMMAX
 10
191
 20
515
  9
$UNITMODE
 70
     0
  9
$VISRETAIN
 70
     0
  9
$PLINEGEN
 70
     1
  9
$PSLTSCALE
 70
     0
  9
$TREEDEPTH
 70
  3020
  9
$PICKSTYLE
 70
     1
  9
$CMLSTYLE
  2
STANDARD
  9
$CMLJUST
 70
     0
  9
$CMLSCALE
 40
1.0
  9
$PROXYGRAPHICS
 70
     0
  9
$MEASUREMENT
 70
     0
  0
ENDSEC
  0
SECTION
  2
CLASSES
  0
CLASS
  1
LWPOLYLINE
  2
AcDbPolyline
  3
"AutoCAD"
 90
        0
280
     0
281
     1
  0
CLASS
  1
IMAGE
  2
AcDbRasterImage
  3
ISM
 90
      127
280
     0
281
     1
  0
CLASS
  1
OLE2FRAME
  2
AcDbOle2Frame
  3
""
 90
        0
280
     0
281
     1
  0
CLASS
  1
HATCH
  2
AcDbHatch
  3
"ACAD_SEDONA"
 90
        0
280
     0
281
     1
  0
CLASS
  1
DICTIONARYVAR
  2
AcDbDictionaryVar
  3
"AutoCAD"
 90
        0
280
     0
281
     0
  0
CLASS
  1
RASTERVARIABLES
  2
AcDbRasterVariables
  3
ISM
 90
        0
280
     0
281
     0
  0
CLASS
  1
IMAGEDEF
  2
AcDbRasterImageDef
  3
ISM
 90
        0
280
     0
281
     0
  0
CLASS
  1
IMAGEDEF_REACTOR
  2
AcDbRasterImageDefReactor
  3
ISM
 90
        1
280
     0
281
     0
  0
CLASS
  1
IDBUFFER
  2
AcDbIdBuffer
  3
"Acad"
 90
        0
280
     0
281
     0
  0
CLASS
  1
SPATIAL_FILTER
  2
AcDbSpatialFilter
  3
"Acad"
 90
        0
280
     0
281
     0
  0
CLASS
  1
XRECORD
  2
AcDbXrecord
  3
"<Built In>"
 90
        0
280
     0
281
     0
  0
CLASS
  1
SORTENTSTABLE
  2
AcDbSortentsTable
  3
"AutoCAD"
 90
        0
280
     0
281
     0
  0
CLASS
  1
LAYER_INDEX
  2
AcDbLayerIndex
  3
"Acad"
 90
        0
280
     0
281
     0
  0
CLASS
  1
SPATIAL_INDEX
  2
AcDbSpatialIndex
  3
"Acad"
 90
        0
280
     0
281
     0
  0
CLASS
  1
OBJECT_PTR
  2
CAseDLPNTableRecord
  3
"ASE-LPNTableRecord"
 90
        1
280
     0
281
     0
  0
ENDSEC
  0
SECTION
  2
TABLES
  0
TABLE
  2
VPORT
  5
7
100
AcDbSymbolTable
 70
     1
  0
VPORT
  5
15
100
AcDbSymbolTableRecord
100
AcDbViewportTableRecord
 2
*ACTIVE
 70
     0
 10
0
 20
0
 11
1.0
 21
1.0
 12
0.0
 22
0.0
 13
0.0
 23
0.0
 14
1.0
 24
1.0
 15
0.0
 25
0.0
 16
0.0
 26
0.0
 36
1.0
 17
95.1738
 27
251.663749689844
 37
0.0
 40
479.1186652
 41
0.28914423515972
 42
50.0
 43
0.0
 44
0.0
 50
0.0
 51
0.0
 71
     0
 72
   100
 73
     1
 74
     1
 75
     0
 76
     0
 77
     0
 78
     0
   0
ENDTAB
  0
TABLE
  2
LTYPE
  5
4
100
AcDbSymbolTable
 70
3
  0
LTYPE
  5
11
100
AcDbSymbolTableRecord
100
AcDbLinetypeTableRecord
  2
BYBLOCK
 70
     0
  3

 72
    65
 73
     0
 40
0.0
  0
LTYPE
  5
12
100
AcDbSymbolTableRecord
100
AcDbLinetypeTableRecord
  2
BYLAYER
 70
     0
  3

 72
    65
 73
     0
 40
0.0
  0
LTYPE
  5
80
330
5
100
AcDbSymbolTableRecord
100
AcDbLinetypeTableRecord
  2
CONTINUOUS
 70
     0
  3
Continuous
 72
    65
 73
     0
 40
0.0
  0
LTYPE
  5
81
330
5
100
AcDbSymbolTableRecord
100
AcDbLinetypeTableRecord
  2
DASH
 70
     0
  3
Dash
 72
    65
 73
     2
 40
48.0
 49
24.0
 74
     0
 49
-24.0
 74
     0
  0
LTYPE
  5
82
330
5
100
AcDbSymbolTableRecord
100
AcDbLinetypeTableRecord
  2
DASHDOT
 70
     0
  3
DashDot
 72
    65
 73
     4
 40
48.0
 49
24.0
 74
     0
 49
 -12.0
 74
     0
 49
0.0
 74
     0
 49
 -12.0
 74
     0	
  0
ENDTAB
  0
TABLE
  2
LAYER
  5
2
100
AcDbSymbolTable
 70
4              
  0
LAYER
  5
83
100
AcDbSymbolTableRecord
100
AcDbLayerTableRecord
  2
0
 70
     0
 62
     7
  6
CONTINUOUS
 0
LAYER
  5
84
100
AcDbSymbolTableRecord
100
AcDbLayerTableRecord
 2
Layer0
 70
 64
 62
 7
 6
CONTINUOUS
 0
LAYER
  5
85
100
AcDbSymbolTableRecord
100
AcDbLayerTableRecord
 2
Layer8
 70
 64
 62
 8
 6
CONTINUOUS
 0
LAYER
  5
86
100
AcDbSymbolTableRecord
100
AcDbLayerTableRecord
 2
Layer22
 70
 64
 62
 22
 6
CONTINUOUS
  0
ENDTAB
  0
TABLE
  2
STYLE
  5
3
100
AcDbSymbolTable
 70
1              
 0
STYLE
 5
17
100
AcDbSymbolTableRecord
100
AcDbTextStyleTableRecord
 2
STANDARD
 70
 0
 40
 0.0
 41
 1.0
 50
 0.0
 71
  0
 42
 8.0
 3
 txt
 4

  0
ENDTAB
  0
TABLE
  2
VIEW
  5
5
100
AcDbSymbolTable
 70
     0
  0
ENDTAB
  0
TABLE
  2
UCS
  5
6
100
AcDbSymbolTable
 70
     0
  0
ENDTAB
  0
TABLE
  2
APPID
  5
8
100
AcDbSymbolTable
 70
     1
  0
APPID
  5
16
100
AcDbSymbolTableRecord
100
AcDbRegAppTableRecord
  2
ACAD
 70
     0
  0
ENDTAB
  0
TABLE
  2
DIMSTYLE
  5
9
100
AcDbSymbolTable
 70
     1
  0
DIMSTYLE
105
18
100
AcDbSymbolTableRecord
100
AcDbDimStyleTableRecord
  2
STANDARD
 70
     0
  3

  4

  5

  6

  7

 40
1.0
 41
0.18
 42
0.0625
 43
0.38
 44
0.18
 45
0.0
 46
0.0
 47
0.0
 48
0.0
140
0.18
141
0.09
142
0.0
143
25.4
144
1.0
145
0.0
146
1.0
147
0.09
 71
     0
 72
     0
 73
     1
 74
     1
 75
     0
 76
     0
 77
     0
 78
     0
170
     0
171
     2
172
     0
173
     0
174
     0
175
     0
176
     0
177
     0
178
     0
270
     2
271
     4
272
     4
273
     2
274
     2
340
17
275
     0
280
     0
281
     0
282
     0
283
     1
284
     0
285
     0
286
     0
287
     0
288
     0
  0
ENDTAB
  0
TABLE
  2
BLOCK_RECORD
  5
1
100
AcDbSymbolTable
 70
     0
  0
BLOCK_RECORD
  5
A
100
AcDbSymbolTableRecord
100
AcDbBlockTableRecord
  2
*MODEL_SPACE
  0
BLOCK_RECORD
  5
B
100
AcDbSymbolTableRecord
100
AcDbBlockTableRecord
  2
*PAPER_SPACE
  0
ENDTAB
  0
ENDSEC
  0
SECTION
  2
BLOCKS
  0
BLOCK
  5
D
100
AcDbEntity
  8
0
100
AcDbBlockBegin
  2
*MODEL_SPACE
 70
     0
 10
0.0
 20
0.0
 30
0.0
  3
*MODEL_SPACE
  1

  0
ENDBLK
  5
E
100
AcDbEntity
  8
0
100
AcDbBlockEnd
  0
BLOCK
  5
F
100
AcDbEntity
 67
     1
  8
0
100
AcDbBlockBegin
  2
*PAPER_SPACE
 70
     0
 10
0.0
 20
0.0
 30
0.0
  3
*PAPER_SPACE
  1

  0
ENDBLK
  5
10
100
AcDbEntity
 67
     1
  8
0
100
AcDbBlockEnd
 0
ENDSEC
 0
SECTION
 2
ENTITIES
 0
LINE
 5
87
100
AcDbEntity
 8
Layer8
100
AcDbLine
 39
0.25
 370
106
 10
157.1693
 20
171.908817089844
 30
0.0
 11
157.1693
 21
177.168817089844
 31
0.0
 0
LINE
 5
88
100
AcDbEntity
 8
Layer8
100
AcDbLine
 39
0.25
 370
106
 10
114.9523
 20
171.908817089844
 30
0.0
 11
114.9523
 21
177.168817089844
 31
0.0
 0
LINE
 5
89
100
AcDbEntity
 8
Layer8
100
AcDbLine
 39
0.25
 370
106
 10
39.612
 20
475.723617089844
 30
0.0
 11
44.872
 21
475.723617089844
 31
0.0
 0
LINE
 5
8A
100
AcDbEntity
 8
Layer8
100
AcDbLine
 39
0.25
 370
106
 10
39.612
 20
482.089717089844
 30
0.0
 11
44.872
 21
482.089717089844
 31
0.0
 0
LINE
 5
8B
100
AcDbEntity
 8
Layer8
100
AcDbLine
 39
0.25
 370
106
 10
39.7246
 20
262.937117089844
 30
0.0
 11
44.9846
 21
262.937117089844
 31
0.0
 0
LINE
 5
8C
100
AcDbEntity
 8
Layer8
100
AcDbLine
 39
0.25
 370
106
 10
39.7246
 20
267.030917089844
 30
0.0
 11
44.9846
 21
267.030917089844
 31
0.0
 0
LINE
 5
8D
100
AcDbEntity
 8
Layer8
100
AcDbLine
 39
0.25
 370
106
 10
73.2473
 20
171.908817089844
 30
0.0
 11
73.2473
 21
177.168817089844
 31
0.0
 0
LWPOLYLINE
 5
8E
100
AcDbEntity
 8
Layer8
100
AcDbPolyline
 39
0.25
 370
106
 90
5              
 70
 1
 43
0.0
 10
63.22
 20
262.787017089844
 10
59.219
 20
262.787017089844
 10
59.219
 20
264.077017089844
 10
63.22
 20
264.077017089844
 10
63.22
 20
262.787017089844
 0
LWPOLYLINE
 5
8F
100
AcDbEntity
 8
Layer8
100
AcDbPolyline
 39
0.25
 370
106
 90
5              
 70
 1
 43
0.0
 10
62.114
 20
474.937017089844
 10
60.376
 20
474.937017089844
 10
60.376
 20
475.414017089844
 10
62.114
 20
475.414017089844
 10
62.114
 20
474.937017089844
 0
LWPOLYLINE
 5
90
100
AcDbEntity
 8
Layer8
100
AcDbPolyline
 39
0.25
 370
106
 90
5              
 70
 1
 43
0.0
 10
68.143
 20
475.413017089844
 10
54.385
 20
475.413017089844
 10
54.385
 20
481.807017089844
 10
68.143
 20
481.807017089844
 10
68.143
 20
475.413017089844
 0
LINE
 5
91
100
AcDbEntity
 8
Layer8
100
AcDbLine
 39
0.25
 370
106
 10
51.1033
 20
171.908817089844
 30
0.0
 11
51.1033
 21
177.168817089844
 31
0.0
 0
LINE
 5
92
100
AcDbEntity
 8
Layer8
100
AcDbLine
 39
0.25
 370
106
 10
61.262
 20
266.790017089844
 30
0.0
 11
61.262
 21
475.413017089844
 31
0.0
 0
LINE
 5
93
100
AcDbEntity
 8
Layer8
100
AcDbLine
 39
0.25
 370
106
 10
65.475
 20
262.930017089844
 30
0.0
 11
62.929625
 21
263.337642089844
 31
0.0
 0
LINE
 5
94
100
AcDbEntity
 8
Layer8
100
AcDbLine
 39
0.25
 370
106
 10
62.929625
 20
263.337642089844
 30
0.0
 11
61.264
 21
263.443017089844
 31
0.0
 0
LINE
 5
95
100
AcDbEntity
 8
Layer8
100
AcDbLine
 39
0.25
 370
106
 10
61.264
 20
263.443017089844
 30
0.0
 11
61.346
 21
266.724017089844
 31
0.0
 0
LINE
 5
96
100
AcDbEntity
 8
Layer8
100
AcDbLine
 39
0.25
 370
106
 10
61.346
 20
266.724017089844
 30
0.0
 11
64.213375
 21
266.473642089844
 31
0.0
 0
LINE
 5
97
100
AcDbEntity
 8
Layer8
100
AcDbLine
 39
0.25
 370
106
 10
64.213375
 20
266.473642089844
 30
0.0
 11
65.619
 21
266.101017089844
 31
0.0
 0
LINE
 5
98
100
AcDbEntity
 8
Layer8
100
AcDbLine
 39
0.25
 370
106
 10
65.619
 20
266.101017089844
 30
0.0
 11
65.475
 21
262.930017089844
 31
0.0
 0
ARC
 5
99
100
AcDbEntity
 8
Layer8
100
AcDbCircle
 39
0.25
 370
106
 10
62.0813008567469
 20
234.337639584886
 30
0.0
 40
32.4627179949273
100
AcDbArc
 50
78.1112716303472
 51
91.4461964075061
 0
LINE
 5
9A
100
AcDbEntity
 8
Layer8
100
AcDbLine
 39
0.25
 370
106
 10
68.769
 20
266.104017089844
 30
0.0
 11
65.619
 21
266.101017089844
 31
0.0
 0
LINE
 5
9B
100
AcDbEntity
 8
Layer8
100
AcDbLine
 39
0.25
 370
106
 10
65.619
 20
266.101017089844
 30
0.0
 11
64.677375
 21
266.326173339844
 31
0.0
 0
LINE
 5
9C
100
AcDbEntity
 8
Layer8
100
AcDbLine
 39
0.25
 370
106
 10
64.677375
 20
266.326173339844
 30
0.0
 11
61.262
 21
266.790017089844
 31
0.0
 0
LWPOLYLINE
 5
9D
100
AcDbEntity
 8
Layer8
100
AcDbPolyline
 39
0.25
 370
106
 90
5              
 70
 1
 43
0.0
 10
68.403
 20
262.926017089844
 10
68.769
 20
266.104017089844
 10
65.619
 20
266.101017089844
 10
65.475
 20
262.930017089844
 10
68.403
 20
262.926017089844
 0
LINE
 5
9E
100
AcDbEntity
 8
Layer8
100
AcDbLine
 39
0.25
 370
106
 10
65.475
 20
262.930017089844
 30
0.0
 11
62.929625
 21
263.337642089844
 31
0.0
 0
LINE
 5
9F
100
AcDbEntity
 8
Layer8
100
AcDbLine
 39
0.25
 370
106
 10
62.929625
 20
263.337642089844
 30
0.0
 11
61.264
 21
263.443017089844
 31
0.0
 0
LINE
 5
A0
100
AcDbEntity
 8
Layer8
100
AcDbLine
 39
0.25
 370
106
 10
61.264
 20
263.443017089844
 30
0.0
 11
61.346
 21
266.724017089844
 31
0.0
 0
LINE
 5
A1
100
AcDbEntity
 8
Layer8
100
AcDbLine
 39
0.25
 370
106
 10
61.346
 20
266.724017089844
 30
0.0
 11
64.213375
 21
266.473642089844
 31
0.0
 0
LINE
 5
A2
100
AcDbEntity
 8
Layer8
100
AcDbLine
 39
0.25
 370
106
 10
64.213375
 20
266.473642089844
 30
0.0
 11
65.619
 21
266.101017089844
 31
0.0
 0
LINE
 5
A3
100
AcDbEntity
 8
Layer8
100
AcDbLine
 39
0.25
 370
106
 10
65.619
 20
266.101017089844
 30
0.0
 11
65.475
 21
262.930017089844
 31
0.0
 0
LINE
 5
A4
100
AcDbEntity
 8
Layer8
100
AcDbLine
 39
0.25
 370
106
 10
71.422
 20
266.104017089844
 30
0.0
 11
71.26325
 21
266.463485839844
 31
0.0
 0
LINE
 5
A5
100
AcDbEntity
 8
Layer8
100
AcDbLine
 39
0.25
 370
106
 10
71.26325
 20
266.463485839844
 30
0.0
 11
70.152
 21
266.654767089844
 31
0.0
 0
LINE
 5
A6
100
AcDbEntity
 8
Layer8
100
AcDbLine
 39
0.25
 370
106
 10
70.152
 20
266.654767089844
 30
0.0
 11
61.262
 21
266.790017089844
 31
0.0
 0
LINE
 5
A7
100
AcDbEntity
 8
Layer8
100
AcDbLine
 39
0.25
 370
106
 10
61.262
 20
266.790017089844
 30
0.0
 11
61.264
 21
263.443017089844
 31
0.0
 0
LINE
 5
A8
100
AcDbEntity
 8
Layer8
100
AcDbLine
 39
0.25
 370
106
 10
61.264
 20
263.443017089844
 30
0.0
 11
68.451
 21
263.191017089844
 31
0.0
 0
LINE
 5
A9
100
AcDbEntity
 8
Layer8
100
AcDbLine
 39
0.25
 370
106
 10
68.451
 20
263.191017089844
 30
0.0
 11
70.829
 21
262.954017089844
 31
0.0
 0
LINE
 5
AA
100
AcDbEntity
 8
Layer8
100
AcDbLine
 39
0.25
 370
106
 10
70.829
 20
262.954017089844
 30
0.0
 11
71.422
 21
266.104017089844
 31
0.0
 0
LINE
 5
AB
100
AcDbEntity
 8
Layer8
100
AcDbLine
 39
0.25
 370
106
 10
57.05
 20
262.930017089844
 30
0.0
 11
59.59175
 21
263.337642089844
 31
0.0
 0
LINE
 5
AC
100
AcDbEntity
 8
Layer8
100
AcDbLine
 39
0.25
 370
106
 10
59.59175
 20
263.337642089844
 30
0.0
 11
61.256
 21
263.443017089844
 31
0.0
 0
LINE
 5
AD
100
AcDbEntity
 8
Layer8
100
AcDbLine
 39
0.25
 370
106
 10
61.256
 20
263.443017089844
 30
0.0
 11
61.18
 21
266.724017089844
 31
0.0
 0
LINE
 5
AE
100
AcDbEntity
 8
Layer8
100
AcDbLine
 39
0.25
 370
106
 10
61.18
 20
266.724017089844
 30
0.0
 11
58.30725
 21
266.473642089844
 31
0.0
 0
LINE
 5
AF
100
AcDbEntity
 8
Layer8
100
AcDbLine
 39
0.25
 370
106
 10
58.30725
 20
266.473642089844
 30
0.0
 11
56.906
 21
266.101017089844
 31
0.0
 0
LINE
 5
B0
100
AcDbEntity
 8
Layer8
100
AcDbLine
 39
0.25
 370
106
 10
56.906
 20
266.101017089844
 30
0.0
 11
57.05
 21
262.930017089844
 31
0.0
 0
ARC
 5
B1
100
AcDbEntity
 8
Layer8
100
AcDbCircle
 39
0.25
 370
106
 10
60.4423008042331
 20
234.322499248753
 30
0.0
 40
32.4778635617108
100
AcDbArc
 50
88.5537751946985
 51
101.885990796378
 0
LINE
 5
B2
100
AcDbEntity
 8
Layer8
100
AcDbLine
 39
0.25
 370
106
 10
53.753
 20
266.104017089844
 30
0.0
 11
56.906
 21
266.101017089844
 31
0.0
 0
LINE
 5
B3
100
AcDbEntity
 8
Layer8
100
AcDbLine
 39
0.25
 370
106
 10
56.906
 20
266.101017089844
 30
0.0
 11
57.845453125
 21
266.326173339844
 31
0.0
 0
LINE
 5
B4
100
AcDbEntity
 8
Layer8
100
AcDbLine
 39
0.25
 370
106
 10
57.845453125
 20
266.326173339844
 30
0.0
 11
61.262
 21
266.790017089844
 31
0.0
 0
LWPOLYLINE
 5
B5
100
AcDbEntity
 8
Layer8
100
AcDbPolyline
 39
0.25
 370
106
 90
5              
 70
 1
 43
0.0
 10
54.121
 20
262.926017089844
 10
53.753
 20
266.104017089844
 10
56.906
 20
266.101017089844
 10
57.05
 20
262.930017089844
 10
54.121
 20
262.926017089844
 0
LINE
 5
B6
100
AcDbEntity
 8
Layer8
100
AcDbLine
 39
0.25
 370
106
 10
57.05
 20
262.930017089844
 30
0.0
 11
59.59175
 21
263.337642089844
 31
0.0
 0
LINE
 5
B7
100
AcDbEntity
 8
Layer8
100
AcDbLine
 39
0.25
 370
106
 10
59.59175
 20
263.337642089844
 30
0.0
 11
61.256
 21
263.443017089844
 31
0.0
 0
LINE
 5
B8
100
AcDbEntity
 8
Layer8
100
AcDbLine
 39
0.25
 370
106
 10
61.256
 20
263.443017089844
 30
0.0
 11
61.18
 21
266.724017089844
 31
0.0
 0
LINE
 5
B9
100
AcDbEntity
 8
Layer8
100
AcDbLine
 39
0.25
 370
106
 10
61.18
 20
266.724017089844
 30
0.0
 11
58.30725
 21
266.473642089844
 31
0.0
 0
LINE
 5
BA
100
AcDbEntity
 8
Layer8
100
AcDbLine
 39
0.25
 370
106
 10
58.30725
 20
266.473642089844
 30
0.0
 11
56.906
 21
266.101017089844
 31
0.0
 0
LINE
 5
BB
100
AcDbEntity
 8
Layer8
100
AcDbLine
 39
0.25
 370
106
 10
56.906
 20
266.101017089844
 30
0.0
 11
57.05
 21
262.930017089844
 31
0.0
 0
LWPOLYLINE
 5
BC
100
AcDbEntity
 8
Layer8
100
AcDbPolyline
 39
0.25
 370
106
 90
5              
 70
 1
 43
0.0
 10
70.829
 20
262.954017089844
 10
69.5
 20
262.973017089844
 10
68.437
 20
263.095017089844
 10
68.451
 20
263.191017089844
 10
70.829
 20
262.954017089844
 0
LWPOLYLINE
 5
BD
100
AcDbEntity
 8
Layer8
100
AcDbPolyline
 39
0.25
 370
106
 90
5              
 70
 1
 43
0.0
 10
51.697
 20
262.954017089844
 10
53.022
 20
262.973017089844
 10
54.088
 20
263.095017089844
 10
54.075
 20
263.191017089844
 10
51.697
 20
262.954017089844
 0
CIRCLE
 5
BE
100
AcDbEntity
 8
Layer8
100
AcDbCircle
 39
0.25
 370
106
 10
60.741
 20
208.397517089844
 30
0.0
 40
8.70075000000001
 370
106
 0
LINE
 5
BF
100
AcDbEntity
 8
Layer8
100
AcDbLine
 39
0.25
 370
106
 10
51.104
 20
266.104017089844
 30
0.0
 11
51.26046875
 21
266.463485839844
 31
0.0
 0
LINE
 5
C0
100
AcDbEntity
 8
Layer8
100
AcDbLine
 39
0.25
 370
106
 10
51.26046875
 20
266.463485839844
 30
0.0
 11
52.37075
 21
266.654767089844
 31
0.0
 0
LINE
 5
C1
100
AcDbEntity
 8
Layer8
100
AcDbLine
 39
0.25
 370
106
 10
52.37075
 20
266.654767089844
 30
0.0
 11
61.262
 21
266.790017089844
 31
0.0
 0
LINE
 5
C2
100
AcDbEntity
 8
Layer8
100
AcDbLine
 39
0.25
 370
106
 10
61.262
 20
266.790017089844
 30
0.0
 11
61.256
 21
263.443017089844
 31
0.0
 0
LINE
 5
C3
100
AcDbEntity
 8
Layer8
100
AcDbLine
 39
0.25
 370
106
 10
61.256
 20
263.443017089844
 30
0.0
 11
54.075
 21
263.191017089844
 31
0.0
 0
LINE
 5
C4
100
AcDbEntity
 8
Layer8
100
AcDbLine
 39
0.25
 370
106
 10
54.075
 20
263.191017089844
 30
0.0
 11
51.697
 21
262.954017089844
 31
0.0
 0
LINE
 5
C5
100
AcDbEntity
 8
Layer8
100
AcDbLine
 39
0.25
 370
106
 10
51.697
 20
262.954017089844
 30
0.0
 11
51.104
 21
266.104017089844
 31
0.0
 0
CIRCLE
 5
C6
100
AcDbEntity
 8
Layer8
100
AcDbCircle
 39
0.25
 370
106
 10
60.6987
 20
208.355717089844
 30
0.0
 40
6.87825
 370
106
 0
LWPOLYLINE
 5
C7
100
AcDbEntity
 8
Layer8
100
AcDbPolyline
 39
0.25
 370
106
 90
5              
 70
 1
 43
0.0
 10
146.002
 20
481.809017089844
 10
125.738
 20
481.809017089844
 10
125.738
 20
477.030017089844
 10
146.002
 20
477.030017089844
 10
146.002
 20
481.809017089844
 0
LWPOLYLINE
 5
C8
100
AcDbEntity
 8
Layer8
100
AcDbPolyline
 39
0.25
 370
106
 90
5              
 70
 1
 43
0.0
 10
161.928
 20
475.962017089844
 10
142.446
 20
475.962017089844
 10
142.446
 20
477.128017089844
 10
161.928
 20
477.128017089844
 10
161.928
 20
475.962017089844
 0
LWPOLYLINE
 5
C9
100
AcDbEntity
 8
Layer8
100
AcDbPolyline
 39
0.25
 370
106
 90
5              
 70
 1
 43
0.0
 10
142.446
 20
477.125017089844
 10
129.371
 20
477.125017089844
 10
129.371
 20
475.960017089844
 10
142.446
 20
475.960017089844
 10
142.446
 20
477.125017089844
 0
LWPOLYLINE
 5
CA
100
AcDbEntity
 8
Layer8
100
AcDbPolyline
 39
0.25
 370
106
 90
5              
 70
 1
 43
0.0
 10
129.37
 20
475.962017089844
 10
107.601
 20
475.962017089844
 10
107.601
 20
477.033017089844
 10
129.37
 20
477.033017089844
 10
129.37
 20
475.962017089844
 0
LINE
 5
CB
100
AcDbEntity
 8
Layer8
100
AcDbLine
 39
0.25
 370
106
 10
52.7636
 20
474.937417089844
 30
0.0
 11
69.9116
 21
474.937417089844
 31
0.0
 0
LINE
 5
CC
100
AcDbEntity
 8
Layer8
100
AcDbLine
 39
0.25
 370
106
 10
148.524
 20
277.759017089844
 30
0.0
 11
148.524
 21
475.861017089844
 31
0.0
 0
LINE
 5
CD
100
AcDbEntity
 8
Layer8
100
AcDbLine
 39
0.25
 370
106
 10
152.736
 20
273.898017089844
 30
0.0
 11
150.194375
 21
274.308017089844
 31
0.0
 0
LINE
 5
CE
100
AcDbEntity
 8
Layer8
100
AcDbLine
 39
0.25
 370
106
 10
150.194375
 20
274.308017089844
 30
0.0
 11
148.531
 21
274.412017089844
 31
0.0
 0
LINE
 5
CF
100
AcDbEntity
 8
Layer8
100
AcDbLine
 39
0.25
 370
106
 10
148.531
 20
274.412017089844
 30
0.0
 11
148.608
 21
277.694017089844
 31
0.0
 0
LINE
 5
D0
100
AcDbEntity
 8
Layer8
100
AcDbLine
 39
0.25
 370
106
 10
148.608
 20
277.694017089844
 30
0.0
 11
151.478625
 21
277.443517089844
 31
0.0
 0
LINE
 5
D1
100
AcDbEntity
 8
Layer8
100
AcDbLine
 39
0.25
 370
106
 10
151.478625
 20
277.443517089844
 30
0.0
 11
152.883
 21
277.070017089844
 31
0.0
 0
LINE
 5
D2
100
AcDbEntity
 8
Layer8
100
AcDbLine
 39
0.25
 370
106
 10
152.883
 20
277.070017089844
 30
0.0
 11
152.736
 21
273.898017089844
 31
0.0
 0
ARC
 5
D3
100
AcDbEntity
 8
Layer8
100
AcDbCircle
 39
0.25
 370
106
 10
149.354643037504
 20
245.401555299267
 30
0.0
 40
32.3681216845275
100
AcDbArc
 50
78.0911089497029
 51
91.4705074968812
 0
LINE
 5
D4
100
AcDbEntity
 8
Layer8
100
AcDbLine
 39
0.25
 370
106
 10
156.034
 20
277.073017089844
 30
0.0
 11
152.883
 21
277.070017089844
 31
0.0
 0
LINE
 5
D5
100
AcDbEntity
 8
Layer8
100
AcDbLine
 39
0.25
 370
106
 10
152.883
 20
277.070017089844
 30
0.0
 11
151.941828125
 21
277.295485839844
 31
0.0
 0
LINE
 5
D6
100
AcDbEntity
 8
Layer8
100
AcDbLine
 39
0.25
 370
106
 10
151.941828125
 20
277.295485839844
 30
0.0
 11
148.524
 21
277.759017089844
 31
0.0
 0
LWPOLYLINE
 5
D7
100
AcDbEntity
 8
Layer8
100
AcDbPolyline
 39
0.25
 370
106
 90
5              
 70
 1
 43
0.0
 10
155.67
 20
273.895017089844
 10
156.034
 20
277.073017089844
 10
152.883
 20
277.070017089844
 10
152.736
 20
273.898017089844
 10
155.67
 20
273.895017089844
 0
LINE
 5
D8
100
AcDbEntity
 8
Layer8
100
AcDbLine
 39
0.25
 370
106
 10
152.736
 20
273.898017089844
 30
0.0
 11
150.194375
 21
274.308017089844
 31
0.0
 0
LINE
 5
D9
100
AcDbEntity
 8
Layer8
100
AcDbLine
 39
0.25
 370
106
 10
150.194375
 20
274.308017089844
 30
0.0
 11
148.531
 21
274.412017089844
 31
0.0
 0
LINE
 5
DA
100
AcDbEntity
 8
Layer8
100
AcDbLine
 39
0.25
 370
106
 10
148.531
 20
274.412017089844
 30
0.0
 11
148.608
 21
277.694017089844
 31
0.0
 0
LINE
 5
DB
100
AcDbEntity
 8
Layer8
100
AcDbLine
 39
0.25
 370
106
 10
148.608
 20
277.694017089844
 30
0.0
 11
151.478625
 21
277.443517089844
 31
0.0
 0
LINE
 5
DC
100
AcDbEntity
 8
Layer8
100
AcDbLine
 39
0.25
 370
106
 10
151.478625
 20
277.443517089844
 30
0.0
 11
152.883
 21
277.070017089844
 31
0.0
 0
LINE
 5
DD
100
AcDbEntity
 8
Layer8
100
AcDbLine
 39
0.25
 370
106
 10
152.883
 20
277.070017089844
 30
0.0
 11
152.736
 21
273.898017089844
 31
0.0
 0
LINE
 5
DE
100
AcDbEntity
 8
Layer8
100
AcDbLine
 39
0.25
 370
106
 10
158.686
 20
277.073017089844
 30
0.0
 11
158.52721875
 21
277.433048339844
 31
0.0
 0
LINE
 5
DF
100
AcDbEntity
 8
Layer8
100
AcDbLine
 39
0.25
 370
106
 10
158.52721875
 20
277.433048339844
 30
0.0
 11
157.41575
 21
277.624517089844
 31
0.0
 0
LINE
 5
E0
100
AcDbEntity
 8
Layer8
100
AcDbLine
 39
0.25
 370
106
 10
157.41575
 20
277.624517089844
 30
0.0
 11
148.524
 21
277.759017089844
 31
0.0
 0
LINE
 5
E1
100
AcDbEntity
 8
Layer8
100
AcDbLine
 39
0.25
 370
106
 10
148.524
 20
277.759017089844
 30
0.0
 11
148.531
 21
274.412017089844
 31
0.0
 0
LINE
 5
E2
100
AcDbEntity
 8
Layer8
100
AcDbLine
 39
0.25
 370
106
 10
148.531
 20
274.412017089844
 30
0.0
 11
155.711
 21
274.160017089844
 31
0.0
 0
LINE
 5
E3
100
AcDbEntity
 8
Layer8
100
AcDbLine
 39
0.25
 370
106
 10
155.711
 20
274.160017089844
 30
0.0
 11
158.093
 21
273.924017089844
 31
0.0
 0
LINE
 5
E4
100
AcDbEntity
 8
Layer8
100
AcDbLine
 39
0.25
 370
106
 10
158.093
 20
273.924017089844
 30
0.0
 11
158.686
 21
277.073017089844
 31
0.0
 0
LINE
 5
E5
100
AcDbEntity
 8
Layer8
100
AcDbLine
 39
0.25
 370
106
 10
144.311
 20
273.898017089844
 30
0.0
 11
146.856625
 21
274.308017089844
 31
0.0
 0
LINE
 5
E6
100
AcDbEntity
 8
Layer8
100
AcDbLine
 39
0.25
 370
106
 10
146.856625
 20
274.308017089844
 30
0.0
 11
148.518
 21
274.412017089844
 31
0.0
 0
LINE
 5
E7
100
AcDbEntity
 8
Layer8
100
AcDbLine
 39
0.25
 370
106
 10
148.518
 20
274.412017089844
 30
0.0
 11
148.441
 21
277.694017089844
 31
0.0
 0
LINE
 5
E8
100
AcDbEntity
 8
Layer8
100
AcDbLine
 39
0.25
 370
106
 10
148.441
 20
277.694017089844
 30
0.0
 11
145.573
 21
277.443517089844
 31
0.0
 0
LINE
 5
E9
100
AcDbEntity
 8
Layer8
100
AcDbLine
 39
0.25
 370
106
 10
145.573
 20
277.443517089844
 30
0.0
 11
144.169
 21
277.070017089844
 31
0.0
 0
LINE
 5
EA
100
AcDbEntity
 8
Layer8
100
AcDbLine
 39
0.25
 370
106
 10
144.169
 20
277.070017089844
 30
0.0
 11
144.311
 21
273.898017089844
 31
0.0
 0
ARC
 5
EB
100
AcDbEntity
 8
Layer8
100
AcDbCircle
 39
0.25
 370
106
 10
147.693235984743
 20
245.422349781596
 30
0.0
 40
32.3473371617095
100
AcDbArc
 50
88.5283330779473
 51
101.912815715991
 0
LINE
 5
EC
100
AcDbEntity
 8
Layer8
100
AcDbLine
 39
0.25
 370
106
 10
141.016
 20
277.073017089844
 30
0.0
 11
144.169
 21
277.070017089844
 31
0.0
 0
LINE
 5
ED
100
AcDbEntity
 8
Layer8
100
AcDbLine
 39
0.25
 370
106
 10
144.169
 20
277.070017089844
 30
0.0
 11
145.109734375
 21
277.295485839844
 31
0.0
 0
LINE
 5
EE
100
AcDbEntity
 8
Layer8
100
AcDbLine
 39
0.25
 370
106
 10
145.109734375
 20
277.295485839844
 30
0.0
 11
148.524
 21
277.759017089844
 31
0.0
 0
LWPOLYLINE
 5
EF
100
AcDbEntity
 8
Layer8
100
AcDbPolyline
 39
0.25
 370
106
 90
5              
 70
 1
 43
0.0
 10
141.388
 20
273.895017089844
 10
141.016
 20
277.073017089844
 10
144.169
 20
277.070017089844
 10
144.311
 20
273.898017089844
 10
141.388
 20
273.895017089844
 0
LINE
 5
F0
100
AcDbEntity
 8
Layer8
100
AcDbLine
 39
0.25
 370
106
 10
144.311
 20
273.898017089844
 30
0.0
 11
146.856625
 21
274.308017089844
 31
0.0
 0
LINE
 5
F1
100
AcDbEntity
 8
Layer8
100
AcDbLine
 39
0.25
 370
106
 10
146.856625
 20
274.308017089844
 30
0.0
 11
148.518
 21
274.412017089844
 31
0.0
 0
LINE
 5
F2
100
AcDbEntity
 8
Layer8
100
AcDbLine
 39
0.25
 370
106
 10
148.518
 20
274.412017089844
 30
0.0
 11
148.441
 21
277.694017089844
 31
0.0
 0
LINE
 5
F3
100
AcDbEntity
 8
Layer8
100
AcDbLine
 39
0.25
 370
106
 10
148.441
 20
277.694017089844
 30
0.0
 11
145.573
 21
277.443517089844
 31
0.0
 0
LINE
 5
F4
100
AcDbEntity
 8
Layer8
100
AcDbLine
 39
0.25
 370
106
 10
145.573
 20
277.443517089844
 30
0.0
 11
144.169
 21
277.070017089844
 31
0.0
 0
LINE
 5
F5
100
AcDbEntity
 8
Layer8
100
AcDbLine
 39
0.25
 370
106
 10
144.169
 20
277.070017089844
 30
0.0
 11
144.311
 21
273.898017089844
 31
0.0
 0
LWPOLYLINE
 5
F6
100
AcDbEntity
 8
Layer8
100
AcDbPolyline
 39
0.25
 370
106
 90
5              
 70
 1
 43
0.0
 10
158.093
 20
273.924017089844
 10
156.763
 20
273.944017089844
 10
155.702
 20
274.064017089844
 10
155.711
 20
274.160017089844
 10
158.093
 20
273.924017089844
 0
LWPOLYLINE
 5
F7
100
AcDbEntity
 8
Layer8
100
AcDbPolyline
 39
0.25
 370
106
 90
5              
 70
 1
 43
0.0
 10
150.484
 20
273.756017089844
 10
146.483
 20
273.756017089844
 10
146.483
 20
275.046017089844
 10
150.484
 20
275.046017089844
 10
150.484
 20
273.756017089844
 0
LINE
 5
F8
100
AcDbEntity
 8
Layer8
100
AcDbLine
 39
0.25
 370
106
 10
138.368
 20
277.073017089844
 30
0.0
 11
138.525
 21
277.433048339844
 31
0.0
 0
LINE
 5
F9
100
AcDbEntity
 8
Layer8
100
AcDbLine
 39
0.25
 370
106
 10
138.525
 20
277.433048339844
 30
0.0
 11
139.63525
 21
277.624517089844
 31
0.0
 0
LINE
 5
FA
100
AcDbEntity
 8
Layer8
100
AcDbLine
 39
0.25
 370
106
 10
139.63525
 20
277.624517089844
 30
0.0
 11
148.524
 21
277.759017089844
 31
0.0
 0
LINE
 5
FB
100
AcDbEntity
 8
Layer8
100
AcDbLine
 39
0.25
 370
106
 10
148.524
 20
277.759017089844
 30
0.0
 11
148.518
 21
274.412017089844
 31
0.0
 0
LINE
 5
FC
100
AcDbEntity
 8
Layer8
100
AcDbLine
 39
0.25
 370
106
 10
148.518
 20
274.412017089844
 30
0.0
 11
141.336
 21
274.160017089844
 31
0.0
 0
LINE
 5
FD
100
AcDbEntity
 8
Layer8
100
AcDbLine
 39
0.25
 370
106
 10
141.336
 20
274.160017089844
 30
0.0
 11
138.96
 21
273.924017089844
 31
0.0
 0
LINE
 5
FE
100
AcDbEntity
 8
Layer8
100
AcDbLine
 39
0.25
 370
106
 10
138.96
 20
273.924017089844
 30
0.0
 11
138.368
 21
277.073017089844
 31
0.0
 0
LINE
 5
FF
100
AcDbEntity
 8
Layer8
100
AcDbLine
 39
0.25
 370
106
 10
152.283
 20
303.031017089844
 30
0.0
 11
152.283
 21
475.826017089844
 31
0.0
 0
LINE
 5
100
100
AcDbEntity
 8
Layer8
100
AcDbLine
 39
0.25
 370
106
 10
156.496
 20
299.168017089844
 30
0.0
 11
153.949125
 21
299.577392089844
 31
0.0
 0
LINE
 5
101
100
AcDbEntity
 8
Layer8
100
AcDbLine
 39
0.25
 370
106
 10
153.949125
 20
299.577392089844
 30
0.0
 11
152.285
 21
299.683017089844
 31
0.0
 0
LINE
 5
102
100
AcDbEntity
 8
Layer8
100
AcDbLine
 39
0.25
 370
106
 10
152.285
 20
299.683017089844
 30
0.0
 11
152.364
 21
302.964017089844
 31
0.0
 0
LINE
 5
103
100
AcDbEntity
 8
Layer8
100
AcDbLine
 39
0.25
 370
106
 10
152.364
 20
302.964017089844
 30
0.0
 11
155.234625
 21
302.712017089844
 31
0.0
 0
LINE
 5
104
100
AcDbEntity
 8
Layer8
100
AcDbLine
 39
0.25
 370
106
 10
155.234625
 20
302.712017089844
 30
0.0
 11
156.639
 21
302.340017089844
 31
0.0
 0
LINE
 5
105
100
AcDbEntity
 8
Layer8
100
AcDbLine
 39
0.25
 370
106
 10
156.639
 20
302.340017089844
 30
0.0
 11
156.496
 21
299.168017089844
 31
0.0
 0
ARC
 5
106
100
AcDbEntity
 8
Layer8
100
AcDbCircle
 39
0.25
 370
106
 10
153.09193559616
 20
270.613734194002
 30
0.0
 40
32.4273743486544
100
AcDbArc
 50
78.0812126634842
 51
91.4294528930444
 0
LINE
 5
107
100
AcDbEntity
 8
Layer8
100
AcDbLine
 39
0.25
 370
106
 10
159.789
 20
302.342017089844
 30
0.0
 11
156.639
 21
302.340017089844
 31
0.0
 0
LINE
 5
108
100
AcDbEntity
 8
Layer8
100
AcDbLine
 39
0.25
 370
106
 10
156.639
 20
302.340017089844
 30
0.0
 11
152.283
 21
303.031017089844
 31
0.0
 0
LINE
 5
109
100
AcDbEntity
 8
Layer8
100
AcDbLine
 39
0.25
 370
106
 10
156.496
 20
299.168017089844
 30
0.0
 11
153.949125
 21
299.577392089844
 31
0.0
 0
LINE
 5
10A
100
AcDbEntity
 8
Layer8
100
AcDbLine
 39
0.25
 370
106
 10
153.949125
 20
299.577392089844
 30
0.0
 11
152.285
 21
299.683017089844
 31
0.0
 0
LINE
 5
10B
100
AcDbEntity
 8
Layer8
100
AcDbLine
 39
0.25
 370
106
 10
152.285
 20
299.683017089844
 30
0.0
 11
152.364
 21
302.964017089844
 31
0.0
 0
LINE
 5
10C
100
AcDbEntity
 8
Layer8
100
AcDbLine
 39
0.25
 370
106
 10
152.364
 20
302.964017089844
 30
0.0
 11
155.234625
 21
302.712017089844
 31
0.0
 0
LINE
 5
10D
100
AcDbEntity
 8
Layer8
100
AcDbLine
 39
0.25
 370
106
 10
155.234625
 20
302.712017089844
 30
0.0
 11
156.639
 21
302.340017089844
 31
0.0
 0
LINE
 5
10E
100
AcDbEntity
 8
Layer8
100
AcDbLine
 39
0.25
 370
106
 10
156.639
 20
302.340017089844
 30
0.0
 11
156.496
 21
299.168017089844
 31
0.0
 0
LINE
 5
10F
100
AcDbEntity
 8
Layer8
100
AcDbLine
 39
0.25
 370
106
 10
162.441
 20
302.342017089844
 30
0.0
 11
162.28228125
 21
302.702657714844
 31
0.0
 0
LINE
 5
110
100
AcDbEntity
 8
Layer8
100
AcDbLine
 39
0.25
 370
106
 10
162.28228125
 20
302.702657714844
 30
0.0
 11
161.17125
 21
302.894642089844
 31
0.0
 0
LINE
 5
111
100
AcDbEntity
 8
Layer8
100
AcDbLine
 39
0.25
 370
106
 10
161.17125
 20
302.894642089844
 30
0.0
 11
152.283
 21
303.031017089844
 31
0.0
 0
LINE
 5
112
100
AcDbEntity
 8
Layer8
100
AcDbLine
 39
0.25
 370
106
 10
152.283
 20
303.031017089844
 30
0.0
 11
152.285
 21
299.683017089844
 31
0.0
 0
LINE
 5
113
100
AcDbEntity
 8
Layer8
100
AcDbLine
 39
0.25
 370
106
 10
152.285
 20
299.683017089844
 30
0.0
 11
159.468
 21
299.431017089844
 31
0.0
 0
LINE
 5
114
100
AcDbEntity
 8
Layer8
100
AcDbLine
 39
0.25
 370
106
 10
159.468
 20
299.431017089844
 30
0.0
 11
161.847
 21
299.194017089844
 31
0.0
 0
LINE
 5
115
100
AcDbEntity
 8
Layer8
100
AcDbLine
 39
0.25
 370
106
 10
161.847
 20
299.194017089844
 30
0.0
 11
162.441
 21
302.342017089844
 31
0.0
 0
LINE
 5
116
100
AcDbEntity
 8
Layer8
100
AcDbLine
 39
0.25
 370
106
 10
148.07
 20
299.168017089844
 30
0.0
 11
150.6125
 21
299.577392089844
 31
0.0
 0
LINE
 5
117
100
AcDbEntity
 8
Layer8
100
AcDbLine
 39
0.25
 370
106
 10
150.6125
 20
299.577392089844
 30
0.0
 11
152.276
 21
299.683017089844
 31
0.0
 0
LINE
 5
118
100
AcDbEntity
 8
Layer8
100
AcDbLine
 39
0.25
 370
106
 10
152.276
 20
299.683017089844
 30
0.0
 11
152.2
 21
302.964017089844
 31
0.0
 0
LINE
 5
119
100
AcDbEntity
 8
Layer8
100
AcDbLine
 39
0.25
 370
106
 10
152.2
 20
302.964017089844
 30
0.0
 11
149.327875
 21
302.712017089844
 31
0.0
 0
LINE
 5
11A
100
AcDbEntity
 8
Layer8
100
AcDbLine
 39
0.25
 370
106
 10
149.327875
 20
302.712017089844
 30
0.0
 11
147.925
 21
302.340017089844
 31
0.0
 0
LINE
 5
11B
100
AcDbEntity
 8
Layer8
100
AcDbLine
 39
0.25
 370
106
 10
147.925
 20
302.340017089844
 30
0.0
 11
148.07
 21
299.168017089844
 31
0.0
 0
ARC
 5
11C
100
AcDbEntity
 8
Layer8
100
AcDbCircle
 39
0.25
 370
106
 10
151.472543740594
 20
270.581693380684
 30
0.0
 40
32.4594431333968
100
AcDbArc
 50
88.5692746147144
 51
101.913116081363
 0
LINE
 5
11D
100
AcDbEntity
 8
Layer8
100
AcDbLine
 39
0.25
 370
106
 10
144.772
 20
302.342017089844
 30
0.0
 11
147.925
 21
302.340017089844
 31
0.0
 0
LINE
 5
11E
100
AcDbEntity
 8
Layer8
100
AcDbLine
 39
0.25
 370
106
 10
147.925
 20
302.340017089844
 30
0.0
 11
152.283
 21
303.031017089844
 31
0.0
 0
LWPOLYLINE
 5
11F
100
AcDbEntity
 8
Layer8
100
AcDbPolyline
 39
0.25
 370
106
 90
5              
 70
 1
 43
0.0
 10
145.141
 20
299.166017089844
 10
144.772
 20
302.342017089844
 10
147.925
 20
302.340017089844
 10
148.07
 20
299.168017089844
 10
145.141
 20
299.166017089844
 0
LINE
 5
120
100
AcDbEntity
 8
Layer8
100
AcDbLine
 39
0.25
 370
106
 10
148.07
 20
299.168017089844
 30
0.0
 11
150.6125
 21
299.577392089844
 31
0.0
 0
LINE
 5
121
100
AcDbEntity
 8
Layer8
100
AcDbLine
 39
0.25
 370
106
 10
150.6125
 20
299.577392089844
 30
0.0
 11
152.276
 21
299.683017089844
 31
0.0
 0
LINE
 5
122
100
AcDbEntity
 8
Layer8
100
AcDbLine
 39
0.25
 370
106
 10
152.276
 20
299.683017089844
 30
0.0
 11
152.2
 21
302.964017089844
 31
0.0
 0
LINE
 5
123
100
AcDbEntity
 8
Layer8
100
AcDbLine
 39
0.25
 370
106
 10
152.2
 20
302.964017089844
 30
0.0
 11
149.327875
 21
302.712017089844
 31
0.0
 0
LINE
 5
124
100
AcDbEntity
 8
Layer8
100
AcDbLine
 39
0.25
 370
106
 10
149.327875
 20
302.712017089844
 30
0.0
 11
147.925
 21
302.340017089844
 31
0.0
 0
LINE
 5
125
100
AcDbEntity
 8
Layer8
100
AcDbLine
 39
0.25
 370
106
 10
147.925
 20
302.340017089844
 30
0.0
 11
148.07
 21
299.168017089844
 31
0.0
 0
LWPOLYLINE
 5
126
100
AcDbEntity
 8
Layer8
100
AcDbPolyline
 39
0.25
 370
106
 90
5              
 70
 1
 43
0.0
 10
154.24
 20
299.025017089844
 10
150.239
 20
299.025017089844
 10
150.239
 20
300.316017089844
 10
154.24
 20
300.316017089844
 10
154.24
 20
299.025017089844
 0
LINE
 5
127
100
AcDbEntity
 8
Layer8
100
AcDbLine
 39
0.25
 370
106
 10
142.12
 20
302.342017089844
 30
0.0
 11
142.278796875
 21
302.702657714844
 31
0.0
 0
LINE
 5
128
100
AcDbEntity
 8
Layer8
100
AcDbLine
 39
0.25
 370
106
 10
142.278796875
 20
302.702657714844
 30
0.0
 11
143.390375
 21
302.894642089844
 31
0.0
 0
LINE
 5
129
100
AcDbEntity
 8
Layer8
100
AcDbLine
 39
0.25
 370
106
 10
143.390375
 20
302.894642089844
 30
0.0
 11
152.283
 21
303.031017089844
 31
0.0
 0
LINE
 5
12A
100
AcDbEntity
 8
Layer8
100
AcDbLine
 39
0.25
 370
106
 10
152.283
 20
303.031017089844
 30
0.0
 11
152.276
 21
299.683017089844
 31
0.0
 0
LINE
 5
12B
100
AcDbEntity
 8
Layer8
100
AcDbLine
 39
0.25
 370
106
 10
152.276
 20
299.683017089844
 30
0.0
 11
145.095
 21
299.431017089844
 31
0.0
 0
LINE
 5
12C
100
AcDbEntity
 8
Layer8
100
AcDbLine
 39
0.25
 370
106
 10
145.095
 20
299.431017089844
 30
0.0
 11
142.716
 21
299.194017089844
 31
0.0
 0
LINE
 5
12D
100
AcDbEntity
 8
Layer8
100
AcDbLine
 39
0.25
 370
106
 10
142.716
 20
299.194017089844
 30
0.0
 11
142.12
 21
302.342017089844
 31
0.0
 0
LINE
 5
12E
100
AcDbEntity
 8
Layer8
100
AcDbLine
 39
0.25
 370
106
 10
118.465
 20
299.091017089844
 30
0.0
 11
118.465
 21
475.826017089844
 31
0.0
 0
LINE
 5
12F
100
AcDbEntity
 8
Layer8
100
AcDbLine
 39
0.25
 370
106
 10
122.676
 20
295.229017089844
 30
0.0
 11
120.13475
 21
295.638267089844
 31
0.0
 0
LINE
 5
130
100
AcDbEntity
 8
Layer8
100
AcDbLine
 39
0.25
 370
106
 10
120.13475
 20
295.638267089844
 30
0.0
 11
118.474
 21
295.743017089844
 31
0.0
 0
LINE
 5
131
100
AcDbEntity
 8
Layer8
100
AcDbLine
 39
0.25
 370
106
 10
118.474
 20
295.743017089844
 30
0.0
 11
118.545
 21
299.025017089844
 31
0.0
 0
LINE
 5
132
100
AcDbEntity
 8
Layer8
100
AcDbLine
 39
0.25
 370
106
 10
118.545
 20
299.025017089844
 30
0.0
 11
121.41825
 21
298.773642089844
 31
0.0
 0
LINE
 5
133
100
AcDbEntity
 8
Layer8
100
AcDbLine
 39
0.25
 370
106
 10
121.41825
 20
298.773642089844
 30
0.0
 11
122.823
 21
298.400017089844
 31
0.0
 0
LINE
 5
134
100
AcDbEntity
 8
Layer8
100
AcDbLine
 39
0.25
 370
106
 10
122.823
 20
298.400017089844
 30
0.0
 11
122.676
 21
295.229017089844
 31
0.0
 0
ARC
 5
135
100
AcDbEntity
 8
Layer8
100
AcDbCircle
 39
0.25
 370
106
 10
119.290621069507
 20
266.66152857712
 30
0.0
 40
32.4399965374114
100
AcDbArc
 50
78.1142304757258
 51
91.4583759598288
 0
LINE
 5
136
100
AcDbEntity
 8
Layer8
100
AcDbLine
 39
0.25
 370
106
 10
125.972
 20
298.406017089844
 30
0.0
 11
122.823
 21
298.400017089844
 31
0.0
 0
LINE
 5
137
100
AcDbEntity
 8
Layer8
100
AcDbLine
 39
0.25
 370
106
 10
122.823
 20
298.400017089844
 30
0.0
 11
121.88184375
 21
298.626063964844
 31
0.0
 0
LINE
 5
138
100
AcDbEntity
 8
Layer8
100
AcDbLine
 39
0.25
 370
106
 10
121.88184375
 20
298.626063964844
 30
0.0
 11
118.465
 21
299.091017089844
 31
0.0
 0
LINE
 5
139
100
AcDbEntity
 8
Layer8
100
AcDbLine
 39
0.25
 370
106
 10
122.676
 20
295.229017089844
 30
0.0
 11
120.13475
 21
295.638267089844
 31
0.0
 0
LINE
 5
13A
100
AcDbEntity
 8
Layer8
100
AcDbLine
 39
0.25
 370
106
 10
120.13475
 20
295.638267089844
 30
0.0
 11
118.474
 21
295.743017089844
 31
0.0
 0
LINE
 5
13B
100
AcDbEntity
 8
Layer8
100
AcDbLine
 39
0.25
 370
106
 10
118.474
 20
295.743017089844
 30
0.0
 11
118.545
 21
299.025017089844
 31
0.0
 0
LINE
 5
13C
100
AcDbEntity
 8
Layer8
100
AcDbLine
 39
0.25
 370
106
 10
118.545
 20
299.025017089844
 30
0.0
 11
121.41825
 21
298.773642089844
 31
0.0
 0
LINE
 5
13D
100
AcDbEntity
 8
Layer8
100
AcDbLine
 39
0.25
 370
106
 10
121.41825
 20
298.773642089844
 30
0.0
 11
122.823
 21
298.400017089844
 31
0.0
 0
LINE
 5
13E
100
AcDbEntity
 8
Layer8
100
AcDbLine
 39
0.25
 370
106
 10
122.823
 20
298.400017089844
 30
0.0
 11
122.676
 21
295.229017089844
 31
0.0
 0
LINE
 5
13F
100
AcDbEntity
 8
Layer8
100
AcDbLine
 39
0.25
 370
106
 10
128.626
 20
298.406017089844
 30
0.0
 11
128.468359375
 21
298.764907714844
 31
0.0
 0
LINE
 5
140
100
AcDbEntity
 8
Layer8
100
AcDbLine
 39
0.25
 370
106
 10
128.468359375
 20
298.764907714844
 30
0.0
 11
127.357375
 21
298.955892089844
 31
0.0
 0
LINE
 5
141
100
AcDbEntity
 8
Layer8
100
AcDbLine
 39
0.25
 370
106
 10
127.357375
 20
298.955892089844
 30
0.0
 11
118.465
 21
299.091017089844
 31
0.0
 0
LINE
 5
142
100
AcDbEntity
 8
Layer8
100
AcDbLine
 39
0.25
 370
106
 10
118.465
 20
299.091017089844
 30
0.0
 11
118.474
 21
295.743017089844
 31
0.0
 0
LINE
 5
143
100
AcDbEntity
 8
Layer8
100
AcDbLine
 39
0.25
 370
106
 10
118.474
 20
295.743017089844
 30
0.0
 11
125.652
 21
295.490017089844
 31
0.0
 0
LINE
 5
144
100
AcDbEntity
 8
Layer8
100
AcDbLine
 39
0.25
 370
106
 10
125.652
 20
295.490017089844
 30
0.0
 11
128.033
 21
295.255017089844
 31
0.0
 0
LINE
 5
145
100
AcDbEntity
 8
Layer8
100
AcDbLine
 39
0.25
 370
106
 10
128.033
 20
295.255017089844
 30
0.0
 11
128.626
 21
298.406017089844
 31
0.0
 0
LINE
 5
146
100
AcDbEntity
 8
Layer8
100
AcDbLine
 39
0.25
 370
106
 10
114.254
 20
295.229017089844
 30
0.0
 11
116.799125
 21
295.638267089844
 31
0.0
 0
LINE
 5
147
100
AcDbEntity
 8
Layer8
100
AcDbLine
 39
0.25
 370
106
 10
116.799125
 20
295.638267089844
 30
0.0
 11
118.463
 21
295.743017089844
 31
0.0
 0
LINE
 5
148
100
AcDbEntity
 8
Layer8
100
AcDbLine
 39
0.25
 370
106
 10
118.463
 20
295.743017089844
 30
0.0
 11
118.383
 21
299.025017089844
 31
0.0
 0
LINE
 5
149
100
AcDbEntity
 8
Layer8
100
AcDbLine
 39
0.25
 370
106
 10
118.383
 20
299.025017089844
 30
0.0
 11
115.51375
 21
298.773642089844
 31
0.0
 0
LINE
 5
14A
100
AcDbEntity
 8
Layer8
100
AcDbLine
 39
0.25
 370
106
 10
115.51375
 20
298.773642089844
 30
0.0
 11
114.107
 21
298.400017089844
 31
0.0
 0
LINE
 5
14B
100
AcDbEntity
 8
Layer8
100
AcDbLine
 39
0.25
 370
106
 10
114.107
 20
298.400017089844
 30
0.0
 11
114.254
 21
295.229017089844
 31
0.0
 0
ARC
 5
14C
100
AcDbEntity
 8
Layer8
100
AcDbCircle
 39
0.25
 370
106
 10
117.639502777125
 20
266.640660369499
 30
0.0
 40
32.460854839985
100
AcDbArc
 50
88.5427800170358
 51
101.88185154175
 0
LINE
 5
14D
100
AcDbEntity
 8
Layer8
100
AcDbLine
 39
0.25
 370
106
 10
110.956
 20
298.406017089844
 30
0.0
 11
114.107
 21
298.400017089844
 31
0.0
 0
LINE
 5
14E
100
AcDbEntity
 8
Layer8
100
AcDbLine
 39
0.25
 370
106
 10
114.107
 20
298.400017089844
 30
0.0
 11
115.04934375
 21
298.626063964844
 31
0.0
 0
LINE
 5
14F
100
AcDbEntity
 8
Layer8
100
AcDbLine
 39
0.25
 370
106
 10
115.04934375
 20
298.626063964844
 30
0.0
 11
118.465
 21
299.091017089844
 31
0.0
 0
LWPOLYLINE
 5
150
100
AcDbEntity
 8
Layer8
100
AcDbPolyline
 39
0.25
 370
106
 90
5              
 70
 1
 43
0.0
 10
111.322
 20
295.227017089844
 10
110.956
 20
298.406017089844
 10
114.107
 20
298.400017089844
 10
114.254
 20
295.229017089844
 10
111.322
 20
295.227017089844
 0
LINE
 5
151
100
AcDbEntity
 8
Layer8
100
AcDbLine
 39
0.25
 370
106
 10
114.254
 20
295.229017089844
 30
0.0
 11
116.799125
 21
295.638267089844
 31
0.0
 0
LINE
 5
152
100
AcDbEntity
 8
Layer8
100
AcDbLine
 39
0.25
 370
106
 10
116.799125
 20
295.638267089844
 30
0.0
 11
118.463
 21
295.743017089844
 31
0.0
 0
LINE
 5
153
100
AcDbEntity
 8
Layer8
100
AcDbLine
 39
0.25
 370
106
 10
118.463
 20
295.743017089844
 30
0.0
 11
118.383
 21
299.025017089844
 31
0.0
 0
LINE
 5
154
100
AcDbEntity
 8
Layer8
100
AcDbLine
 39
0.25
 370
106
 10
118.383
 20
299.025017089844
 30
0.0
 11
115.51375
 21
298.773642089844
 31
0.0
 0
LINE
 5
155
100
AcDbEntity
 8
Layer8
100
AcDbLine
 39
0.25
 370
106
 10
115.51375
 20
298.773642089844
 30
0.0
 11
114.107
 21
298.400017089844
 31
0.0
 0
LINE
 5
156
100
AcDbEntity
 8
Layer8
100
AcDbLine
 39
0.25
 370
106
 10
114.107
 20
298.400017089844
 30
0.0
 11
114.254
 21
295.229017089844
 31
0.0
 0
LWPOLYLINE
 5
157
100
AcDbEntity
 8
Layer8
100
AcDbPolyline
 39
0.25
 370
106
 90
5              
 70
 1
 43
0.0
 10
120.427
 20
295.086017089844
 10
116.426
 20
295.086017089844
 10
116.426
 20
296.377017089844
 10
120.427
 20
296.377017089844
 10
120.427
 20
295.086017089844
 0
LINE
 5
158
100
AcDbEntity
 8
Layer8
100
AcDbLine
 39
0.25
 370
106
 10
108.305
 20
298.406017089844
 30
0.0
 11
108.46375
 21
298.764907714844
 31
0.0
 0
LINE
 5
159
100
AcDbEntity
 8
Layer8
100
AcDbLine
 39
0.25
 370
106
 10
108.46375
 20
298.764907714844
 30
0.0
 11
109.575
 21
298.955892089844
 31
0.0
 0
LINE
 5
15A
100
AcDbEntity
 8
Layer8
100
AcDbLine
 39
0.25
 370
106
 10
109.575
 20
298.955892089844
 30
0.0
 11
118.465
 21
299.091017089844
 31
0.0
 0
LINE
 5
15B
100
AcDbEntity
 8
Layer8
100
AcDbLine
 39
0.25
 370
106
 10
118.465
 20
299.091017089844
 30
0.0
 11
118.463
 21
295.743017089844
 31
0.0
 0
LINE
 5
15C
100
AcDbEntity
 8
Layer8
100
AcDbLine
 39
0.25
 370
106
 10
118.463
 20
295.743017089844
 30
0.0
 11
111.277
 21
295.490017089844
 31
0.0
 0
LINE
 5
15D
100
AcDbEntity
 8
Layer8
100
AcDbLine
 39
0.25
 370
106
 10
111.277
 20
295.490017089844
 30
0.0
 11
108.898
 21
295.255017089844
 31
0.0
 0
LINE
 5
15E
100
AcDbEntity
 8
Layer8
100
AcDbLine
 39
0.25
 370
106
 10
108.898
 20
295.255017089844
 30
0.0
 11
108.305
 21
298.406017089844
 31
0.0
 0
LINE
 5
15F
100
AcDbEntity
 8
Layer8
100
AcDbLine
 39
0.25
 370
106
 10
122.045
 20
277.759017089844
 30
0.0
 11
122.045
 21
475.861017089844
 31
0.0
 0
LINE
 5
160
100
AcDbEntity
 8
Layer8
100
AcDbLine
 39
0.25
 370
106
 10
126.258
 20
273.898017089844
 30
0.0
 11
123.713625
 21
274.308017089844
 31
0.0
 0
LINE
 5
161
100
AcDbEntity
 8
Layer8
100
AcDbLine
 39
0.25
 370
106
 10
123.713625
 20
274.308017089844
 30
0.0
 11
122.049
 21
274.412017089844
 31
0.0
 0
LINE
 5
162
100
AcDbEntity
 8
Layer8
100
AcDbLine
 39
0.25
 370
106
 10
122.049
 20
274.412017089844
 30
0.0
 11
122.127
 21
277.694017089844
 31
0.0
 0
LINE
 5
163
100
AcDbEntity
 8
Layer8
100
AcDbLine
 39
0.25
 370
106
 10
122.127
 20
277.694017089844
 30
0.0
 11
124.9995
 21
277.443517089844
 31
0.0
 0
LINE
 5
164
100
AcDbEntity
 8
Layer8
100
AcDbLine
 39
0.25
 370
106
 10
124.9995
 20
277.443517089844
 30
0.0
 11
126.405
 21
277.070017089844
 31
0.0
 0
LINE
 5
165
100
AcDbEntity
 8
Layer8
100
AcDbLine
 39
0.25
 370
106
 10
126.405
 20
277.070017089844
 30
0.0
 11
126.258
 21
273.898017089844
 31
0.0
 0
ARC
 5
166
100
AcDbEntity
 8
Layer8
100
AcDbCircle
 39
0.25
 370
106
 10
122.875643037503
 20
245.401555299253
 30
0.0
 40
32.3681216845417
100
AcDbArc
 50
78.0911089497054
 51
91.4705074968779
 0
LINE
 5
167
100
AcDbEntity
 8
Layer8
100
AcDbLine
 39
0.25
 370
106
 10
129.555
 20
277.073017089844
 30
0.0
 11
126.405
 21
277.070017089844
 31
0.0
 0
LINE
 5
168
100
AcDbEntity
 8
Layer8
100
AcDbLine
 39
0.25
 370
106
 10
126.405
 20
277.070017089844
 30
0.0
 11
125.463375
 21
277.295485839844
 31
0.0
 0
LINE
 5
169
100
AcDbEntity
 8
Layer8
100
AcDbLine
 39
0.25
 370
106
 10
125.463375
 20
277.295485839844
 30
0.0
 11
122.045
 21
277.759017089844
 31
0.0
 0
LWPOLYLINE
 5
16A
100
AcDbEntity
 8
Layer8
100
AcDbPolyline
 39
0.25
 370
106
 90
5              
 70
 1
 43
0.0
 10
129.186
 20
273.895017089844
 10
129.555
 20
277.073017089844
 10
126.405
 20
277.070017089844
 10
126.258
 20
273.898017089844
 10
129.186
 20
273.895017089844
 0
LINE
 5
16B
100
AcDbEntity
 8
Layer8
100
AcDbLine
 39
0.25
 370
106
 10
126.258
 20
273.898017089844
 30
0.0
 11
123.713625
 21
274.308017089844
 31
0.0
 0
LINE
 5
16C
100
AcDbEntity
 8
Layer8
100
AcDbLine
 39
0.25
 370
106
 10
123.713625
 20
274.308017089844
 30
0.0
 11
122.049
 21
274.412017089844
 31
0.0
 0
LINE
 5
16D
100
AcDbEntity
 8
Layer8
100
AcDbLine
 39
0.25
 370
106
 10
122.049
 20
274.412017089844
 30
0.0
 11
122.127
 21
277.694017089844
 31
0.0
 0
LINE
 5
16E
100
AcDbEntity
 8
Layer8
100
AcDbLine
 39
0.25
 370
106
 10
122.127
 20
277.694017089844
 30
0.0
 11
124.9995
 21
277.443517089844
 31
0.0
 0
LINE
 5
16F
100
AcDbEntity
 8
Layer8
100
AcDbLine
 39
0.25
 370
106
 10
124.9995
 20
277.443517089844
 30
0.0
 11
126.405
 21
277.070017089844
 31
0.0
 0
LINE
 5
170
100
AcDbEntity
 8
Layer8
100
AcDbLine
 39
0.25
 370
106
 10
126.405
 20
277.070017089844
 30
0.0
 11
126.258
 21
273.898017089844
 31
0.0
 0
LINE
 5
171
100
AcDbEntity
 8
Layer8
100
AcDbLine
 39
0.25
 370
106
 10
132.203
 20
277.073017089844
 30
0.0
 11
132.04709375
 21
277.433048339844
 31
0.0
 0
LINE
 5
172
100
AcDbEntity
 8
Layer8
100
AcDbLine
 39
0.25
 370
106
 10
132.04709375
 20
277.433048339844
 30
0.0
 11
130.937
 21
277.624517089844
 31
0.0
 0
LINE
 5
173
100
AcDbEntity
 8
Layer8
100
AcDbLine
 39
0.25
 370
106
 10
130.937
 20
277.624517089844
 30
0.0
 11
122.045
 21
277.759017089844
 31
0.0
 0
LINE
 5
174
100
AcDbEntity
 8
Layer8
100
AcDbLine
 39
0.25
 370
106
 10
122.045
 20
277.759017089844
 30
0.0
 11
122.049
 21
274.412017089844
 31
0.0
 0
LINE
 5
175
100
AcDbEntity
 8
Layer8
100
AcDbLine
 39
0.25
 370
106
 10
122.049
 20
274.412017089844
 30
0.0
 11
129.233
 21
274.160017089844
 31
0.0
 0
LINE
 5
176
100
AcDbEntity
 8
Layer8
100
AcDbLine
 39
0.25
 370
106
 10
129.233
 20
274.160017089844
 30
0.0
 11
131.612
 21
273.924017089844
 31
0.0
 0
LINE
 5
177
100
AcDbEntity
 8
Layer8
100
AcDbLine
 39
0.25
 370
106
 10
131.612
 20
273.924017089844
 30
0.0
 11
132.203
 21
277.073017089844
 31
0.0
 0
LINE
 5
178
100
AcDbEntity
 8
Layer8
100
AcDbLine
 39
0.25
 370
106
 10
117.833
 20
273.898017089844
 30
0.0
 11
120.37825
 21
274.308017089844
 31
0.0
 0
LINE
 5
179
100
AcDbEntity
 8
Layer8
100
AcDbLine
 39
0.25
 370
106
 10
120.37825
 20
274.308017089844
 30
0.0
 11
122.043
 21
274.412017089844
 31
0.0
 0
LINE
 5
17A
100
AcDbEntity
 8
Layer8
100
AcDbLine
 39
0.25
 370
106
 10
122.043
 20
274.412017089844
 30
0.0
 11
121.963
 21
277.694017089844
 31
0.0
 0
LINE
 5
17B
100
AcDbEntity
 8
Layer8
100
AcDbLine
 39
0.25
 370
106
 10
121.963
 20
277.694017089844
 30
0.0
 11
119.09175
 21
277.443517089844
 31
0.0
 0
LINE
 5
17C
100
AcDbEntity
 8
Layer8
100
AcDbLine
 39
0.25
 370
106
 10
119.09175
 20
277.443517089844
 30
0.0
 11
117.689
 21
277.070017089844
 31
0.0
 0
LINE
 5
17D
100
AcDbEntity
 8
Layer8
100
AcDbLine
 39
0.25
 370
106
 10
117.689
 20
277.070017089844
 30
0.0
 11
117.833
 21
273.898017089844
 31
0.0
 0
ARC
 5
17E
100
AcDbEntity
 8
Layer8
100
AcDbCircle
 39
0.25
 370
106
 10
121.213794215453
 20
245.456377021368
 30
0.0
 40
32.3133325184788
100
AcDbArc
 50
88.526000467287
 51
101.919298927942
 0
LINE
 5
17F
100
AcDbEntity
 8
Layer8
100
AcDbLine
 39
0.25
 370
106
 10
114.54
 20
277.073017089844
 30
0.0
 11
117.689
 21
277.070017089844
 31
0.0
 0
LINE
 5
180
100
AcDbEntity
 8
Layer8
100
AcDbLine
 39
0.25
 370
106
 10
117.689
 20
277.070017089844
 30
0.0
 11
118.631171875
 21
277.295485839844
 31
0.0
 0
LINE
 5
181
100
AcDbEntity
 8
Layer8
100
AcDbLine
 39
0.25
 370
106
 10
118.631171875
 20
277.295485839844
 30
0.0
 11
122.045
 21
277.759017089844
 31
0.0
 0
LWPOLYLINE
 5
182
100
AcDbEntity
 8
Layer8
100
AcDbPolyline
 39
0.25
 370
106
 90
5              
 70
 1
 43
0.0
 10
114.904
 20
273.895017089844
 10
114.54
 20
277.073017089844
 10
117.689
 20
277.070017089844
 10
117.833
 20
273.898017089844
 10
114.904
 20
273.895017089844
 0
LINE
 5
183
100
AcDbEntity
 8
Layer8
100
AcDbLine
 39
0.25
 370
106
 10
117.833
 20
273.898017089844
 30
0.0
 11
120.37825
 21
274.308017089844
 31
0.0
 0
LINE
 5
184
100
AcDbEntity
 8
Layer8
100
AcDbLine
 39
0.25
 370
106
 10
120.37825
 20
274.308017089844
 30
0.0
 11
122.043
 21
274.412017089844
 31
0.0
 0
LINE
 5
185
100
AcDbEntity
 8
Layer8
100
AcDbLine
 39
0.25
 370
106
 10
122.043
 20
274.412017089844
 30
0.0
 11
121.963
 21
277.694017089844
 31
0.0
 0
LINE
 5
186
100
AcDbEntity
 8
Layer8
100
AcDbLine
 39
0.25
 370
106
 10
121.963
 20
277.694017089844
 30
0.0
 11
119.09175
 21
277.443517089844
 31
0.0
 0
LINE
 5
187
100
AcDbEntity
 8
Layer8
100
AcDbLine
 39
0.25
 370
106
 10
119.09175
 20
277.443517089844
 30
0.0
 11
117.689
 21
277.070017089844
 31
0.0
 0
LINE
 5
188
100
AcDbEntity
 8
Layer8
100
AcDbLine
 39
0.25
 370
106
 10
117.689
 20
277.070017089844
 30
0.0
 11
117.833
 21
273.898017089844
 31
0.0
 0
LWPOLYLINE
 5
189
100
AcDbEntity
 8
Layer8
100
AcDbPolyline
 39
0.25
 370
106
 90
5              
 70
 1
 43
0.0
 10
131.612
 20
273.924017089844
 10
130.286
 20
273.944017089844
 10
129.219
 20
274.064017089844
 10
129.233
 20
274.160017089844
 10
131.612
 20
273.924017089844
 0
LWPOLYLINE
 5
18A
100
AcDbEntity
 8
Layer8
100
AcDbPolyline
 39
0.25
 370
106
 90
5              
 70
 1
 43
0.0
 10
124.006
 20
273.756017089844
 10
120.003
 20
273.756017089844
 10
120.003
 20
275.046017089844
 10
124.006
 20
275.046017089844
 10
124.006
 20
273.756017089844
 0
LINE
 5
18B
100
AcDbEntity
 8
Layer8
100
AcDbLine
 39
0.25
 370
106
 10
111.886
 20
277.073017089844
 30
0.0
 11
112.044734375
 21
277.433048339844
 31
0.0
 0
LINE
 5
18C
100
AcDbEntity
 8
Layer8
100
AcDbLine
 39
0.25
 370
106
 10
112.044734375
 20
277.433048339844
 30
0.0
 11
113.155875
 21
277.624517089844
 31
0.0
 0
LINE
 5
18D
100
AcDbEntity
 8
Layer8
100
AcDbLine
 39
0.25
 370
106
 10
113.155875
 20
277.624517089844
 30
0.0
 11
122.045
 21
277.759017089844
 31
0.0
 0
LINE
 5
18E
100
AcDbEntity
 8
Layer8
100
AcDbLine
 39
0.25
 370
106
 10
122.045
 20
277.759017089844
 30
0.0
 11
122.043
 21
274.412017089844
 31
0.0
 0
LINE
 5
18F
100
AcDbEntity
 8
Layer8
100
AcDbLine
 39
0.25
 370
106
 10
122.043
 20
274.412017089844
 30
0.0
 11
114.858
 21
274.160017089844
 31
0.0
 0
LINE
 5
190
100
AcDbEntity
 8
Layer8
100
AcDbLine
 39
0.25
 370
106
 10
114.858
 20
274.160017089844
 30
0.0
 11
112.479
 21
273.924017089844
 31
0.0
 0
LINE
 5
191
100
AcDbEntity
 8
Layer8
100
AcDbLine
 39
0.25
 370
106
 10
112.479
 20
273.924017089844
 30
0.0
 11
111.886
 21
277.073017089844
 31
0.0
 0
LINE
 5
192
100
AcDbEntity
 8
Layer8
100
AcDbLine
 39
0.25
 370
106
 10
135.351
 20
267.003017089844
 30
0.0
 11
135.351
 21
475.626017089844
 31
0.0
 0
LINE
 5
193
100
AcDbEntity
 8
Layer8
100
AcDbLine
 39
0.25
 370
106
 10
139.562
 20
285.562017089844
 30
0.0
 11
137.01825
 21
285.970642089844
 31
0.0
 0
LINE
 5
194
100
AcDbEntity
 8
Layer8
100
AcDbLine
 39
0.25
 370
106
 10
137.01825
 20
285.970642089844
 30
0.0
 11
135.358
 21
286.077017089844
 31
0.0
 0
LINE
 5
195
100
AcDbEntity
 8
Layer8
100
AcDbLine
 39
0.25
 370
106
 10
135.358
 20
286.077017089844
 30
0.0
 11
135.432
 21
289.359017089844
 31
0.0
 0
LINE
 5
196
100
AcDbEntity
 8
Layer8
100
AcDbLine
 39
0.25
 370
106
 10
135.432
 20
289.359017089844
 30
0.0
 11
138.304125
 21
289.106267089844
 31
0.0
 0
LINE
 5
197
100
AcDbEntity
 8
Layer8
100
AcDbLine
 39
0.25
 370
106
 10
138.304125
 20
289.106267089844
 30
0.0
 11
139.707
 21
288.735017089844
 31
0.0
 0
LINE
 5
198
100
AcDbEntity
 8
Layer8
100
AcDbLine
 39
0.25
 370
106
 10
139.707
 20
288.735017089844
 30
0.0
 11
139.562
 21
285.562017089844
 31
0.0
 0
ARC
 5
199
100
AcDbEntity
 8
Layer8
100
AcDbCircle
 39
0.25
 370
106
 10
136.155043442129
 20
256.861913125685
 30
0.0
 40
32.5730291136314
100
AcDbArc
 50
78.1264928187375
 51
91.4144516698673
 0
LINE
 5
19A
100
AcDbEntity
 8
Layer8
100
AcDbLine
 39
0.25
 370
106
 10
142.857
 20
288.738017089844
 30
0.0
 11
139.707
 21
288.735017089844
 31
0.0
 0
LINE
 5
19B
100
AcDbEntity
 8
Layer8
100
AcDbLine
 39
0.25
 370
106
 10
139.707
 20
288.735017089844
 30
0.0
 11
135.351
 21
289.425017089844
 31
0.0
 0
LWPOLYLINE
 5
19C
100
AcDbEntity
 8
Layer8
100
AcDbPolyline
 39
0.25
 370
106
 90
5              
 70
 1
 43
0.0
 10
142.491
 20
285.559017089844
 10
142.857
 20
288.738017089844
 10
139.707
 20
288.735017089844
 10
139.562
 20
285.562017089844
 10
142.491
 20
285.559017089844
 0
LINE
 5
19D
100
AcDbEntity
 8
Layer8
100
AcDbLine
 39
0.25
 370
106
 10
139.562
 20
285.562017089844
 30
0.0
 11
137.01825
 21
285.970642089844
 31
0.0
 0
LINE
 5
19E
100
AcDbEntity
 8
Layer8
100
AcDbLine
 39
0.25
 370
106
 10
137.01825
 20
285.970642089844
 30
0.0
 11
135.358
 21
286.077017089844
 31
0.0
 0
LINE
 5
19F
100
AcDbEntity
 8
Layer8
100
AcDbLine
 39
0.25
 370
106
 10
135.358
 20
286.077017089844
 30
0.0
 11
135.432
 21
289.359017089844
 31
0.0
 0
LINE
 5
1A0
100
AcDbEntity
 8
Layer8
100
AcDbLine
 39
0.25
 370
106
 10
135.432
 20
289.359017089844
 30
0.0
 11
138.304125
 21
289.106267089844
 31
0.0
 0
LINE
 5
1A1
100
AcDbEntity
 8
Layer8
100
AcDbLine
 39
0.25
 370
106
 10
138.304125
 20
289.106267089844
 30
0.0
 11
139.707
 21
288.735017089844
 31
0.0
 0
LINE
 5
1A2
100
AcDbEntity
 8
Layer8
100
AcDbLine
 39
0.25
 370
106
 10
139.707
 20
288.735017089844
 30
0.0
 11
139.562
 21
285.562017089844
 31
0.0
 0
LINE
 5
1A3
100
AcDbEntity
 8
Layer8
100
AcDbLine
 39
0.25
 370
106
 10
145.51
 20
288.738017089844
 30
0.0
 11
145.353515625
 21
289.098063964844
 31
0.0
 0
LINE
 5
1A4
100
AcDbEntity
 8
Layer8
100
AcDbLine
 39
0.25
 370
106
 10
145.353515625
 20
289.098063964844
 30
0.0
 11
144.243125
 21
289.289642089844
 31
0.0
 0
LINE
 5
1A5
100
AcDbEntity
 8
Layer8
100
AcDbLine
 39
0.25
 370
106
 10
144.243125
 20
289.289642089844
 30
0.0
 11
135.351
 21
289.425017089844
 31
0.0
 0
LINE
 5
1A6
100
AcDbEntity
 8
Layer8
100
AcDbLine
 39
0.25
 370
106
 10
135.351
 20
289.425017089844
 30
0.0
 11
135.358
 21
286.077017089844
 31
0.0
 0
LINE
 5
1A7
100
AcDbEntity
 8
Layer8
100
AcDbLine
 39
0.25
 370
106
 10
135.358
 20
286.077017089844
 30
0.0
 11
142.537
 21
285.823017089844
 31
0.0
 0
LINE
 5
1A8
100
AcDbEntity
 8
Layer8
100
AcDbLine
 39
0.25
 370
106
 10
142.537
 20
285.823017089844
 30
0.0
 11
144.917
 21
285.589017089844
 31
0.0
 0
LINE
 5
1A9
100
AcDbEntity
 8
Layer8
100
AcDbLine
 39
0.25
 370
106
 10
144.917
 20
285.589017089844
 30
0.0
 11
145.51
 21
288.738017089844
 31
0.0
 0
LINE
 5
1AA
100
AcDbEntity
 8
Layer8
100
AcDbLine
 39
0.25
 370
106
 10
131.138
 20
285.562017089844
 30
0.0
 11
133.683875
 21
285.970642089844
 31
0.0
 0
LINE
 5
1AB
100
AcDbEntity
 8
Layer8
100
AcDbLine
 39
0.25
 370
106
 10
133.683875
 20
285.970642089844
 30
0.0
 11
135.347
 21
286.077017089844
 31
0.0
 0
LINE
 5
1AC
100
AcDbEntity
 8
Layer8
100
AcDbLine
 39
0.25
 370
106
 10
135.347
 20
286.077017089844
 30
0.0
 11
135.268
 21
289.359017089844
 31
0.0
 0
LINE
 5
1AD
100
AcDbEntity
 8
Layer8
100
AcDbLine
 39
0.25
 370
106
 10
135.268
 20
289.359017089844
 30
0.0
 11
132.39675
 21
289.106267089844
 31
0.0
 0
LINE
 5
1AE
100
AcDbEntity
 8
Layer8
100
AcDbLine
 39
0.25
 370
106
 10
132.39675
 20
289.106267089844
 30
0.0
 11
130.994
 21
288.735017089844
 31
0.0
 0
LINE
 5
1AF
100
AcDbEntity
 8
Layer8
100
AcDbLine
 39
0.25
 370
106
 10
130.994
 20
288.735017089844
 30
0.0
 11
131.138
 21
285.562017089844
 31
0.0
 0
ARC
 5
1B0
100
AcDbEntity
 8
Layer8
100
AcDbCircle
 39
0.25
 370
106
 10
134.548548464395
 20
256.844520330388
 30
0.0
 40
32.5903773767644
100
AcDbArc
 50
88.5891009279368
 51
101.86995458347
 0
LINE
 5
1B1
100
AcDbEntity
 8
Layer8
100
AcDbLine
 39
0.25
 370
106
 10
127.845
 20
288.738017089844
 30
0.0
 11
130.994
 21
288.735017089844
 31
0.0
 0
LINE
 5
1B2
100
AcDbEntity
 8
Layer8
100
AcDbLine
 39
0.25
 370
106
 10
130.994
 20
288.735017089844
 30
0.0
 11
135.351
 21
289.425017089844
 31
0.0
 0
LWPOLYLINE
 5
1B3
100
AcDbEntity
 8
Layer8
100
AcDbPolyline
 39
0.25
 370
106
 90
5              
 70
 1
 43
0.0
 10
128.208
 20
285.559017089844
 10
127.845
 20
288.738017089844
 10
130.994
 20
288.735017089844
 10
131.138
 20
285.562017089844
 10
128.208
 20
285.559017089844
 0
LINE
 5
1B4
100
AcDbEntity
 8
Layer8
100
AcDbLine
 39
0.25
 370
106
 10
131.138
 20
285.562017089844
 30
0.0
 11
133.683875
 21
285.970642089844
 31
0.0
 0
LINE
 5
1B5
100
AcDbEntity
 8
Layer8
100
AcDbLine
 39
0.25
 370
106
 10
133.683875
 20
285.970642089844
 30
0.0
 11
135.347
 21
286.077017089844
 31
0.0
 0
LINE
 5
1B6
100
AcDbEntity
 8
Layer8
100
AcDbLine
 39
0.25
 370
106
 10
135.347
 20
286.077017089844
 30
0.0
 11
135.268
 21
289.359017089844
 31
0.0
 0
LINE
 5
1B7
100
AcDbEntity
 8
Layer8
100
AcDbLine
 39
0.25
 370
106
 10
135.268
 20
289.359017089844
 30
0.0
 11
132.39675
 21
289.106267089844
 31
0.0
 0
LINE
 5
1B8
100
AcDbEntity
 8
Layer8
100
AcDbLine
 39
0.25
 370
106
 10
132.39675
 20
289.106267089844
 30
0.0
 11
130.994
 21
288.735017089844
 31
0.0
 0
LINE
 5
1B9
100
AcDbEntity
 8
Layer8
100
AcDbLine
 39
0.25
 370
106
 10
130.994
 20
288.735017089844
 30
0.0
 11
131.138
 21
285.562017089844
 31
0.0
 0
LWPOLYLINE
 5
1BA
100
AcDbEntity
 8
Layer8
100
AcDbPolyline
 39
0.25
 370
106
 90
5              
 70
 1
 43
0.0
 10
144.917
 20
285.589017089844
 10
143.586
 20
285.610017089844
 10
142.525
 20
285.729017089844
 10
142.537
 20
285.823017089844
 10
144.917
 20
285.589017089844
 0
LWPOLYLINE
 5
1BB
100
AcDbEntity
 8
Layer8
100
AcDbPolyline
 39
0.25
 370
106
 90
5              
 70
 1
 43
0.0
 10
137.312
 20
285.420017089844
 10
133.311
 20
285.420017089844
 10
133.311
 20
286.711017089844
 10
137.312
 20
286.711017089844
 10
137.312
 20
285.420017089844
 0
LINE
 5
1BC
100
AcDbEntity
 8
Layer8
100
AcDbLine
 39
0.25
 370
106
 10
125.192
 20
288.738017089844
 30
0.0
 11
125.348484375
 21
289.098063964844
 31
0.0
 0
LINE
 5
1BD
100
AcDbEntity
 8
Layer8
100
AcDbLine
 39
0.25
 370
106
 10
125.348484375
 20
289.098063964844
 30
0.0
 11
126.458875
 21
289.289642089844
 31
0.0
 0
LINE
 5
1BE
100
AcDbEntity
 8
Layer8
100
AcDbLine
 39
0.25
 370
106
 10
126.458875
 20
289.289642089844
 30
0.0
 11
135.351
 21
289.425017089844
 31
0.0
 0
LINE
 5
1BF
100
AcDbEntity
 8
Layer8
100
AcDbLine
 39
0.25
 370
106
 10
135.351
 20
289.425017089844
 30
0.0
 11
135.347
 21
286.077017089844
 31
0.0
 0
LINE
 5
1C0
100
AcDbEntity
 8
Layer8
100
AcDbLine
 39
0.25
 370
106
 10
135.347
 20
286.077017089844
 30
0.0
 11
128.163
 21
285.823017089844
 31
0.0
 0
LINE
 5
1C1
100
AcDbEntity
 8
Layer8
100
AcDbLine
 39
0.25
 370
106
 10
128.163
 20
285.823017089844
 30
0.0
 11
125.784
 21
285.589017089844
 31
0.0
 0
LINE
 5
1C2
100
AcDbEntity
 8
Layer8
100
AcDbLine
 39
0.25
 370
106
 10
125.784
 20
285.589017089844
 30
0.0
 11
125.192
 21
288.738017089844
 31
0.0
 0
LINE
 5
1C3
100
AcDbEntity
 8
Layer8
100
AcDbLine
 39
0.25
 370
106
 10
139.562
 20
308.263017089844
 30
0.0
 11
137.01825
 21
308.671392089844
 31
0.0
 0
LINE
 5
1C4
100
AcDbEntity
 8
Layer8
100
AcDbLine
 39
0.25
 370
106
 10
137.01825
 20
308.671392089844
 30
0.0
 11
135.358
 21
308.776017089844
 31
0.0
 0
LINE
 5
1C5
100
AcDbEntity
 8
Layer8
100
AcDbLine
 39
0.25
 370
106
 10
135.358
 20
308.776017089844
 30
0.0
 11
135.432
 21
312.058017089844
 31
0.0
 0
LINE
 5
1C6
100
AcDbEntity
 8
Layer8
100
AcDbLine
 39
0.25
 370
106
 10
135.432
 20
312.058017089844
 30
0.0
 11
138.304125
 21
311.807517089844
 31
0.0
 0
LINE
 5
1C7
100
AcDbEntity
 8
Layer8
100
AcDbLine
 39
0.25
 370
106
 10
138.304125
 20
311.807517089844
 30
0.0
 11
139.707
 21
311.434017089844
 31
0.0
 0
LINE
 5
1C8
100
AcDbEntity
 8
Layer8
100
AcDbLine
 39
0.25
 370
106
 10
139.707
 20
311.434017089844
 30
0.0
 11
139.562
 21
308.263017089844
 31
0.0
 0
ARC
 5
1C9
100
AcDbEntity
 8
Layer8
100
AcDbCircle
 39
0.25
 370
106
 10
136.170920258696
 20
279.594326244483
 30
0.0
 40
32.539022685749
100
AcDbArc
 50
78.1424702934455
 51
91.4438953381722
 0
LINE
 5
1CA
100
AcDbEntity
 8
Layer8
100
AcDbLine
 39
0.25
 370
106
 10
142.857
 20
311.439017089844
 30
0.0
 11
139.707
 21
311.434017089844
 31
0.0
 0
LINE
 5
1CB
100
AcDbEntity
 8
Layer8
100
AcDbLine
 39
0.25
 370
106
 10
139.707
 20
311.434017089844
 30
0.0
 11
138.7675625
 21
311.659188964844
 31
0.0
 0
LINE
 5
1CC
100
AcDbEntity
 8
Layer8
100
AcDbLine
 39
0.25
 370
106
 10
138.7675625
 20
311.659188964844
 30
0.0
 11
135.351
 21
312.123017089844
 31
0.0
 0
LWPOLYLINE
 5
1CD
100
AcDbEntity
 8
Layer8
100
AcDbPolyline
 39
0.25
 370
106
 90
5              
 70
 1
 43
0.0
 10
142.491
 20
308.260017089844
 10
142.857
 20
311.439017089844
 10
139.707
 20
311.434017089844
 10
139.562
 20
308.263017089844
 10
142.491
 20
308.260017089844
 0
LINE
 5
1CE
100
AcDbEntity
 8
Layer8
100
AcDbLine
 39
0.25
 370
106
 10
139.562
 20
308.263017089844
 30
0.0
 11
137.01825
 21
308.671392089844
 31
0.0
 0
LINE
 5
1CF
100
AcDbEntity
 8
Layer8
100
AcDbLine
 39
0.25
 370
106
 10
137.01825
 20
308.671392089844
 30
0.0
 11
135.358
 21
308.776017089844
 31
0.0
 0
LINE
 5
1D0
100
AcDbEntity
 8
Layer8
100
AcDbLine
 39
0.25
 370
106
 10
135.358
 20
308.776017089844
 30
0.0
 11
135.432
 21
312.058017089844
 31
0.0
 0
LINE
 5
1D1
100
AcDbEntity
 8
Layer8
100
AcDbLine
 39
0.25
 370
106
 10
135.432
 20
312.058017089844
 30
0.0
 11
138.304125
 21
311.807517089844
 31
0.0
 0
LINE
 5
1D2
100
AcDbEntity
 8
Layer8
100
AcDbLine
 39
0.25
 370
106
 10
138.304125
 20
311.807517089844
 30
0.0
 11
139.707
 21
311.434017089844
 31
0.0
 0
LINE
 5
1D3
100
AcDbEntity
 8
Layer8
100
AcDbLine
 39
0.25
 370
106
 10
139.707
 20
311.434017089844
 30
0.0
 11
139.562
 21
308.263017089844
 31
0.0
 0
LINE
 5
1D4
100
AcDbEntity
 8
Layer8
100
AcDbLine
 39
0.25
 370
106
 10
145.51
 20
311.439017089844
 30
0.0
 11
145.353515625
 21
311.797892089844
 31
0.0
 0
LINE
 5
1D5
100
AcDbEntity
 8
Layer8
100
AcDbLine
 39
0.25
 370
106
 10
145.353515625
 20
311.797892089844
 30
0.0
 11
144.243125
 21
311.988767089844
 31
0.0
 0
LINE
 5
1D6
100
AcDbEntity
 8
Layer8
100
AcDbLine
 39
0.25
 370
106
 10
144.243125
 20
311.988767089844
 30
0.0
 11
135.351
 21
312.123017089844
 31
0.0
 0
LINE
 5
1D7
100
AcDbEntity
 8
Layer8
100
AcDbLine
 39
0.25
 370
106
 10
135.351
 20
312.123017089844
 30
0.0
 11
135.358
 21
308.776017089844
 31
0.0
 0
LINE
 5
1D8
100
AcDbEntity
 8
Layer8
100
AcDbLine
 39
0.25
 370
106
 10
135.358
 20
308.776017089844
 30
0.0
 11
142.537
 21
308.524017089844
 31
0.0
 0
LINE
 5
1D9
100
AcDbEntity
 8
Layer8
100
AcDbLine
 39
0.25
 370
106
 10
142.537
 20
308.524017089844
 30
0.0
 11
144.917
 21
308.287017089844
 31
0.0
 0
LINE
 5
1DA
100
AcDbEntity
 8
Layer8
100
AcDbLine
 39
0.25
 370
106
 10
144.917
 20
308.287017089844
 30
0.0
 11
145.51
 21
311.439017089844
 31
0.0
 0
LINE
 5
1DB
100
AcDbEntity
 8
Layer8
100
AcDbLine
 39
0.25
 370
106
 10
131.138
 20
308.263017089844
 30
0.0
 11
133.683875
 21
308.671392089844
 31
0.0
 0
LINE
 5
1DC
100
AcDbEntity
 8
Layer8
100
AcDbLine
 39
0.25
 370
106
 10
133.683875
 20
308.671392089844
 30
0.0
 11
135.347
 21
308.776017089844
 31
0.0
 0
LINE
 5
1DD
100
AcDbEntity
 8
Layer8
100
AcDbLine
 39
0.25
 370
106
 10
135.347
 20
308.776017089844
 30
0.0
 11
135.268
 21
312.058017089844
 31
0.0
 0
LINE
 5
1DE
100
AcDbEntity
 8
Layer8
100
AcDbLine
 39
0.25
 370
106
 10
135.268
 20
312.058017089844
 30
0.0
 11
132.39675
 21
311.807517089844
 31
0.0
 0
LINE
 5
1DF
100
AcDbEntity
 8
Layer8
100
AcDbLine
 39
0.25
 370
106
 10
132.39675
 20
311.807517089844
 30
0.0
 11
130.994
 21
311.434017089844
 31
0.0
 0
LINE
 5
1E0
100
AcDbEntity
 8
Layer8
100
AcDbLine
 39
0.25
 370
106
 10
130.994
 20
311.434017089844
 30
0.0
 11
131.138
 21
308.263017089844
 31
0.0
 0
ARC
 5
1E1
100
AcDbEntity
 8
Layer8
100
AcDbCircle
 39
0.25
 370
106
 10
134.532654865222
 20
279.577041332022
 30
0.0
 40
32.5562624818685
100
AcDbArc
 50
88.5596423609194
 51
101.853992007475
 0
LINE
 5
1E2
100
AcDbEntity
 8
Layer8
100
AcDbLine
 39
0.25
 370
106
 10
127.845
 20
311.439017089844
 30
0.0
 11
130.994
 21
311.434017089844
 31
0.0
 0
LINE
 5
1E3
100
AcDbEntity
 8
Layer8
100
AcDbLine
 39
0.25
 370
106
 10
130.994
 20
311.434017089844
 30
0.0
 11
131.93546875
 21
311.659188964844
 31
0.0
 0
LINE
 5
1E4
100
AcDbEntity
 8
Layer8
100
AcDbLine
 39
0.25
 370
106
 10
131.93546875
 20
311.659188964844
 30
0.0
 11
135.351
 21
312.123017089844
 31
0.0
 0
LWPOLYLINE
 5
1E5
100
AcDbEntity
 8
Layer8
100
AcDbPolyline
 39
0.25
 370
106
 90
5              
 70
 1
 43
0.0
 10
128.208
 20
308.260017089844
 10
127.845
 20
311.439017089844
 10
130.994
 20
311.434017089844
 10
131.138
 20
308.263017089844
 10
128.208
 20
308.260017089844
 0
LINE
 5
1E6
100
AcDbEntity
 8
Layer8
100
AcDbLine
 39
0.25
 370
106
 10
131.138
 20
308.263017089844
 30
0.0
 11
133.683875
 21
308.671392089844
 31
0.0
 0
LINE
 5
1E7
100
AcDbEntity
 8
Layer8
100
AcDbLine
 39
0.25
 370
106
 10
133.683875
 20
308.671392089844
 30
0.0
 11
135.347
 21
308.776017089844
 31
0.0
 0
LINE
 5
1E8
100
AcDbEntity
 8
Layer8
100
AcDbLine
 39
0.25
 370
106
 10
135.347
 20
308.776017089844
 30
0.0
 11
135.268
 21
312.058017089844
 31
0.0
 0
LINE
 5
1E9
100
AcDbEntity
 8
Layer8
100
AcDbLine
 39
0.25
 370
106
 10
135.268
 20
312.058017089844
 30
0.0
 11
132.39675
 21
311.807517089844
 31
0.0
 0
LINE
 5
1EA
100
AcDbEntity
 8
Layer8
100
AcDbLine
 39
0.25
 370
106
 10
132.39675
 20
311.807517089844
 30
0.0
 11
130.994
 21
311.434017089844
 31
0.0
 0
LINE
 5
1EB
100
AcDbEntity
 8
Layer8
100
AcDbLine
 39
0.25
 370
106
 10
130.994
 20
311.434017089844
 30
0.0
 11
131.138
 21
308.263017089844
 31
0.0
 0
LWPOLYLINE
 5
1EC
100
AcDbEntity
 8
Layer8
100
AcDbPolyline
 39
0.25
 370
106
 90
5              
 70
 1
 43
0.0
 10
144.917
 20
308.287017089844
 10
143.586
 20
308.308017089844
 10
142.525
 20
308.428017089844
 10
142.537
 20
308.524017089844
 10
144.917
 20
308.287017089844
 0
LWPOLYLINE
 5
1ED
100
AcDbEntity
 8
Layer8
100
AcDbPolyline
 39
0.25
 370
106
 90
5              
 70
 1
 43
0.0
 10
137.312
 20
308.120017089844
 10
133.311
 20
308.120017089844
 10
133.311
 20
309.411017089844
 10
137.312
 20
309.411017089844
 10
137.312
 20
308.120017089844
 0
LINE
 5
1EE
100
AcDbEntity
 8
Layer8
100
AcDbLine
 39
0.25
 370
106
 10
125.192
 20
311.439017089844
 30
0.0
 11
125.348484375
 21
311.797892089844
 31
0.0
 0
LINE
 5
1EF
100
AcDbEntity
 8
Layer8
100
AcDbLine
 39
0.25
 370
106
 10
125.348484375
 20
311.797892089844
 30
0.0
 11
126.458875
 21
311.988767089844
 31
0.0
 0
LINE
 5
1F0
100
AcDbEntity
 8
Layer8
100
AcDbLine
 39
0.25
 370
106
 10
126.458875
 20
311.988767089844
 30
0.0
 11
135.351
 21
312.123017089844
 31
0.0
 0
LINE
 5
1F1
100
AcDbEntity
 8
Layer8
100
AcDbLine
 39
0.25
 370
106
 10
135.351
 20
312.123017089844
 30
0.0
 11
135.347
 21
308.776017089844
 31
0.0
 0
LINE
 5
1F2
100
AcDbEntity
 8
Layer8
100
AcDbLine
 39
0.25
 370
106
 10
135.347
 20
308.776017089844
 30
0.0
 11
128.163
 21
308.524017089844
 31
0.0
 0
LINE
 5
1F3
100
AcDbEntity
 8
Layer8
100
AcDbLine
 39
0.25
 370
106
 10
128.163
 20
308.524017089844
 30
0.0
 11
125.784
 21
308.287017089844
 31
0.0
 0
LINE
 5
1F4
100
AcDbEntity
 8
Layer8
100
AcDbLine
 39
0.25
 370
106
 10
125.784
 20
308.287017089844
 30
0.0
 11
125.192
 21
311.439017089844
 31
0.0
 0
LINE
 5
1F5
100
AcDbEntity
 8
Layer8
100
AcDbLine
 39
0.25
 370
106
 10
139.562
 20
263.143017089844
 30
0.0
 11
137.01825
 21
263.549017089844
 31
0.0
 0
LINE
 5
1F6
100
AcDbEntity
 8
Layer8
100
AcDbLine
 39
0.25
 370
106
 10
137.01825
 20
263.549017089844
 30
0.0
 11
135.358
 21
263.655017089844
 31
0.0
 0
LINE
 5
1F7
100
AcDbEntity
 8
Layer8
100
AcDbLine
 39
0.25
 370
106
 10
135.358
 20
263.655017089844
 30
0.0
 11
135.432
 21
266.937017089844
 31
0.0
 0
LINE
 5
1F8
100
AcDbEntity
 8
Layer8
100
AcDbLine
 39
0.25
 370
106
 10
135.432
 20
266.937017089844
 30
0.0
 11
138.304125
 21
266.685017089844
 31
0.0
 0
LINE
 5
1F9
100
AcDbEntity
 8
Layer8
100
AcDbLine
 39
0.25
 370
106
 10
138.304125
 20
266.685017089844
 30
0.0
 11
139.707
 21
266.313017089844
 31
0.0
 0
LINE
 5
1FA
100
AcDbEntity
 8
Layer8
100
AcDbLine
 39
0.25
 370
106
 10
139.707
 20
266.313017089844
 30
0.0
 11
139.562
 21
263.143017089844
 31
0.0
 0
ARC
 5
1FB
100
AcDbEntity
 8
Layer8
100
AcDbCircle
 39
0.25
 370
106
 10
136.171675959482
 20
234.575433637765
 30
0.0
 40
32.4379666066172
100
AcDbArc
 50
78.1063547139483
 51
91.4497297901911
 0
LINE
 5
1FC
100
AcDbEntity
 8
Layer8
100
AcDbLine
 39
0.25
 370
106
 10
142.857
 20
266.317017089844
 30
0.0
 11
139.707
 21
266.313017089844
 31
0.0
 0
LINE
 5
1FD
100
AcDbEntity
 8
Layer8
100
AcDbLine
 39
0.25
 370
106
 10
139.707
 20
266.313017089844
 30
0.0
 11
138.7675625
 21
266.537782714844
 31
0.0
 0
LINE
 5
1FE
100
AcDbEntity
 8
Layer8
100
AcDbLine
 39
0.25
 370
106
 10
138.7675625
 20
266.537782714844
 30
0.0
 11
135.351
 21
267.003017089844
 31
0.0
 0
LWPOLYLINE
 5
1FF
100
AcDbEntity
 8
Layer8
100
AcDbPolyline
 39
0.25
 370
106
 90
5              
 70
 1
 43
0.0
 10
142.491
 20
263.139017089844
 10
142.857
 20
266.317017089844
 10
139.707
 20
266.313017089844
 10
139.562
 20
263.143017089844
 10
142.491
 20
263.139017089844
 0
LINE
 5
200
100
AcDbEntity
 8
Layer8
100
AcDbLine
 39
0.25
 370
106
 10
139.562
 20
263.143017089844
 30
0.0
 11
137.01825
 21
263.549017089844
 31
0.0
 0
LINE
 5
201
100
AcDbEntity
 8
Layer8
100
AcDbLine
 39
0.25
 370
106
 10
137.01825
 20
263.549017089844
 30
0.0
 11
135.358
 21
263.655017089844
 31
0.0
 0
LINE
 5
202
100
AcDbEntity
 8
Layer8
100
AcDbLine
 39
0.25
 370
106
 10
135.358
 20
263.655017089844
 30
0.0
 11
135.432
 21
266.937017089844
 31
0.0
 0
LINE
 5
203
100
AcDbEntity
 8
Layer8
100
AcDbLine
 39
0.25
 370
106
 10
135.432
 20
266.937017089844
 30
0.0
 11
138.304125
 21
266.685017089844
 31
0.0
 0
LINE
 5
204
100
AcDbEntity
 8
Layer8
100
AcDbLine
 39
0.25
 370
106
 10
138.304125
 20
266.685017089844
 30
0.0
 11
139.707
 21
266.313017089844
 31
0.0
 0
LINE
 5
205
100
AcDbEntity
 8
Layer8
100
AcDbLine
 39
0.25
 370
106
 10
139.707
 20
266.313017089844
 30
0.0
 11
139.562
 21
263.143017089844
 31
0.0
 0
LINE
 5
206
100
AcDbEntity
 8
Layer8
100
AcDbLine
 39
0.25
 370
106
 10
145.51
 20
266.317017089844
 30
0.0
 11
145.353515625
 21
266.676485839844
 31
0.0
 0
LINE
 5
207
100
AcDbEntity
 8
Layer8
100
AcDbLine
 39
0.25
 370
106
 10
145.353515625
 20
266.676485839844
 30
0.0
 11
144.243125
 21
266.867767089844
 31
0.0
 0
LINE
 5
208
100
AcDbEntity
 8
Layer8
100
AcDbLine
 39
0.25
 370
106
 10
144.243125
 20
266.867767089844
 30
0.0
 11
135.351
 21
267.003017089844
 31
0.0
 0
LINE
 5
209
100
AcDbEntity
 8
Layer8
100
AcDbLine
 39
0.25
 370
106
 10
135.351
 20
267.003017089844
 30
0.0
 11
135.358
 21
263.655017089844
 31
0.0
 0
LINE
 5
20A
100
AcDbEntity
 8
Layer8
100
AcDbLine
 39
0.25
 370
106
 10
135.358
 20
263.655017089844
 30
0.0
 11
142.537
 21
263.401017089844
 31
0.0
 0
LINE
 5
20B
100
AcDbEntity
 8
Layer8
100
AcDbLine
 39
0.25
 370
106
 10
142.537
 20
263.401017089844
 30
0.0
 11
144.917
 21
263.164017089844
 31
0.0
 0
LINE
 5
20C
100
AcDbEntity
 8
Layer8
100
AcDbLine
 39
0.25
 370
106
 10
144.917
 20
263.164017089844
 30
0.0
 11
145.51
 21
266.317017089844
 31
0.0
 0
LINE
 5
20D
100
AcDbEntity
 8
Layer8
100
AcDbLine
 39
0.25
 370
106
 10
131.138
 20
263.143017089844
 30
0.0
 11
133.683875
 21
263.549017089844
 31
0.0
 0
LINE
 5
20E
100
AcDbEntity
 8
Layer8
100
AcDbLine
 39
0.25
 370
106
 10
133.683875
 20
263.549017089844
 30
0.0
 11
135.347
 21
263.655017089844
 31
0.0
 0
LINE
 5
20F
100
AcDbEntity
 8
Layer8
100
AcDbLine
 39
0.25
 370
106
 10
135.347
 20
263.655017089844
 30
0.0
 11
135.268
 21
266.937017089844
 31
0.0
 0
LINE
 5
210
100
AcDbEntity
 8
Layer8
100
AcDbLine
 39
0.25
 370
106
 10
135.268
 20
266.937017089844
 30
0.0
 11
132.39675
 21
266.685017089844
 31
0.0
 0
LINE
 5
211
100
AcDbEntity
 8
Layer8
100
AcDbLine
 39
0.25
 370
106
 10
132.39675
 20
266.685017089844
 30
0.0
 11
130.994
 21
266.313017089844
 31
0.0
 0
LINE
 5
212
100
AcDbEntity
 8
Layer8
100
AcDbLine
 39
0.25
 370
106
 10
130.994
 20
266.313017089844
 30
0.0
 11
131.138
 21
263.143017089844
 31
0.0
 0
ARC
 5
213
100
AcDbEntity
 8
Layer8
100
AcDbCircle
 39
0.25
 370
106
 10
134.531898318326
 20
234.558208376503
 30
0.0
 40
32.4551465874086
100
AcDbArc
 50
88.553817872483
 51
101.890097623389
 0
LINE
 5
214
100
AcDbEntity
 8
Layer8
100
AcDbLine
 39
0.25
 370
106
 10
127.845
 20
266.317017089844
 30
0.0
 11
130.994
 21
266.313017089844
 31
0.0
 0
LINE
 5
215
100
AcDbEntity
 8
Layer8
100
AcDbLine
 39
0.25
 370
106
 10
130.994
 20
266.313017089844
 30
0.0
 11
135.351
 21
267.003017089844
 31
0.0
 0
LWPOLYLINE
 5
216
100
AcDbEntity
 8
Layer8
100
AcDbPolyline
 39
0.25
 370
106
 90
5              
 70
 1
 43
0.0
 10
128.208
 20
263.139017089844
 10
127.845
 20
266.317017089844
 10
130.994
 20
266.313017089844
 10
131.138
 20
263.143017089844
 10
128.208
 20
263.139017089844
 0
LINE
 5
217
100
AcDbEntity
 8
Layer8
100
AcDbLine
 39
0.25
 370
106
 10
131.138
 20
263.143017089844
 30
0.0
 11
133.683875
 21
263.549017089844
 31
0.0
 0
LINE
 5
218
100
AcDbEntity
 8
Layer8
100
AcDbLine
 39
0.25
 370
106
 10
133.683875
 20
263.549017089844
 30
0.0
 11
135.347
 21
263.655017089844
 31
0.0
 0
LINE
 5
219
100
AcDbEntity
 8
Layer8
100
AcDbLine
 39
0.25
 370
106
 10
135.347
 20
263.655017089844
 30
0.0
 11
135.268
 21
266.937017089844
 31
0.0
 0
LINE
 5
21A
100
AcDbEntity
 8
Layer8
100
AcDbLine
 39
0.25
 370
106
 10
135.268
 20
266.937017089844
 30
0.0
 11
132.39675
 21
266.685017089844
 31
0.0
 0
LINE
 5
21B
100
AcDbEntity
 8
Layer8
100
AcDbLine
 39
0.25
 370
106
 10
132.39675
 20
266.685017089844
 30
0.0
 11
130.994
 21
266.313017089844
 31
0.0
 0
LINE
 5
21C
100
AcDbEntity
 8
Layer8
100
AcDbLine
 39
0.25
 370
106
 10
130.994
 20
266.313017089844
 30
0.0
 11
131.138
 21
263.143017089844
 31
0.0
 0
LWPOLYLINE
 5
21D
100
AcDbEntity
 8
Layer8
100
AcDbPolyline
 39
0.25
 370
106
 90
5              
 70
 1
 43
0.0
 10
144.917
 20
263.164017089844
 10
143.586
 20
263.188017089844
 10
142.525
 20
263.307017089844
 10
142.537
 20
263.401017089844
 10
144.917
 20
263.164017089844
 0
LWPOLYLINE
 5
21E
100
AcDbEntity
 8
Layer8
100
AcDbPolyline
 39
0.25
 370
106
 90
5              
 70
 1
 43
0.0
 10
137.312
 20
262.997017089844
 10
133.311
 20
262.997017089844
 10
133.311
 20
264.288017089844
 10
137.312
 20
264.288017089844
 10
137.312
 20
262.997017089844
 0
LINE
 5
21F
100
AcDbEntity
 8
Layer8
100
AcDbLine
 39
0.25
 370
106
 10
125.192
 20
266.317017089844
 30
0.0
 11
125.348484375
 21
266.676485839844
 31
0.0
 0
LINE
 5
220
100
AcDbEntity
 8
Layer8
100
AcDbLine
 39
0.25
 370
106
 10
125.348484375
 20
266.676485839844
 30
0.0
 11
126.458875
 21
266.867767089844
 31
0.0
 0
LINE
 5
221
100
AcDbEntity
 8
Layer8
100
AcDbLine
 39
0.25
 370
106
 10
126.458875
 20
266.867767089844
 30
0.0
 11
135.351
 21
267.003017089844
 31
0.0
 0
LINE
 5
222
100
AcDbEntity
 8
Layer8
100
AcDbLine
 39
0.25
 370
106
 10
135.351
 20
267.003017089844
 30
0.0
 11
135.347
 21
263.655017089844
 31
0.0
 0
LINE
 5
223
100
AcDbEntity
 8
Layer8
100
AcDbLine
 39
0.25
 370
106
 10
135.347
 20
263.655017089844
 30
0.0
 11
128.163
 21
263.401017089844
 31
0.0
 0
LINE
 5
224
100
AcDbEntity
 8
Layer8
100
AcDbLine
 39
0.25
 370
106
 10
128.163
 20
263.401017089844
 30
0.0
 11
125.784
 21
263.164017089844
 31
0.0
 0
LINE
 5
225
100
AcDbEntity
 8
Layer8
100
AcDbLine
 39
0.25
 370
106
 10
125.784
 20
263.164017089844
 30
0.0
 11
125.192
 21
266.317017089844
 31
0.0
 0
HATCH
 5
226
100
AcDbEntity
 8
Layer22
100
AcDbHatch
 10
 0.0
 20
 0.0
 30
 0.0
 210
 0.0
 220
 0.0
 230
 1.0
 2
SOLID
 70
 1
 71
 1
 91
1              
 92
 0
 93
42             
 72
 1
 10
27.9066
 20
14.4341170898438
 11
31.9446
 21
14.4341170898438
 72
 1
 10
31.9446
 20
14.4341170898438
 11
31.8236
 21
23.3151170898437
 72
 1
 10
31.8236
 20
23.3151170898437
 11
31.812488671875
 21
23.9969081054687
 72
 1
 10
31.812488671875
 20
23.9969081054687
 11
31.799959375
 21
24.7288202148437
 72
 1
 10
31.799959375
 20
24.7288202148437
 11
31.784594140625
 21
25.4936620117187
 72
 1
 10
31.784594140625
 20
25.4936620117187
 11
31.764975
 21
26.2742420898437
 72
 1
 10
31.764975
 20
26.2742420898437
 11
31.739683984375
 21
27.0533690429687
 72
 1
 10
31.739683984375
 20
27.0533690429687
 11
31.707303125
 21
27.8138514648438
 72
 1
 10
31.707303125
 20
27.8138514648438
 11
31.666414453125
 21
28.5384979492187
 72
 1
 10
31.666414453125
 20
28.5384979492187
 11
31.6156
 21
29.2101170898437
 72
 1
 10
31.6156
 20
29.2101170898437
 11
31.8014359375
 21
28.6542831054687
 72
 1
 10
31.8014359375
 20
28.6542831054687
 11
32.0590375
 21
27.9674452148437
 72
 1
 10
32.0590375
 20
27.9674452148437
 11
32.3761703125
 21
27.1727245117188
 72
 1
 10
32.3761703125
 20
27.1727245117188
 11
32.7406
 21
26.2932420898437
 72
 1
 10
32.7406
 20
26.2932420898437
 11
33.1400921875
 21
25.3521190429687
 72
 1
 10
33.1400921875
 20
25.3521190429687
 11
33.5624125
 21
24.3724764648437
 72
 1
 10
33.5624125
 20
24.3724764648437
 11
33.9953265625
 21
23.3774354492187
 72
 1
 10
33.9953265625
 20
23.3774354492187
 11
34.4266
 21
22.3901170898437
 72
 1
 10
34.4266
 20
22.3901170898437
 11
37.9866
 21
14.4341170898438
 72
 1
 10
37.9866
 20
14.4341170898438
 11
42.3526
 21
14.4341170898438
 72
 1
 10
42.3526
 20
14.4341170898438
 11
42.3526
 21
35.2201170898438
 72
 1
 10
42.3526
 20
35.2201170898438
 11
38.3746
 21
35.2201170898438
 72
 1
 10
38.3746
 20
35.2201170898438
 11
38.4646
 21
26.7261170898437
 72
 1
 10
38.4646
 20
26.7261170898437
 11
38.480949609375
 21
26.1348338867188
 72
 1
 10
38.480949609375
 20
26.1348338867188
 11
38.507271875
 21
25.4550389648438
 72
 1
 10
38.507271875
 20
25.4550389648438
 11
38.542101953125
 21
24.7134393554688
 72
 1
 10
38.542101953125
 20
24.7134393554688
 11
38.583975
 21
23.9367420898437
 72
 1
 10
38.583975
 20
23.9367420898437
 11
38.631426171875
 21
23.1516541992187
 72
 1
 10
38.631426171875
 20
23.1516541992187
 11
38.682990625
 21
22.3848827148438
 72
 1
 10
38.682990625
 20
22.3848827148438
 11
38.737203515625
 21
21.6631346679688
 72
 1
 10
38.737203515625
 20
21.6631346679688
 11
38.7926
 21
21.0131170898438
 72
 1
 10
38.7926
 20
21.0131170898438
 11
38.6179046875
 21
21.6047538085937
 72
 1
 10
38.6179046875
 20
21.6047538085937
 11
38.408475
 21
22.2532733398437
 72
 1
 10
38.408475
 20
22.2532733398437
 11
38.1660453125
 21
22.9509647460937
 72
 1
 10
38.1660453125
 20
22.9509647460937
 11
37.89235
 21
23.6901170898437
 72
 1
 10
37.89235
 20
23.6901170898437
 11
37.5891234375
 21
24.4630194335937
 72
 1
 10
37.5891234375
 20
24.4630194335937
 11
37.2581
 21
25.2619608398437
 72
 1
 10
37.2581
 20
25.2619608398437
 11
36.9010140625
 21
26.0792303710937
 72
 1
 10
36.9010140625
 20
26.0792303710937
 11
36.5196
 21
26.9071170898437
 72
 1
 10
36.5196
 20
26.9071170898437
 11
32.5436
 21
35.2201170898438
 72
 1
 10
32.5436
 20
35.2201170898438
 11
27.9066
 21
35.2201170898438
 72
 1
 10
27.9066
 20
35.2201170898438
 11
27.9066
 21
14.4341170898438
 97
 1
 330
227
 75
 0
 76
 1
 98
 1
 10
 0.0
 20
 0.0
 0
HATCH
 5
228
100
AcDbEntity
 8
Layer22
100
AcDbHatch
 10
 0.0
 20
 0.0
 30
 0.0
 210
 0.0
 220
 0.0
 230
 1.0
 2
SOLID
 70
 1
 71
 1
 91
1              
 92
 0
 93
12             
 72
 1
 10
44.8608
 20
35.2204170898438
 11
44.8608
 21
14.4344170898437
 72
 1
 10
44.8608
 20
14.4344170898437
 11
56.9748
 21
14.4344170898437
 72
 1
 10
56.9748
 20
14.4344170898437
 11
56.9748
 21
18.0234170898437
 72
 1
 10
56.9748
 20
18.0234170898437
 11
49.1098
 21
18.0234170898437
 72
 1
 10
49.1098
 20
18.0234170898437
 11
49.1098
 21
23.5854170898438
 72
 1
 10
49.1098
 20
23.5854170898438
 11
54.9998
 21
23.5854170898438
 72
 1
 10
54.9998
 20
23.5854170898438
 11
54.9998
 21
26.9964170898438
 72
 1
 10
54.9998
 20
26.9964170898438
 11
49.0478
 21
26.9964170898438
 72
 1
 10
49.0478
 20
26.9964170898438
 11
49.0478
 21
31.8104170898437
 72
 1
 10
49.0478
 20
31.8104170898437
 11
56.1658
 21
31.8104170898437
 72
 1
 10
56.1658
 20
31.8104170898437
 11
56.7048
 21
35.2204170898438
 72
 1
 10
56.7048
 20
35.2204170898438
 11
44.8608
 21
35.2204170898438
 97
 1
 330
229
 75
 0
 76
 1
 98
 1
 10
 0.0
 20
 0.0
 0
HATCH
 5
22A
100
AcDbEntity
 8
Layer22
100
AcDbHatch
 10
 0.0
 20
 0.0
 30
 0.0
 210
 0.0
 220
 0.0
 230
 1.0
 2
SOLID
 70
 1
 71
 1
 91
1              
 92
 0
 93
49             
 72
 1
 10
58.5282
 20
14.4341170898438
 11
62.7452
 21
14.4341170898438
 72
 1
 10
62.7452
 20
14.4341170898438
 11
63.4622
 21
25.2911170898437
 72
 1
 10
63.4622
 20
25.2911170898437
 11
63.494198046875
 21
25.7678104492187
 72
 1
 10
63.494198046875
 20
25.7678104492187
 11
63.523184375
 21
26.2355389648437
 72
 1
 10
63.523184375
 20
26.2355389648437
 11
63.548772265625
 21
26.6964002929687
 72
 1
 10
63.548772265625
 20
26.6964002929687
 11
63.570575
 21
27.1524920898437
 72
 1
 10
63.570575
 20
27.1524920898437
 11
63.588205859375
 21
27.6059120117187
 72
 1
 10
63.588205859375
 20
27.6059120117187
 11
63.601278125
 21
28.0587577148438
 72
 1
 10
63.601278125
 20
28.0587577148438
 11
63.609405078125
 21
28.5131268554688
 72
 1
 10
63.609405078125
 20
28.5131268554688
 11
63.6122
 21
28.9711170898437
 72
 1
 10
63.6122
 20
28.9711170898437
 11
67.4112
 21
14.4341170898438
 72
 1
 10
67.4112
 20
14.4341170898438
 11
71.0902
 21
14.4341170898438
 72
 1
 10
71.0902
 20
14.4341170898438
 11
72.344303515625
 21
18.8000877929688
 72
 1
 10
72.344303515625
 20
18.8000877929688
 11
73.289653125
 21
22.0956327148438
 72
 1
 10
73.289653125
 20
22.0956327148438
 11
73.973557421875
 21
24.4897010742187
 72
 1
 10
73.973557421875
 20
24.4897010742187
 11
74.443325
 21
26.1512420898437
 72
 1
 10
74.443325
 20
26.1512420898437
 11
74.746264453125
 21
27.2492049804687
 72
 1
 10
74.746264453125
 20
27.2492049804687
 11
74.929684375
 21
27.9525389648437
 72
 1
 10
74.929684375
 20
27.9525389648437
 11
75.040893359375
 21
28.4301932617187
 72
 1
 10
75.040893359375
 20
28.4301932617187
 11
75.1272
 21
28.8511170898437
 72
 1
 10
75.1272
 20
28.8511170898437
 11
75.16832109375
 21
27.9135194335938
 72
 1
 10
75.16832109375
 20
27.9135194335938
 11
75.27673125
 21
26.1310233398438
 72
 1
 10
75.27673125
 20
26.1310233398438
 11
75.43000078125
 21
23.8025741210937
 72
 1
 10
75.43000078125
 20
23.8025741210937
 11
75.6057
 21
21.2271170898438
 72
 1
 10
75.6057
 20
21.2271170898438
 11
75.78139921875
 21
18.7035975585938
 72
 1
 10
75.78139921875
 20
18.7035975585938
 11
75.93466875
 21
16.5309608398438
 72
 1
 10
75.93466875
 20
16.5309608398438
 11
76.04307890625
 21
15.0081522460938
 72
 1
 10
76.04307890625
 20
15.0081522460938
 11
76.0842
 21
14.4341170898438
 72
 1
 10
76.0842
 20
14.4341170898438
 11
80.2122
 21
14.4341170898438
 72
 1
 10
80.2122
 20
14.4341170898438
 11
78.3582
 21
35.2201170898438
 72
 1
 10
78.3582
 20
35.2201170898438
 11
72.8842
 21
35.2201170898438
 72
 1
 10
72.8842
 20
35.2201170898438
 11
71.778362109375
 21
31.0913749023438
 72
 1
 10
71.778362109375
 20
31.0913749023438
 11
70.944809375
 21
27.9755545898437
 72
 1
 10
70.944809375
 20
27.9755545898437
 11
70.341858203125
 21
25.7135155273438
 72
 1
 10
70.341858203125
 20
25.7135155273438
 11
69.927825
 21
24.1461170898437
 72
 1
 10
69.927825
 20
24.1461170898437
 11
69.661026171875
 21
23.1142186523438
 72
 1
 10
69.661026171875
 20
23.1142186523438
 11
69.499778125
 21
22.4586795898437
 72
 1
 10
69.499778125
 20
22.4586795898437
 11
69.402397265625
 21
22.0203592773437
 72
 1
 10
69.402397265625
 20
22.0203592773437
 11
69.3272
 21
21.6401170898437
 72
 1
 10
69.3272
 20
21.6401170898437
 11
69.127334765625
 21
22.5331366210937
 72
 1
 10
69.127334765625
 20
22.5331366210937
 11
68.713028125
 21
24.2167733398437
 72
 1
 10
68.713028125
 20
24.2167733398437
 11
68.158588671875
 21
26.4106444335937
 72
 1
 10
68.158588671875
 20
26.4106444335937
 11
67.538325
 21
28.8343670898437
 72
 1
 10
67.538325
 20
28.8343670898437
 11
66.926545703125
 21
31.2075584960938
 72
 1
 10
66.926545703125
 20
31.2075584960938
 11
66.397559375
 21
33.2498358398437
 72
 1
 10
66.397559375
 20
33.2498358398437
 11
66.025674609375
 21
34.6808163085938
 72
 1
 10
66.025674609375
 20
34.6808163085938
 11
65.8852
 21
35.2201170898438
 72
 1
 10
65.8852
 20
35.2201170898438
 11
60.4732
 21
35.2201170898438
 72
 1
 10
60.4732
 20
35.2201170898438
 11
58.5282
 21
14.4341170898438
 97
 1
 330
22B
 75
 0
 76
 1
 98
 1
 10
 0.0
 20
 0.0
 0
HATCH
 5
22C
100
AcDbEntity
 8
Layer22
100
AcDbHatch
 10
 0.0
 20
 0.0
 30
 0.0
 210
 0.0
 220
 0.0
 230
 1.0
 2
SOLID
 70
 1
 71
 1
 91
2              
 92
 0
 93
56             
 72
 1
 10
94.1011
 20
29.6284170898438
 11
94.226672265625
 21
29.1734991210938
 72
 1
 10
94.226672265625
 20
29.1734991210938
 11
94.335615625
 21
28.6821358398438
 72
 1
 10
94.335615625
 20
28.6821358398438
 11
94.427894921875
 21
28.1515381835937
 72
 1
 10
94.427894921875
 20
28.1515381835937
 11
94.503475
 21
27.5789170898437
 72
 1
 10
94.503475
 20
27.5789170898437
 11
94.562320703125
 21
26.9614834960937
 72
 1
 10
94.562320703125
 20
26.9614834960937
 11
94.604396875
 21
26.2964483398437
 72
 1
 10
94.604396875
 20
26.2964483398437
 11
94.629668359375
 21
25.5810225585938
 72
 1
 10
94.629668359375
 20
25.5810225585938
 11
94.6381
 21
24.8124170898437
 72
 1
 10
94.6381
 20
24.8124170898437
 11
94.579797265625
 21
22.9705108398438
 72
 1
 10
94.579797265625
 20
22.9705108398438
 11
94.401365625
 21
21.4070420898437
 72
 1
 10
94.401365625
 20
21.4070420898437
 11
94.097519921875
 21
20.1118858398437
 72
 1
 10
94.097519921875
 20
20.1118858398437
 11
93.662975
 21
19.0749170898438
 72
 1
 10
93.662975
 20
19.0749170898438
 11
93.092445703125
 21
18.2860108398438
 72
 1
 10
93.092445703125
 20
18.2860108398438
 11
92.380646875
 21
17.7350420898438
 72
 1
 10
92.380646875
 20
17.7350420898438
 11
91.522293359375
 21
17.4118858398438
 72
 1
 10
91.522293359375
 20
17.4118858398438
 11
90.5121
 21
17.3064170898438
 72
 1
 10
90.5121
 20
17.3064170898438
 11
90.14873671875
 21
17.3175811523438
 72
 1
 10
90.14873671875
 20
17.3175811523438
 11
89.79988125
 21
17.3511045898438
 72
 1
 10
89.79988125
 20
17.3511045898438
 11
89.46588515625
 21
17.4070342773438
 72
 1
 10
89.46588515625
 20
17.4070342773438
 11
89.1471
 21
17.4854170898437
 72
 1
 10
89.1471
 20
17.4854170898437
 11
88.84387734375
 21
17.5862999023438
 72
 1
 10
88.84387734375
 20
17.5862999023438
 11
88.55656875
 21
17.7097295898437
 72
 1
 10
88.55656875
 20
17.7097295898437
 11
88.28552578125
 21
17.8557530273438
 72
 1
 10
88.28552578125
 20
17.8557530273438
 11
88.0311
 21
18.0244170898437
 72
 1
 10
88.0311
 20
18.0244170898437
 11
87.598449609375
 21
18.4318838867187
 72
 1
 10
87.598449609375
 20
18.4318838867187
 11
87.222459375
 21
18.9612139648438
 72
 1
 10
87.222459375
 20
18.9612139648438
 11
86.903445703125
 21
19.6134268554687
 72
 1
 10
86.903445703125
 20
19.6134268554687
 11
86.641725
 21
20.3895420898437
 72
 1
 10
86.641725
 20
20.3895420898437
 11
86.437613671875
 21
21.2905791992188
 72
 1
 10
86.437613671875
 20
21.2905791992188
 11
86.291428125
 21
22.3175577148438
 72
 1
 10
86.291428125
 20
22.3175577148438
 11
86.203484765625
 21
23.4714971679688
 72
 1
 10
86.203484765625
 20
23.4714971679688
 11
86.1741
 21
24.7534170898438
 72
 1
 10
86.1741
 20
24.7534170898438
 11
86.1896390625
 21
25.6635362304688
 72
 1
 10
86.1896390625
 20
25.6635362304688
 11
86.236725
 21
26.5115577148438
 72
 1
 10
86.236725
 20
26.5115577148438
 11
86.3160609375
 21
27.2999776367187
 72
 1
 10
86.3160609375
 20
27.2999776367187
 11
86.42835
 21
28.0312920898438
 72
 1
 10
86.42835
 20
28.0312920898438
 11
86.5742953125
 21
28.7079971679687
 72
 1
 10
86.5742953125
 20
28.7079971679687
 11
86.7546
 21
29.3325889648438
 72
 1
 10
86.7546
 20
29.3325889648438
 11
86.9699671875
 21
29.9075635742187
 72
 1
 10
86.9699671875
 20
29.9075635742187
 11
87.2211
 21
30.4354170898437
 72
 1
 10
87.2211
 20
30.4354170898437
 11
87.46562734375
 21
30.8313350585937
 72
 1
 10
87.46562734375
 20
30.8313350585937
 11
87.76825625
 21
31.1870108398437
 72
 1
 10
87.76825625
 20
31.1870108398437
 11
88.12268203125
 21
31.4985772460937
 72
 1
 10
88.12268203125
 20
31.4985772460937
 11
88.5226
 21
31.7621670898437
 72
 1
 10
88.5226
 20
31.7621670898437
 11
88.96170546875
 21
31.9739131835938
 72
 1
 10
88.96170546875
 20
31.9739131835938
 11
89.43369375
 21
32.1299483398437
 72
 1
 10
89.43369375
 20
32.1299483398437
 11
89.93226015625
 21
32.2264053710937
 72
 1
 10
89.93226015625
 20
32.2264053710937
 11
90.4511
 21
32.2594170898437
 72
 1
 10
90.4511
 20
32.2594170898437
 11
91.230430078125
 21
32.1893506835937
 72
 1
 10
91.230430078125
 20
32.1893506835937
 11
91.909740625
 21
31.9956983398437
 72
 1
 10
91.909740625
 20
31.9956983398437
 11
92.492887109375
 21
31.7032803710937
 72
 1
 10
92.492887109375
 20
31.7032803710937
 11
92.983725
 21
31.3369170898438
 72
 1
 10
92.983725
 20
31.3369170898438
 11
93.386109765625
 21
30.9214288085937
 72
 1
 10
93.386109765625
 20
30.9214288085937
 11
93.703896875
 21
30.4816358398438
 72
 1
 10
93.703896875
 20
30.4816358398438
 11
93.940941796875
 21
30.0423584960938
 72
 1
 10
93.940941796875
 20
30.0423584960938
 11
94.1011
 21
29.6284170898438
 97
 1
 330
22D
 92
 0
 93
56             
 72
 1
 10
86.2051
 20
34.4734170898437
 11
85.152570703125
 21
33.7680362304687
 72
 1
 10
85.152570703125
 20
33.7680362304687
 11
84.221178125
 21
32.8923702148438
 72
 1
 10
84.221178125
 20
32.8923702148438
 11
83.416840234375
 21
31.8587588867188
 72
 1
 10
83.416840234375
 20
31.8587588867188
 11
82.745475
 21
30.6795420898438
 72
 1
 10
82.745475
 20
30.6795420898438
 11
82.213000390625
 21
29.3670596679688
 72
 1
 10
82.213000390625
 20
29.3670596679688
 11
81.825334375
 21
27.9336514648438
 72
 1
 10
81.825334375
 20
27.9336514648438
 11
81.588394921875
 21
26.3916573242187
 72
 1
 10
81.588394921875
 20
26.3916573242187
 11
81.5081
 21
24.7534170898438
 72
 1
 10
81.5081
 20
24.7534170898438
 11
81.545914453125
 21
23.6290752929688
 72
 1
 10
81.545914453125
 20
23.6290752929688
 11
81.659115625
 21
22.5463702148437
 72
 1
 10
81.659115625
 20
22.5463702148437
 11
81.847340234375
 21
21.5072823242188
 72
 1
 10
81.847340234375
 20
21.5072823242188
 11
82.110225
 21
20.5137920898438
 72
 1
 10
82.110225
 20
20.5137920898438
 11
82.447406640625
 21
19.5678799804687
 72
 1
 10
82.447406640625
 20
19.5678799804687
 11
82.858521875
 21
18.6715264648437
 72
 1
 10
82.858521875
 20
18.6715264648437
 11
83.343207421875
 21
17.8267120117187
 72
 1
 10
83.343207421875
 20
17.8267120117187
 11
83.9011
 21
17.0354170898437
 72
 1
 10
83.9011
 20
17.0354170898437
 11
84.517848046875
 21
16.3174561523438
 72
 1
 10
84.517848046875
 20
16.3174561523438
 11
85.184459375
 21
15.7075420898437
 72
 1
 10
85.184459375
 20
15.7075420898437
 11
85.908609765625
 21
15.2018780273438
 72
 1
 10
85.908609765625
 20
15.2018780273438
 11
86.697975
 21
14.7966670898437
 72
 1
 10
86.697975
 20
14.7966670898437
 11
87.560230859375
 21
14.4881124023437
 72
 1
 10
87.560230859375
 20
14.4881124023437
 11
88.503053125
 21
14.2724170898438
 72
 1
 10
88.503053125
 20
14.2724170898438
 11
89.534117578125
 21
14.1457842773438
 72
 1
 10
89.534117578125
 20
14.1457842773438
 11
90.6611
 21
14.1044170898438
 72
 1
 10
90.6611
 20
14.1044170898438
 11
91.286336328125
 21
14.1174073242188
 72
 1
 10
91.286336328125
 20
14.1174073242188
 11
91.865928125
 21
14.1575264648438
 72
 1
 10
91.865928125
 20
14.1575264648438
 11
92.407574609375
 21
14.2264971679688
 72
 1
 10
92.407574609375
 20
14.2264971679688
 11
92.918975
 21
14.3260420898438
 72
 1
 10
92.918975
 20
14.3260420898438
 11
93.407828515625
 21
14.4578838867187
 72
 1
 10
93.407828515625
 20
14.4578838867187
 11
93.881834375
 21
14.6237452148437
 72
 1
 10
93.881834375
 20
14.6237452148437
 11
94.348691796875
 21
14.8253487304687
 72
 1
 10
94.348691796875
 20
14.8253487304687
 11
94.8161
 21
15.0644170898437
 72
 1
 10
94.8161
 20
15.0644170898437
 11
95.87508046875
 21
15.7758682617188
 72
 1
 10
95.87508046875
 20
15.7758682617188
 11
96.80419375
 21
16.6512764648438
 72
 1
 10
96.80419375
 20
16.6512764648438
 11
97.59994765625
 21
17.6832237304687
 72
 1
 10
97.59994765625
 20
17.6832237304687
 11
98.25885
 21
18.8642920898437
 72
 1
 10
98.25885
 20
18.8642920898437
 11
98.77740859375
 21
20.1870635742187
 72
 1
 10
98.77740859375
 20
20.1870635742187
 11
99.15213125
 21
21.6441202148437
 72
 1
 10
99.15213125
 20
21.6441202148437
 11
99.37952578125
 21
23.2280440429687
 72
 1
 10
99.37952578125
 20
23.2280440429687
 11
99.4561
 21
24.9314170898438
 72
 1
 10
99.4561
 20
24.9314170898438
 11
99.2986859375
 21
27.2573643554688
 72
 1
 10
99.2986859375
 20
27.2573643554688
 11
98.8365375
 21
29.3323077148438
 72
 1
 10
98.8365375
 20
29.3323077148438
 11
98.0847953125
 21
31.1380245117188
 72
 1
 10
98.0847953125
 20
31.1380245117188
 11
97.0586
 21
32.6562920898438
 72
 1
 10
97.0586
 20
32.6562920898438
 11
95.7730921875
 21
33.8688877929687
 72
 1
 10
95.7730921875
 20
33.8688877929687
 11
94.2434125
 21
34.7575889648438
 72
 1
 10
94.2434125
 20
34.7575889648438
 11
92.4847015625
 21
35.3041729492188
 72
 1
 10
92.4847015625
 20
35.3041729492188
 11
90.5121
 21
35.4904170898437
 72
 1
 10
90.5121
 20
35.4904170898437
 11
89.930535546875
 21
35.4737061523438
 72
 1
 10
89.930535546875
 20
35.4737061523438
 11
89.354959375
 21
35.4240420898437
 72
 1
 10
89.354959375
 20
35.4240420898437
 11
88.788547265625
 21
35.3421280273437
 72
 1
 10
88.788547265625
 20
35.3421280273437
 11
88.234475
 21
35.2286670898437
 72
 1
 10
88.234475
 20
35.2286670898437
 11
87.695918359375
 21
35.0843624023437
 72
 1
 10
87.695918359375
 20
35.0843624023437
 11
87.176053125
 21
34.9099170898437
 72
 1
 10
87.176053125
 20
34.9099170898437
 11
86.678055078125
 21
34.7060342773437
 72
 1
 10
86.678055078125
 20
34.7060342773437
 11
86.2051
 21
34.4734170898437
 97
 1
 330
22E
 75
 0
 76
 1
 98
 1
 10
 0.0
 20
 0.0
 0
LINE
 5
22F
100
AcDbEntity
 8
Layer8
100
AcDbLine
 39
0.25
 370
106
 10
113.523
 20
208.170017089844
 30
0.0
 11
124.717
 21
227.562017089844
 31
0.0
 0
LINE
 5
230
100
AcDbEntity
 8
Layer8
100
AcDbLine
 39
0.25
 370
106
 10
124.717
 20
227.562017089844
 30
0.0
 11
147.101
 21
227.562017089844
 31
0.0
 0
LINE
 5
231
100
AcDbEntity
 8
Layer8
100
AcDbLine
 39
0.25
 370
106
 10
147.101
 20
227.562017089844
 30
0.0
 11
158.293
 21
208.170017089844
 31
0.0
 0
LINE
 5
232
100
AcDbEntity
 8
Layer8
100
AcDbLine
 39
0.25
 370
106
 10
158.293
 20
208.170017089844
 30
0.0
 11
147.101
 21
188.779017089844
 31
0.0
 0
LINE
 5
233
100
AcDbEntity
 8
Layer8
100
AcDbLine
 39
0.25
 370
106
 10
147.101
 20
188.779017089844
 30
0.0
 11
124.717
 21
188.779017089844
 31
0.0
 0
LINE
 5
234
100
AcDbEntity
 8
Layer8
100
AcDbLine
 39
0.25
 370
106
 10
124.717
 20
188.779017089844
 30
0.0
 11
113.523
 21
208.170017089844
 31
0.0
 0
TEXT
 5
235
100
AcDbEntity
 8
Layer8
100
AcDbText
 40
9.6
 41
0.61000
 72
0
 50
0
  1
2
  7
STANDARD
 10
31.3755
 20
261.303617089844
 30
0.0
 11
31.3755
 21
261.303617089844
 31
0.0
100
AcDbText
 73
  1
 0
TEXT
 5
236
100
AcDbEntity
 8
Layer8
100
AcDbText
 40
9.6
 41
0.61000
 72
0
 50
0
  1
4
  7
STANDARD
 10
28.3515
 20
475.223082289844
 30
0.0
 11
28.3515
 21
475.223082289844
 31
0.0
100
AcDbText
 73
  1
 0
TEXT
 5
237
100
AcDbEntity
 8
Layer8
100
AcDbText
 40
9.6
 41
0.61000
 72
0
 50
0
  1
10
  7
STANDARD
 10
57.5835
 20
170.850509889844
 30
0.0
 11
57.5835
 21
170.850509889844
 31
0.0
100
AcDbText
 73
  1
 0
TEXT
 5
238
100
AcDbEntity
 8
Layer8
100
AcDbText
 40
9.6
 41
0.61000
 72
0
 50
0
  1
30
  7
STANDARD
 10
131.2515
 20
171.677174489844
 30
0.0
 11
131.2515
 21
171.677174489844
 31
0.0
100
AcDbText
 73
  1
 0
TEXT
 5
239
100
AcDbEntity
 8
Layer8
100
AcDbText
 40
9.6
 41
0.61000
 72
0
 50
0
  1
cable lenght 2m
  7
STANDARD
 10
47.4854
 20
75.3085170898437
 30
0.0
 11
47.4854
 21
75.3085170898437
 31
0.0
100
AcDbText
 73
  1
  0
ENDSEC
  0
SECTION
  2
OBJECTS
  0
DICTIONARY
  5
19
100
AcDbDictionary
  3
ACAD_GROUP
350
1A
  3
ACAD_MLINESTYLE
350
1B
  0
DICTIONARY
  5
1A
102
{ACAD_REACTORS
330
19
102
}
100
AcDbDictionary
  0
DICTIONARY
  5
1B
102
{ACAD_REACTORS
330
19
102
}
100
AcDbDictionary
  3
STANDARD
350
1C
  0
MLINESTYLE
  5
1C
102
{ACAD_REACTORS
330
1B
102
}
100
AcDbMlineStyle
  2
STANDARD
 70
     0
  3

 62
     0
 51
90.0
 52
90.0
 71
     2
 49
0.5
 62
   256
  6
BYLAYER
 49
-0.5
 62
   256
  6
BYLAYER
  0
ENDSEC
  0
EOF
