 999
SCAN2CAD Date : 01/26/16
 999
SCAN2CAD ScalePixelX : 1
 999
SCAN2CAD ScalePixelY : 1
 999
SCAN2CAD TileXOffset : 0
 999
SCAN2CAD TileYOffset : 0
 999
SCAN2CAD MeasureType : 1
 999
SCAN2CAD DotsPerInch : 0
 999
SCAN2CAD GeScalePixX : 1
 999
SCAN2CAD GeScalePixY : 1
 999
SCAN2CAD GeRasTiePtX : 0
 999
SCAN2CAD GeRasTiePtY : 0
 999
SCAN2CAD ScalRasDist : 1
 999
SCAN2CAD ScalVecDist : 1
 999
SCAN2CAD ScalUnitTyp : 0
 999
SCAN2CAD ScalDistFac : 1
 999
SCAN2CAD ScalAdjustX : 1
 999
SCAN2CAD ScalAdjustY : 1
 999
SCAN2CAD MeasureMeth : 1
 999
SCAN2CAD OgDrawScale : 1
 999
SCAN2CAD OgDrawUType : 0
 999
SCAN2CAD ToDrawScale : 1
 999
SCAN2CAD ToDrawUType : 0
  0
SECTION
  2
HEADER
  9
$ACADVER
  1
AC1014
  9
$ACADMAINTVER
 70
     0
  9
$DWGCODEPAGE
  3
ANSI_1252
  9
$INSBASE
 10
0.0
 20
0.0
 30
0.0
 9
$EXTMIN
 10
25.773399999999
 20
15.11621171875
 30
0.0
 9
$EXTMAX
 10
185.520329879507
 20
507.22701171875
 30
0.0
 9
$LIMMIN
 10
0
 20
0
 9
$LIMMAX
 10
214
 20
533
  9
$ORTHOMODE
 70
     0
  9
$REGENMODE
 70
     1
  9
$FILLMODE
 70
     1
  9
$QTEXTMODE
 70
     0
  9
$MIRRTEXT
 70
     1
  9
$DRAGMODE
 70
     2
  9
$LTSCALE
 40
1.0
  9
$OSMODE
 70
     0
  9
$ATTMODE
 70
     1
  9
$TEXTSIZE
 40
0.2
  9
$TRACEWID
 40
0.05
  9
$TEXTSTYLE
  7
STANDARD
  9
$CLAYER
  8
0
  9
$CELTYPE
  6
CONTINUOUS
  9
$CECOLOR
 62
   256
  9
$CELTSCALE
 40
1.0
  9
$DELOBJ
 70
     1
  9
$DISPSILH
 70
     0
  9
$DIMSCALE
 40
1.0
  9
$DIMASZ
 40
0.18
  9
$DIMEXO
 40
0.0625
  9
$DIMDLI
 40
0.38
  9
$DIMRND
 40
0.0
  9
$DIMDLE
 40
0.0
  9
$DIMEXE
 40
0.18
  9
$DIMTP
 40
0.0
  9
$DIMTM
 40
0.0
  9
$DIMTXT
 40
0.18
  9
$DIMCEN
 40
0.09
  9
$DIMTSZ
 40
0.0
  9
$DIMTOL
 70
     0
  9
$DIMLIM
 70
     0
  9
$DIMTIH
 70
     1
  9
$DIMTOH
 70
     1
  9
$DIMSE1
 70
     0
  9
$DIMSE2
 70
     0
  9
$DIMTAD
 70
     0
  9
$DIMZIN
 70
     0
  9
$DIMBLK
  1

  9
$DIMASO
 70
     1
  9
$DIMSHO
 70
     1
  9
$DIMPOST
  1

  9
$DIMAPOST
  1

  9
$DIMALT
 70
     0
  9
$DIMALTD
 70
     2
  9
$DIMALTF
 40
25.4
  9
$DIMLFAC
 40
1.0
  9
$DIMTOFL
 70
     0
  9
$DIMTVP
 40
0.0
  9
$DIMTIX
 70
     0
  9
$DIMSOXD
 70
     0
  9
$DIMSAH
 70
     0
  9
$DIMBLK1
  1

  9
$DIMBLK2
  1

  9
$DIMSTYLE
  2
STANDARD
  9
$DIMCLRD
 70
     0
  9
$DIMCLRE
 70
     0
  9
$DIMCLRT
 70
     0
  9
$DIMTFAC
 40
1.0
  9
$DIMGAP
 40
0.09
  9
$DIMJUST
 70
     0
  9
$DIMSD1
 70
     0
  9
$DIMSD2
 70
     0
  9
$DIMTOLJ
 70
     1
  9
$DIMTZIN
 70
     0
  9
$DIMALTZ
 70
     0
  9
$DIMALTTZ
 70
     0
  9
$DIMFIT
 70
     3
  9
$DIMUPT
 70
     0
  9
$DIMUNIT
 70
     2
  9
$DIMDEC
 70
     4
  9
$DIMTDEC
 70
     4
  9
$DIMALTU
 70
     2
  9
$DIMALTTD
 70
     2
  9
$DIMTXSTY
  7
STANDARD
  9
$DIMAUNIT
 70
     0
  9
$LUNITS
 70
     2
  9
$LUPREC
 70
     4
  9
$SKETCHINC
 40
0.1
  9
$FILLETRAD
 40
0.0
  9
$AUNITS
 70
     0
  9
$AUPREC
 70
     0
  9
$MENU
  1
acad
  9
$ELEVATION
 40
0.0
  9
$PELEVATION
 40
0.0
  9
$THICKNESS
 40
0.0
  9
$LIMCHECK
 70
     0
  9
$BLIPMODE
 70
     1
  9
$CHAMFERA
 40
0.0
  9
$CHAMFERB
 40
0.0
  9
$CHAMFERC
 40
0.0
  9
$CHAMFERD
 40
0.0
  9
$SKPOLY
 70
     0
  9
$TDCREATE
 40
0.000000000
  9
$TDUPDATE
 40
0.000000000
  9
$TDINDWG
 40
0.0000000000
  9
$TDUSRTIMER
 40
0.0000000000
  9
$USRTIMER
 70
     1
  9
$ANGBASE
 50
0.0
  9
$ANGDIR
 70
     0
  9
$PDMODE
 70
     0
  9
$PDSIZE
 40
0.0
  9
$PLINEWID
 40
0.0
  9
$COORDS
 70
     0
  9
$SPLFRAME
 70
     0
  9
$SPLINETYPE
 70
     6
  9
$SPLINESEGS
 70
     8
  9
$ATTDIA
 70
     0
  9
$ATTREQ
 70
     1
  9
$HANDLING
 70
     1
  9
$HANDSEED
  5
     3B5
  9
$SURFTAB1
 70
     6
  9
$SURFTAB2
 70
     6
  9
$SURFTYPE
 70
     6
  9
$SURFU
 70
     6
  9
$SURFV
 70
     6
  9
$UCSNAME
  2

  9
$UCSORG
 10
0.0
 20
0.0
 30
0.0
  9
$UCSXDIR
 10
1.0
 20
0.0
 30
0.0
  9
$UCSYDIR
 10
0.0
 20
1.0
 30
0.0
  9
$PUCSNAME
  2

  9
$PUCSORG
 10
0.0
 20
0.0
 30
0.0
  9
$PUCSXDIR
 10
1.0
 20
0.0
 30
0.0
  9
$PUCSYDIR
 10
0.0
 20
1.0
 30
0.0
  9
$USERI1
 70
     0
  9
$USERI2
 70
     0
  9
$USERI3
 70
     0
  9
$USERI4
 70
     0
  9
$USERI5
 70
     0
  9
$USERR1
 40
0.0
  9
$USERR2
 40
0.0
  9
$USERR3
 40
0.0
  9
$USERR4
 40
0.0
  9
$USERR5
 40
0.0
  9
$WORLDVIEW
 70
     1
  9
$SHADEDGE
 70
     3
  9
$SHADEDIF
 70
    70
  9
$TILEMODE
 70
     1
  9
$MAXACTVP
 70
    16
  9
$PINSBASE
 10
0.0
 20
0.0
 30
0.0
  9
$PLIMCHECK
 70
     0
 9
$PEXTMIN
 10
25.773399999999
 20
15.11621171875
 30
0.0
 9
$PEXTMAX
 10
185.520329879507
 20
507.22701171875
 30
0.0
 9
$PLIMMIN
 10
0
 20
0
 9
$PLIMMAX
 10
214
 20
533
  9
$UNITMODE
 70
     0
  9
$VISRETAIN
 70
     0
  9
$PLINEGEN
 70
     1
  9
$PSLTSCALE
 70
     0
  9
$TREEDEPTH
 70
  3020
  9
$PICKSTYLE
 70
     1
  9
$CMLSTYLE
  2
STANDARD
  9
$CMLJUST
 70
     0
  9
$CMLSCALE
 40
1.0
  9
$PROXYGRAPHICS
 70
     0
  9
$MEASUREMENT
 70
     0
  0
ENDSEC
  0
SECTION
  2
CLASSES
  0
CLASS
  1
LWPOLYLINE
  2
AcDbPolyline
  3
"AutoCAD"
 90
        0
280
     0
281
     1
  0
CLASS
  1
IMAGE
  2
AcDbRasterImage
  3
ISM
 90
      127
280
     0
281
     1
  0
CLASS
  1
OLE2FRAME
  2
AcDbOle2Frame
  3
""
 90
        0
280
     0
281
     1
  0
CLASS
  1
HATCH
  2
AcDbHatch
  3
"ACAD_SEDONA"
 90
        0
280
     0
281
     1
  0
CLASS
  1
DICTIONARYVAR
  2
AcDbDictionaryVar
  3
"AutoCAD"
 90
        0
280
     0
281
     0
  0
CLASS
  1
RASTERVARIABLES
  2
AcDbRasterVariables
  3
ISM
 90
        0
280
     0
281
     0
  0
CLASS
  1
IMAGEDEF
  2
AcDbRasterImageDef
  3
ISM
 90
        0
280
     0
281
     0
  0
CLASS
  1
IMAGEDEF_REACTOR
  2
AcDbRasterImageDefReactor
  3
ISM
 90
        1
280
     0
281
     0
  0
CLASS
  1
IDBUFFER
  2
AcDbIdBuffer
  3
"Acad"
 90
        0
280
     0
281
     0
  0
CLASS
  1
SPATIAL_FILTER
  2
AcDbSpatialFilter
  3
"Acad"
 90
        0
280
     0
281
     0
  0
CLASS
  1
XRECORD
  2
AcDbXrecord
  3
"<Built In>"
 90
        0
280
     0
281
     0
  0
CLASS
  1
SORTENTSTABLE
  2
AcDbSortentsTable
  3
"AutoCAD"
 90
        0
280
     0
281
     0
  0
CLASS
  1
LAYER_INDEX
  2
AcDbLayerIndex
  3
"Acad"
 90
        0
280
     0
281
     0
  0
CLASS
  1
SPATIAL_INDEX
  2
AcDbSpatialIndex
  3
"Acad"
 90
        0
280
     0
281
     0
  0
CLASS
  1
OBJECT_PTR
  2
CAseDLPNTableRecord
  3
"ASE-LPNTableRecord"
 90
        1
280
     0
281
     0
  0
ENDSEC
  0
SECTION
  2
TABLES
  0
TABLE
  2
VPORT
  5
7
100
AcDbSymbolTable
 70
     1
  0
VPORT
  5
15
100
AcDbSymbolTableRecord
100
AcDbViewportTableRecord
 2
*ACTIVE
 70
     0
 10
0
 20
0
 11
1.0
 21
1.0
 12
0.0
 22
0.0
 13
0.0
 23
0.0
 14
1.0
 24
1.0
 15
0.0
 25
0.0
 16
0.0
 26
0.0
 36
1.0
 17
105.646864939753
 27
261.17161171875
 37
0.0
 40
496.1108
 41
0.33006120785822
 42
50.0
 43
0.0
 44
0.0
 50
0.0
 51
0.0
 71
     0
 72
   100
 73
     1
 74
     1
 75
     0
 76
     0
 77
     0
 78
     0
   0
ENDTAB
  0
TABLE
  2
LTYPE
  5
4
100
AcDbSymbolTable
 70
3
  0
LTYPE
  5
11
100
AcDbSymbolTableRecord
100
AcDbLinetypeTableRecord
  2
BYBLOCK
 70
     0
  3

 72
    65
 73
     0
 40
0.0
  0
LTYPE
  5
12
100
AcDbSymbolTableRecord
100
AcDbLinetypeTableRecord
  2
BYLAYER
 70
     0
  3

 72
    65
 73
     0
 40
0.0
  0
LTYPE
  5
80
330
5
100
AcDbSymbolTableRecord
100
AcDbLinetypeTableRecord
  2
CONTINUOUS
 70
     0
  3
Continuous
 72
    65
 73
     0
 40
0.0
  0
LTYPE
  5
81
330
5
100
AcDbSymbolTableRecord
100
AcDbLinetypeTableRecord
  2
DASH
 70
     0
  3
Dash
 72
    65
 73
     2
 40
48.0
 49
24.0
 74
     0
 49
-24.0
 74
     0
  0
LTYPE
  5
82
330
5
100
AcDbSymbolTableRecord
100
AcDbLinetypeTableRecord
  2
DASHDOT
 70
     0
  3
DashDot
 72
    65
 73
     4
 40
48.0
 49
24.0
 74
     0
 49
 -12.0
 74
     0
 49
0.0
 74
     0
 49
 -12.0
 74
     0	
  0
ENDTAB
  0
TABLE
  2
LAYER
  5
2
100
AcDbSymbolTable
 70
4              
  0
LAYER
  5
83
100
AcDbSymbolTableRecord
100
AcDbLayerTableRecord
  2
0
 70
     0
 62
     7
  6
CONTINUOUS
 0
LAYER
  5
84
100
AcDbSymbolTableRecord
100
AcDbLayerTableRecord
 2
Layer0
 70
 64
 62
 7
 6
CONTINUOUS
 0
LAYER
  5
85
100
AcDbSymbolTableRecord
100
AcDbLayerTableRecord
 2
Layer8
 70
 64
 62
 8
 6
CONTINUOUS
 0
LAYER
  5
86
100
AcDbSymbolTableRecord
100
AcDbLayerTableRecord
 2
Layer22
 70
 64
 62
 22
 6
CONTINUOUS
  0
ENDTAB
  0
TABLE
  2
STYLE
  5
3
100
AcDbSymbolTable
 70
1              
 0
STYLE
 5
17
100
AcDbSymbolTableRecord
100
AcDbTextStyleTableRecord
 2
STANDARD
 70
 0
 40
 0.0
 41
 1.0
 50
 0.0
 71
  0
 42
 8.0
 3
 txt
 4

  0
ENDTAB
  0
TABLE
  2
VIEW
  5
5
100
AcDbSymbolTable
 70
     0
  0
ENDTAB
  0
TABLE
  2
UCS
  5
6
100
AcDbSymbolTable
 70
     0
  0
ENDTAB
  0
TABLE
  2
APPID
  5
8
100
AcDbSymbolTable
 70
     1
  0
APPID
  5
16
100
AcDbSymbolTableRecord
100
AcDbRegAppTableRecord
  2
ACAD
 70
     0
  0
ENDTAB
  0
TABLE
  2
DIMSTYLE
  5
9
100
AcDbSymbolTable
 70
     1
  0
DIMSTYLE
105
18
100
AcDbSymbolTableRecord
100
AcDbDimStyleTableRecord
  2
STANDARD
 70
     0
  3

  4

  5

  6

  7

 40
1.0
 41
0.18
 42
0.0625
 43
0.38
 44
0.18
 45
0.0
 46
0.0
 47
0.0
 48
0.0
140
0.18
141
0.09
142
0.0
143
25.4
144
1.0
145
0.0
146
1.0
147
0.09
 71
     0
 72
     0
 73
     1
 74
     1
 75
     0
 76
     0
 77
     0
 78
     0
170
     0
171
     2
172
     0
173
     0
174
     0
175
     0
176
     0
177
     0
178
     0
270
     2
271
     4
272
     4
273
     2
274
     2
340
17
275
     0
280
     0
281
     0
282
     0
283
     1
284
     0
285
     0
286
     0
287
     0
288
     0
  0
ENDTAB
  0
TABLE
  2
BLOCK_RECORD
  5
1
100
AcDbSymbolTable
 70
     0
  0
BLOCK_RECORD
  5
A
100
AcDbSymbolTableRecord
100
AcDbBlockTableRecord
  2
*MODEL_SPACE
  0
BLOCK_RECORD
  5
B
100
AcDbSymbolTableRecord
100
AcDbBlockTableRecord
  2
*PAPER_SPACE
  0
ENDTAB
  0
ENDSEC
  0
SECTION
  2
BLOCKS
  0
BLOCK
  5
D
100
AcDbEntity
  8
0
100
AcDbBlockBegin
  2
*MODEL_SPACE
 70
     0
 10
0.0
 20
0.0
 30
0.0
  3
*MODEL_SPACE
  1

  0
ENDBLK
  5
E
100
AcDbEntity
  8
0
100
AcDbBlockEnd
  0
BLOCK
  5
F
100
AcDbEntity
 67
     1
  8
0
100
AcDbBlockBegin
  2
*PAPER_SPACE
 70
     0
 10
0.0
 20
0.0
 30
0.0
  3
*PAPER_SPACE
  1

  0
ENDBLK
  5
10
100
AcDbEntity
 67
     1
  8
0
100
AcDbBlockEnd
 0
ENDSEC
 0
SECTION
 2
ENTITIES
 0
ARC
 5
87
100
AcDbEntity
 8
Layer8
100
AcDbCircle
 39
0.25
 370
106
 10
141.790859208443
 20
302.077856963661
 30
0.0
 40
1.76333227451891
100
AcDbArc
 50
1.20735509781688
 51
78.0556890178623
 0
ARC
 5
88
100
AcDbEntity
 8
Layer8
100
AcDbCircle
 39
0.25
 370
106
 10
112.277418395246
 20
302.189278173095
 30
0.0
 40
1.62834078814065
100
AcDbArc
 50
97.6802311662773
 51
172.031540583018
 0
LINE
 5
89
100
AcDbEntity
 8
Layer8
100
AcDbLine
 39
0.25
 370
106
 10
109.5668
 20
249.47001171875
 30
0.0
 11
110.0648
 21
249.86201171875
 31
0.0
 0
LINE
 5
8A
100
AcDbEntity
 8
Layer8
100
AcDbLine
 39
0.25
 370
106
 10
110.0648
 20
249.86201171875
 30
0.0
 11
110.1708
 21
250.16201171875
 31
0.0
 0
LINE
 5
8B
100
AcDbEntity
 8
Layer8
100
AcDbLine
 39
0.25
 370
106
 10
110.1708
 20
250.16201171875
 30
0.0
 11
110.6648
 21
302.41501171875
 31
0.0
 0
LINE
 5
8C
100
AcDbEntity
 8
Layer8
100
AcDbLine
 39
0.25
 370
106
 10
112.0598
 20
303.80301171875
 30
0.0
 11
142.1558
 21
303.80301171875
 31
0.0
 0
LINE
 5
8D
100
AcDbEntity
 8
Layer8
100
AcDbLine
 39
0.25
 370
106
 10
143.5538
 20
302.11501171875
 30
0.0
 11
143.9568
 21
250.26801171875
 31
0.0
 0
LINE
 5
8E
100
AcDbEntity
 8
Layer8
100
AcDbLine
 39
0.25
 370
106
 10
143.9568
 20
250.26801171875
 30
0.0
 11
144.1548
 21
249.86201171875
 31
0.0
 0
LINE
 5
8F
100
AcDbEntity
 8
Layer8
100
AcDbLine
 39
0.25
 370
106
 10
144.1548
 20
249.86201171875
 30
0.0
 11
144.6488
 21
249.47001171875
 31
0.0
 0
LINE
 5
90
100
AcDbEntity
 8
Layer8
100
AcDbLine
 39
0.25
 370
106
 10
144.6488
 20
249.47001171875
 30
0.0
 11
109.5668
 21
249.47001171875
 31
0.0
 0
ARC
 5
91
100
AcDbEntity
 8
Layer8
100
AcDbCircle
 39
0.25
 370
106
 10
133.954381145819
 20
211.903095369101
 30
0.0
 40
1.74448475730064
100
AcDbArc
 50
21.4174401380359
 51
85.4621723702055
 0
LINE
 5
92
100
AcDbEntity
 8
Layer8
100
AcDbLine
 39
0.25
 370
106
 10
136.6734
 20
207.23111171875
 30
0.0
 11
136.5854
 21
205.33111171875
 31
0.0
 0
LINE
 5
93
100
AcDbEntity
 8
Layer8
100
AcDbLine
 39
0.25
 370
106
 10
136.5854
 20
205.33111171875
 30
0.0
 11
135.3844
 21
205.33111171875
 31
0.0
 0
LINE
 5
94
100
AcDbEntity
 8
Layer8
100
AcDbLine
 39
0.25
 370
106
 10
135.3844
 20
205.33111171875
 30
0.0
 11
135.0844
 21
210.94011171875
 31
0.0
 0
LINE
 5
95
100
AcDbEntity
 8
Layer8
100
AcDbLine
 39
0.25
 370
106
 10
135.0844
 20
210.94011171875
 30
0.0
 11
134.5864
 21
212.73711171875
 31
0.0
 0
LINE
 5
96
100
AcDbEntity
 8
Layer8
100
AcDbLine
 39
0.25
 370
106
 10
134.5864
 20
212.73711171875
 30
0.0
 11
134.3924
 21
213.03811171875
 31
0.0
 0
LINE
 5
97
100
AcDbEntity
 8
Layer8
100
AcDbLine
 39
0.25
 370
106
 10
134.3924
 20
213.03811171875
 30
0.0
 11
134.0924
 21
213.23211171875
 31
0.0
 0
LINE
 5
98
100
AcDbEntity
 8
Layer8
100
AcDbLine
 39
0.25
 370
106
 10
134.0924
 20
213.23211171875
 30
0.0
 11
134.0924
 21
213.64211171875
 31
0.0
 0
LINE
 5
99
100
AcDbEntity
 8
Layer8
100
AcDbLine
 39
0.25
 370
106
 10
135.5784
 20
212.54011171875
 30
0.0
 11
135.9854
 21
211.63511171875
 31
0.0
 0
LINE
 5
9A
100
AcDbEntity
 8
Layer8
100
AcDbLine
 39
0.25
 370
106
 10
135.9854
 20
211.63511171875
 30
0.0
 11
136.3734
 21
209.13111171875
 31
0.0
 0
LINE
 5
9B
100
AcDbEntity
 8
Layer8
100
AcDbLine
 39
0.25
 370
106
 10
136.3734
 20
209.13111171875
 30
0.0
 11
136.7794
 21
207.83511171875
 31
0.0
 0
LINE
 5
9C
100
AcDbEntity
 8
Layer8
100
AcDbLine
 39
0.25
 370
106
 10
136.7794
 20
207.83511171875
 30
0.0
 11
136.6734
 21
207.23111171875
 31
0.0
 0
ARC
 5
9D
100
AcDbEntity
 8
Layer8
100
AcDbCircle
 39
0.25
 370
106
 10
128.202428399965
 20
207.899995017153
 30
0.0
 40
12.2567486714782
100
AcDbArc
 50
-0.307981604122371
 51
24.2348195165335
 0
LINE
 5
9E
100
AcDbEntity
 8
Layer8
100
AcDbLine
 39
0.25
 370
106
 10
141.766
 20
213.23111171875
 30
0.0
 11
141.36
 21
212.73711171875
 31
0.0
 0
LINE
 5
9F
100
AcDbEntity
 8
Layer8
100
AcDbLine
 39
0.25
 370
106
 10
141.36
 20
212.73711171875
 30
0.0
 11
141.059
 21
211.13711171875
 31
0.0
 0
LINE
 5
A0
100
AcDbEntity
 8
Layer8
100
AcDbLine
 39
0.25
 370
106
 10
141.059
 20
211.13711171875
 30
0.0
 11
141.166
 21
208.13411171875
 31
0.0
 0
LINE
 5
A1
100
AcDbEntity
 8
Layer8
100
AcDbLine
 39
0.25
 370
106
 10
141.166
 20
208.13411171875
 30
0.0
 11
141.059
 21
207.34011171875
 31
0.0
 0
LINE
 5
A2
100
AcDbEntity
 8
Layer8
100
AcDbLine
 39
0.25
 370
106
 10
141.059
 20
207.34011171875
 30
0.0
 11
140.759
 21
206.73211171875
 31
0.0
 0
LINE
 5
A3
100
AcDbEntity
 8
Layer8
100
AcDbLine
 39
0.25
 370
106
 10
140.759
 20
206.73211171875
 30
0.0
 11
140.671
 21
205.33011171875
 31
0.0
 0
LINE
 5
A4
100
AcDbEntity
 8
Layer8
100
AcDbLine
 39
0.25
 370
106
 10
140.671
 20
205.33011171875
 30
0.0
 11
140.071
 21
205.33011171875
 31
0.0
 0
LINE
 5
A5
100
AcDbEntity
 8
Layer8
100
AcDbLine
 39
0.25
 370
106
 10
140.071
 20
205.33011171875
 30
0.0
 11
139.873
 21
205.43611171875
 31
0.0
 0
LINE
 5
A6
100
AcDbEntity
 8
Layer8
100
AcDbLine
 39
0.25
 370
106
 10
139.873
 20
205.43611171875
 30
0.0
 11
139.965
 21
207.72811171875
 31
0.0
 0
LINE
 5
A7
100
AcDbEntity
 8
Layer8
100
AcDbLine
 39
0.25
 370
106
 10
139.965
 20
207.72811171875
 30
0.0
 11
139.573
 21
211.33111171875
 31
0.0
 0
LINE
 5
A8
100
AcDbEntity
 8
Layer8
100
AcDbLine
 39
0.25
 370
106
 10
139.573
 20
211.33111171875
 30
0.0
 11
139.379
 21
211.82911171875
 31
0.0
 0
LINE
 5
A9
100
AcDbEntity
 8
Layer8
100
AcDbLine
 39
0.25
 370
106
 10
139.379
 20
211.82911171875
 30
0.0
 11
139.379
 21
212.93111171875
 31
0.0
 0
LINE
 5
AA
100
AcDbEntity
 8
Layer8
100
AcDbLine
 39
0.25
 370
106
 10
140.459
 20
207.83411171875
 30
0.0
 11
140.565
 21
209.13011171875
 31
0.0
 0
LINE
 5
AB
100
AcDbEntity
 8
Layer8
100
AcDbLine
 39
0.25
 370
106
 10
140.565
 20
209.13011171875
 30
0.0
 11
140.371
 21
211.63511171875
 31
0.0
 0
LINE
 5
AC
100
AcDbEntity
 8
Layer8
100
AcDbLine
 39
0.25
 370
106
 10
140.371
 20
211.63511171875
 30
0.0
 11
140.565
 21
212.53911171875
 31
0.0
 0
LINE
 5
AD
100
AcDbEntity
 8
Layer8
100
AcDbLine
 39
0.25
 370
106
 10
140.565
 20
212.53911171875
 30
0.0
 11
140.865
 21
213.23111171875
 31
0.0
 0
LINE
 5
AE
100
AcDbEntity
 8
Layer8
100
AcDbLine
 39
0.25
 370
106
 10
140.865
 20
213.23111171875
 30
0.0
 11
141.36
 21
213.64111171875
 31
0.0
 0
LINE
 5
AF
100
AcDbEntity
 8
Layer8
100
AcDbLine
 39
0.25
 370
106
 10
141.36
 20
213.64111171875
 30
0.0
 11
141.766
 21
213.64111171875
 31
0.0
 0
LINE
 5
B0
100
AcDbEntity
 8
Layer8
100
AcDbLine
 39
0.25
 370
106
 10
141.766
 20
213.64111171875
 30
0.0
 11
141.766
 21
213.23111171875
 31
0.0
 0
LINE
 5
B1
100
AcDbEntity
 8
Layer8
100
AcDbLine
 39
0.25
 370
106
 10
76.4843
 20
213.44311171875
 30
0.0
 11
76.4843
 21
213.14311171875
 31
0.0
 0
LINE
 5
B2
100
AcDbEntity
 8
Layer8
100
AcDbLine
 39
0.25
 370
106
 10
76.4843
 20
213.14311171875
 30
0.0
 11
75.6893
 21
210.93911171875
 31
0.0
 0
LINE
 5
B3
100
AcDbEntity
 8
Layer8
100
AcDbLine
 39
0.25
 370
106
 10
75.6893
 20
210.93911171875
 30
0.0
 11
75.4773
 21
210.03511171875
 31
0.0
 0
LINE
 5
B4
100
AcDbEntity
 8
Layer8
100
AcDbLine
 39
0.25
 370
106
 10
75.4773
 20
210.03511171875
 30
0.0
 11
74.0973
 21
208.13411171875
 31
0.0
 0
LINE
 5
B5
100
AcDbEntity
 8
Layer8
100
AcDbLine
 39
0.25
 370
106
 10
74.0973
 20
208.13411171875
 30
0.0
 11
72.7903
 21
206.73211171875
 31
0.0
 0
LINE
 5
B6
100
AcDbEntity
 8
Layer8
100
AcDbLine
 39
0.25
 370
106
 10
72.7903
 20
206.73211171875
 30
0.0
 11
72.7903
 21
207.23411171875
 31
0.0
 0
LINE
 5
B7
100
AcDbEntity
 8
Layer8
100
AcDbLine
 39
0.25
 370
106
 10
72.7903
 20
207.23411171875
 30
0.0
 11
73.0023
 21
207.83411171875
 31
0.0
 0
LINE
 5
B8
100
AcDbEntity
 8
Layer8
100
AcDbLine
 39
0.25
 370
106
 10
73.0023
 20
207.83411171875
 30
0.0
 11
74.3823
 21
210.44111171875
 31
0.0
 0
LINE
 5
B9
100
AcDbEntity
 8
Layer8
100
AcDbLine
 39
0.25
 370
106
 10
74.3823
 20
210.44111171875
 30
0.0
 11
75.5833
 21
212.53911171875
 31
0.0
 0
LINE
 5
BA
100
AcDbEntity
 8
Layer8
100
AcDbLine
 39
0.25
 370
106
 10
75.5833
 20
212.53911171875
 30
0.0
 11
76.4843
 21
213.64111171875
 31
0.0
 0
LINE
 5
BB
100
AcDbEntity
 8
Layer8
100
AcDbLine
 39
0.25
 370
106
 10
76.4843
 20
213.64111171875
 30
0.0
 11
76.5903
 21
213.64111171875
 31
0.0
 0
LINE
 5
BC
100
AcDbEntity
 8
Layer8
100
AcDbLine
 39
0.25
 370
106
 10
76.5903
 20
213.64111171875
 30
0.0
 11
76.4843
 21
213.44311171875
 31
0.0
 0
LINE
 5
BD
100
AcDbEntity
 8
Layer8
100
AcDbLine
 39
0.25
 370
106
 10
182.4186
 20
206.62721171875
 30
0.0
 11
182.3266
 21
206.53521171875
 31
0.0
 0
LINE
 5
BE
100
AcDbEntity
 8
Layer8
100
AcDbLine
 39
0.25
 370
106
 10
182.3266
 20
206.53521171875
 30
0.0
 11
181.8326
 21
207.42521171875
 31
0.0
 0
LINE
 5
BF
100
AcDbEntity
 8
Layer8
100
AcDbLine
 39
0.25
 370
106
 10
181.8326
 20
207.42521171875
 30
0.0
 11
179.9396
 21
210.03521171875
 31
0.0
 0
LINE
 5
C0
100
AcDbEntity
 8
Layer8
100
AcDbLine
 39
0.25
 370
106
 10
179.9396
 20
210.03521171875
 30
0.0
 11
180.1336
 21
210.03521171875
 31
0.0
 0
LINE
 5
C1
100
AcDbEntity
 8
Layer8
100
AcDbLine
 39
0.25
 370
106
 10
180.1336
 20
210.03521171875
 30
0.0
 11
180.6316
 21
210.33521171875
 31
0.0
 0
LINE
 5
C2
100
AcDbEntity
 8
Layer8
100
AcDbLine
 39
0.25
 370
106
 10
180.6316
 20
210.33521171875
 30
0.0
 11
180.6316
 21
210.44221171875
 31
0.0
 0
LINE
 5
C3
100
AcDbEntity
 8
Layer8
100
AcDbLine
 39
0.25
 370
106
 10
180.6316
 20
210.44221171875
 30
0.0
 11
181.6246
 21
208.63321171875
 31
0.0
 0
LINE
 5
C4
100
AcDbEntity
 8
Layer8
100
AcDbLine
 39
0.25
 370
106
 10
181.6246
 20
208.63321171875
 30
0.0
 11
182.4186
 21
206.83921171875
 31
0.0
 0
LINE
 5
C5
100
AcDbEntity
 8
Layer8
100
AcDbLine
 39
0.25
 370
106
 10
182.4186
 20
206.83921171875
 30
0.0
 11
182.4186
 21
206.62721171875
 31
0.0
 0
LINE
 5
C6
100
AcDbEntity
 8
Layer8
100
AcDbLine
 39
0.25
 370
106
 10
129.6011
 20
303.90941171875
 30
0.0
 11
129.6011
 21
304.20941171875
 31
0.0
 0
LINE
 5
C7
100
AcDbEntity
 8
Layer8
100
AcDbLine
 39
0.25
 370
106
 10
124.5259
 20
303.90941171875
 30
0.0
 11
124.5259
 21
304.20941171875
 31
0.0
 0
ARC
 5
C8
100
AcDbEntity
 8
Layer8
100
AcDbCircle
 39
0.25
 370
106
 10
74.2666674099686
 20
216.921702894772
 30
0.0
 40
2.57174293140707
100
AcDbArc
 50
109.930774272022
 51
179.560903435153
 0
LINE
 5
C9
100
AcDbEntity
 8
Layer8
100
AcDbLine
 39
0.25
 370
106
 10
74.983
 20
219.33941171875
 30
0.0
 11
73.888
 21
219.44541171875
 31
0.0
 0
LINE
 5
CA
100
AcDbEntity
 8
Layer8
100
AcDbLine
 39
0.25
 370
106
 10
73.888
 20
219.44541171875
 30
0.0
 11
73.39
 21
219.33941171875
 31
0.0
 0
LINE
 5
CB
100
AcDbEntity
 8
Layer8
100
AcDbLine
 39
0.25
 370
106
 10
71.6942
 20
216.94171171875
 30
0.0
 11
71.6942
 21
216.64171171875
 31
0.0
 0
LINE
 5
CC
100
AcDbEntity
 8
Layer8
100
AcDbLine
 39
0.25
 370
106
 10
71.6942
 20
216.64171171875
 30
0.0
 11
72.1002
 21
215.53971171875
 31
0.0
 0
LINE
 5
CD
100
AcDbEntity
 8
Layer8
100
AcDbLine
 39
0.25
 370
106
 10
72.1002
 20
215.53971171875
 30
0.0
 11
72.7012
 21
214.93571171875
 31
0.0
 0
LINE
 5
CE
100
AcDbEntity
 8
Layer8
100
AcDbLine
 39
0.25
 370
106
 10
72.6999
 20
214.93711171875
 30
0.0
 11
72.9999
 21
214.63711171875
 31
0.0
 0
LINE
 5
CF
100
AcDbEntity
 8
Layer8
100
AcDbLine
 39
0.25
 370
106
 10
72.9999
 20
214.63711171875
 30
0.0
 11
72.9999
 21
214.54511171875
 31
0.0
 0
LINE
 5
D0
100
AcDbEntity
 8
Layer8
100
AcDbLine
 39
0.25
 370
106
 10
72.9999
 20
214.54511171875
 30
0.0
 11
73.0919
 21
214.33311171875
 31
0.0
 0
LINE
 5
D1
100
AcDbEntity
 8
Layer8
100
AcDbLine
 39
0.25
 370
106
 10
73.0919
 20
214.33311171875
 30
0.0
 11
73.0919
 21
214.03311171875
 31
0.0
 0
LINE
 5
D2
100
AcDbEntity
 8
Layer8
100
AcDbLine
 39
0.25
 370
106
 10
75.3887
 20
214.03171171875
 30
0.0
 11
75.3887
 21
214.24371171875
 31
0.0
 0
LINE
 5
D3
100
AcDbEntity
 8
Layer8
100
AcDbLine
 39
0.25
 370
106
 10
75.3887
 20
214.24371171875
 30
0.0
 11
75.4807
 21
214.33171171875
 31
0.0
 0
LINE
 5
D4
100
AcDbEntity
 8
Layer8
100
AcDbLine
 39
0.25
 370
106
 10
75.4807
 20
214.33171171875
 30
0.0
 11
75.4807
 21
214.54471171875
 31
0.0
 0
LINE
 5
D5
100
AcDbEntity
 8
Layer8
100
AcDbLine
 39
0.25
 370
106
 10
75.4807
 20
214.54471171875
 30
0.0
 11
75.5827
 21
214.63571171875
 31
0.0
 0
LINE
 5
D6
100
AcDbEntity
 8
Layer8
100
AcDbLine
 39
0.25
 370
106
 10
73.0913
 20
201.52781171875
 30
0.0
 11
73.0913
 21
202.82781171875
 31
0.0
 0
LINE
 5
D7
100
AcDbEntity
 8
Layer8
100
AcDbLine
 39
0.25
 370
106
 10
75.3887
 20
201.52781171875
 30
0.0
 11
75.3887
 21
202.82781171875
 31
0.0
 0
LINE
 5
D8
100
AcDbEntity
 8
Layer8
100
AcDbLine
 39
0.25
 370
106
 10
73.2857
 20
201.33531171875
 30
0.0
 11
73.0917
 21
201.52931171875
 31
0.0
 0
LINE
 5
D9
100
AcDbEntity
 8
Layer8
100
AcDbLine
 39
0.25
 370
106
 10
75.3887
 20
201.52781171875
 30
0.0
 11
75.1947
 21
201.33381171875
 31
0.0
 0
LINE
 5
DA
100
AcDbEntity
 8
Layer8
100
AcDbLine
 39
0.25
 370
106
 10
73.0913
 20
214.03171171875
 30
0.0
 11
73.0913
 21
208.13671171875
 31
0.0
 0
LINE
 5
DB
100
AcDbEntity
 8
Layer8
100
AcDbLine
 39
0.25
 370
106
 10
75.3887
 20
212.53941171875
 30
0.0
 11
75.3887
 21
214.03341171875
 31
0.0
 0
LINE
 5
DC
100
AcDbEntity
 8
Layer8
100
AcDbLine
 39
0.25
 370
106
 10
139.6637
 20
219.03881171875
 30
0.0
 11
138.6717
 21
219.44481171875
 31
0.0
 0
LINE
 5
DD
100
AcDbEntity
 8
Layer8
100
AcDbLine
 39
0.25
 370
106
 10
138.6717
 20
219.44481171875
 30
0.0
 11
137.8767
 21
219.44481171875
 31
0.0
 0
LINE
 5
DE
100
AcDbEntity
 8
Layer8
100
AcDbLine
 39
0.25
 370
106
 10
137.8767
 20
219.44481171875
 30
0.0
 11
136.9767
 21
219.14481171875
 31
0.0
 0
LINE
 5
DF
100
AcDbEntity
 8
Layer8
100
AcDbLine
 39
0.25
 370
106
 10
136.8852
 20
214.63661171875
 30
0.0
 11
136.9772
 21
214.63661171875
 31
0.0
 0
LINE
 5
E0
100
AcDbEntity
 8
Layer8
100
AcDbLine
 39
0.25
 370
106
 10
136.9772
 20
214.63661171875
 30
0.0
 11
136.9772
 21
214.54461171875
 31
0.0
 0
LINE
 5
E1
100
AcDbEntity
 8
Layer8
100
AcDbLine
 39
0.25
 370
106
 10
136.9772
 20
214.54461171875
 30
0.0
 11
137.0792
 21
214.33261171875
 31
0.0
 0
LINE
 5
E2
100
AcDbEntity
 8
Layer8
100
AcDbLine
 39
0.25
 370
106
 10
137.0792
 20
214.33261171875
 30
0.0
 11
137.0792
 21
214.03261171875
 31
0.0
 0
LINE
 5
E3
100
AcDbEntity
 8
Layer8
100
AcDbLine
 39
0.25
 370
106
 10
139.3781
 20
214.03171171875
 30
0.0
 11
139.3781
 21
214.24371171875
 31
0.0
 0
LINE
 5
E4
100
AcDbEntity
 8
Layer8
100
AcDbLine
 39
0.25
 370
106
 10
139.3781
 20
214.24371171875
 30
0.0
 11
139.4701
 21
214.33171171875
 31
0.0
 0
LINE
 5
E5
100
AcDbEntity
 8
Layer8
100
AcDbLine
 39
0.25
 370
106
 10
139.4701
 20
214.33171171875
 30
0.0
 11
139.4701
 21
214.54471171875
 31
0.0
 0
LINE
 5
E6
100
AcDbEntity
 8
Layer8
100
AcDbLine
 39
0.25
 370
106
 10
139.4701
 20
214.54471171875
 30
0.0
 11
139.6641
 21
214.73871171875
 31
0.0
 0
LINE
 5
E7
100
AcDbEntity
 8
Layer8
100
AcDbLine
 39
0.25
 370
106
 10
139.6641
 20
214.73871171875
 30
0.0
 11
139.6641
 21
214.84471171875
 31
0.0
 0
LINE
 5
E8
100
AcDbEntity
 8
Layer8
100
AcDbLine
 39
0.25
 370
106
 10
137.0807
 20
214.03171171875
 30
0.0
 11
137.0807
 21
207.83371171875
 31
0.0
 0
LINE
 5
E9
100
AcDbEntity
 8
Layer8
100
AcDbLine
 39
0.25
 370
106
 10
139.3781
 20
207.63841171875
 30
0.0
 11
139.3781
 21
211.82641171875
 31
0.0
 0
LINE
 5
EA
100
AcDbEntity
 8
Layer8
100
AcDbLine
 39
0.25
 370
106
 10
139.3781
 20
212.93041171875
 30
0.0
 11
139.3781
 21
214.03241171875
 31
0.0
 0
LINE
 5
EB
100
AcDbEntity
 8
Layer8
100
AcDbLine
 39
0.25
 370
106
 10
137.0807
 20
201.52781171875
 30
0.0
 11
137.0807
 21
202.82781171875
 31
0.0
 0
LINE
 5
EC
100
AcDbEntity
 8
Layer8
100
AcDbLine
 39
0.25
 370
106
 10
139.3781
 20
205.13491171875
 30
0.0
 11
139.3781
 21
207.42691171875
 31
0.0
 0
LINE
 5
ED
100
AcDbEntity
 8
Layer8
100
AcDbLine
 39
0.25
 370
106
 10
137.0807
 20
207.63841171875
 30
0.0
 11
137.2747
 21
207.42641171875
 31
0.0
 0
LINE
 5
EE
100
AcDbEntity
 8
Layer8
100
AcDbLine
 39
0.25
 370
106
 10
139.3781
 20
207.63841171875
 30
0.0
 11
139.1691
 21
207.42641171875
 31
0.0
 0
LINE
 5
EF
100
AcDbEntity
 8
Layer8
100
AcDbLine
 39
0.25
 370
106
 10
137.2751
 20
201.33531171875
 30
0.0
 11
137.0811
 21
201.52931171875
 31
0.0
 0
LINE
 5
F0
100
AcDbEntity
 8
Layer8
100
AcDbLine
 39
0.25
 370
106
 10
114.9591
 20
201.33531171875
 30
0.0
 11
114.7501
 21
201.52931171875
 31
0.0
 0
LINE
 5
F1
100
AcDbEntity
 8
Layer8
100
AcDbLine
 39
0.25
 370
106
 10
114.7489
 20
201.52781171875
 30
0.0
 11
114.7489
 21
202.82781171875
 31
0.0
 0
LINE
 5
F2
100
AcDbEntity
 8
Layer8
100
AcDbLine
 39
0.25
 370
106
 10
181.5326
 20
214.93711171875
 30
0.0
 11
182.1186
 21
215.54111171875
 31
0.0
 0
LINE
 5
F3
100
AcDbEntity
 8
Layer8
100
AcDbLine
 39
0.25
 370
106
 10
182.1184
 20
218.23781171875
 30
0.0
 11
181.5324
 21
218.94781171875
 31
0.0
 0
LINE
 5
F4
100
AcDbEntity
 8
Layer8
100
AcDbLine
 39
0.25
 370
106
 10
181.5324
 20
218.94781171875
 30
0.0
 11
181.0344
 21
219.24881171875
 31
0.0
 0
LINE
 5
F5
100
AcDbEntity
 8
Layer8
100
AcDbLine
 39
0.25
 370
106
 10
181.0344
 20
219.24881171875
 30
0.0
 11
179.5334
 21
219.44581171875
 31
0.0
 0
LINE
 5
F6
100
AcDbEntity
 8
Layer8
100
AcDbLine
 39
0.25
 370
106
 10
178.634
 20
214.63661171875
 30
0.0
 11
178.634
 21
214.54461171875
 31
0.0
 0
LINE
 5
F7
100
AcDbEntity
 8
Layer8
100
AcDbLine
 39
0.25
 370
106
 10
178.634
 20
214.54461171875
 30
0.0
 11
178.74
 21
214.33261171875
 31
0.0
 0
LINE
 5
F8
100
AcDbEntity
 8
Layer8
100
AcDbLine
 39
0.25
 370
106
 10
178.74
 20
214.33261171875
 30
0.0
 11
178.74
 21
214.24461171875
 31
0.0
 0
LINE
 5
F9
100
AcDbEntity
 8
Layer8
100
AcDbLine
 39
0.25
 370
106
 10
178.74
 20
214.24461171875
 30
0.0
 11
178.843
 21
214.13861171875
 31
0.0
 0
LINE
 5
FA
100
AcDbEntity
 8
Layer8
100
AcDbLine
 39
0.25
 370
106
 10
178.843
 20
214.13861171875
 30
0.0
 11
178.843
 21
214.03261171875
 31
0.0
 0
LINE
 5
FB
100
AcDbEntity
 8
Layer8
100
AcDbLine
 39
0.25
 370
106
 10
181.0358
 20
214.03171171875
 30
0.0
 11
181.0358
 21
214.13771171875
 31
0.0
 0
LINE
 5
FC
100
AcDbEntity
 8
Layer8
100
AcDbLine
 39
0.25
 370
106
 10
181.0358
 20
214.13771171875
 30
0.0
 11
181.1278
 21
214.24371171875
 31
0.0
 0
LINE
 5
FD
100
AcDbEntity
 8
Layer8
100
AcDbLine
 39
0.25
 370
106
 10
181.1278
 20
214.24371171875
 30
0.0
 11
181.1278
 21
214.54471171875
 31
0.0
 0
LINE
 5
FE
100
AcDbEntity
 8
Layer8
100
AcDbLine
 39
0.25
 370
106
 10
181.1278
 20
214.54471171875
 30
0.0
 11
181.5338
 21
214.93571171875
 31
0.0
 0
LINE
 5
FF
100
AcDbEntity
 8
Layer8
100
AcDbLine
 39
0.25
 370
106
 10
178.8441
 20
213.64111171875
 30
0.0
 11
178.8441
 21
214.03311171875
 31
0.0
 0
LINE
 5
100
100
AcDbEntity
 8
Layer8
100
AcDbLine
 39
0.25
 370
106
 10
181.0358
 20
209.73561171875
 30
0.0
 11
181.0358
 21
214.03061171875
 31
0.0
 0
LINE
 5
101
100
AcDbEntity
 8
Layer8
100
AcDbLine
 39
0.25
 370
106
 10
178.8441
 20
201.52781171875
 30
0.0
 11
178.8441
 21
202.93381171875
 31
0.0
 0
LINE
 5
102
100
AcDbEntity
 8
Layer8
100
AcDbLine
 39
0.25
 370
106
 10
181.0358
 20
201.52781171875
 30
0.0
 11
181.0358
 21
202.93381171875
 31
0.0
 0
LINE
 5
103
100
AcDbEntity
 8
Layer8
100
AcDbLine
 39
0.25
 370
106
 10
179.0397
 20
201.33531171875
 30
0.0
 11
178.8457
 21
201.52931171875
 31
0.0
 0
LINE
 5
104
100
AcDbEntity
 8
Layer8
100
AcDbLine
 39
0.25
 370
106
 10
181.0358
 20
201.52781171875
 30
0.0
 11
180.8268
 21
201.33381171875
 31
0.0
 0
ARC
 5
105
100
AcDbEntity
 8
Layer8
100
AcDbCircle
 39
0.25
 370
106
 10
134.252903985974
 20
196.642423031292
 30
0.0
 40
59.750418382106
100
AcDbArc
 50
137.314919039071
 51
156.213740819951
 0
ARC
 5
106
100
AcDbEntity
 8
Layer8
100
AcDbCircle
 39
0.25
 370
106
 10
125.352126871472
 20
203.647637035339
 30
0.0
 40
48.4663032309556
100
AcDbArc
 50
109.007679461264
 51
136.26866472114
 0
LINE
 5
107
100
AcDbEntity
 8
Layer8
100
AcDbLine
 39
0.25
 370
106
 10
77.476
 20
214.54431171875
 30
0.0
 11
77.282
 21
213.64031171875
 31
0.0
 0
ARC
 5
108
100
AcDbEntity
 8
Layer8
100
AcDbCircle
 39
0.25
 370
106
 10
126.788103434275
 20
200.910118548115
 30
0.0
 40
51.7403875764032
100
AcDbArc
 50
14.2440890943849
 51
69.8060955728507
 0
LINE
 5
109
100
AcDbEntity
 8
Layer8
100
AcDbLine
 39
0.25
 370
106
 10
152.5183
 20
464.81901171875
 30
0.0
 11
152.5183
 21
465.11901171875
 31
0.0
 0
LINE
 5
10A
100
AcDbEntity
 8
Layer8
100
AcDbLine
 39
0.25
 370
106
 10
101.6995
 20
464.81901171875
 30
0.0
 11
101.6995
 21
465.11901171875
 31
0.0
 0
LINE
 5
10B
100
AcDbEntity
 8
Layer8
100
AcDbLine
 39
0.25
 370
106
 10
125.0217
 20
464.02191171875
 30
0.0
 11
125.0217
 21
463.91591171875
 31
0.0
 0
LINE
 5
10C
100
AcDbEntity
 8
Layer8
100
AcDbLine
 39
0.25
 370
106
 10
125.0217
 20
463.91591171875
 30
0.0
 11
125.1137
 21
463.91591171875
 31
0.0
 0
LINE
 5
10D
100
AcDbEntity
 8
Layer8
100
AcDbLine
 39
0.25
 370
106
 10
125.1137
 20
463.91591171875
 30
0.0
 11
125.3217
 21
463.80991171875
 31
0.0
 0
LINE
 5
10E
100
AcDbEntity
 8
Layer8
100
AcDbLine
 39
0.25
 370
106
 10
125.3217
 20
463.80991171875
 30
0.0
 11
125.5157
 21
463.80991171875
 31
0.0
 0
LINE
 5
10F
100
AcDbEntity
 8
Layer8
100
AcDbLine
 39
0.25
 370
106
 10
125.5157
 20
463.80991171875
 30
0.0
 11
125.6217
 21
463.71791171875
 31
0.0
 0
LINE
 5
110
100
AcDbEntity
 8
Layer8
100
AcDbLine
 39
0.25
 370
106
 10
125.6217
 20
463.71791171875
 30
0.0
 11
125.7137
 21
463.71791171875
 31
0.0
 0
LINE
 5
111
100
AcDbEntity
 8
Layer8
100
AcDbLine
 39
0.25
 370
106
 10
128.5053
 20
463.71731171875
 30
0.0
 11
128.6113
 21
463.71731171875
 31
0.0
 0
LINE
 5
112
100
AcDbEntity
 8
Layer8
100
AcDbLine
 39
0.25
 370
106
 10
128.6113
 20
463.71731171875
 30
0.0
 11
128.6993
 21
463.80931171875
 31
0.0
 0
LINE
 5
113
100
AcDbEntity
 8
Layer8
100
AcDbLine
 39
0.25
 370
106
 10
128.6993
 20
463.80931171875
 30
0.0
 11
128.9113
 21
463.80931171875
 31
0.0
 0
LINE
 5
114
100
AcDbEntity
 8
Layer8
100
AcDbLine
 39
0.25
 370
106
 10
128.9113
 20
463.80931171875
 30
0.0
 11
128.9993
 21
463.91531171875
 31
0.0
 0
LINE
 5
115
100
AcDbEntity
 8
Layer8
100
AcDbLine
 39
0.25
 370
106
 10
128.9993
 20
463.91531171875
 30
0.0
 11
129.1053
 21
463.91531171875
 31
0.0
 0
LINE
 5
116
100
AcDbEntity
 8
Layer8
100
AcDbLine
 39
0.25
 370
106
 10
129.1053
 20
463.91531171875
 30
0.0
 11
129.2123
 21
464.02131171875
 31
0.0
 0
LINE
 5
117
100
AcDbEntity
 8
Layer8
100
AcDbLine
 39
0.25
 370
106
 10
125.7118
 20
464.81901171875
 30
0.0
 11
125.4118
 21
464.81901171875
 31
0.0
 0
LINE
 5
118
100
AcDbEntity
 8
Layer8
100
AcDbLine
 39
0.25
 370
106
 10
125.4118
 20
464.81901171875
 30
0.0
 11
125.3198
 21
464.71301171875
 31
0.0
 0
LINE
 5
119
100
AcDbEntity
 8
Layer8
100
AcDbLine
 39
0.25
 370
106
 10
125.3198
 20
464.71301171875
 30
0.0
 11
125.1118
 21
464.71301171875
 31
0.0
 0
LINE
 5
11A
100
AcDbEntity
 8
Layer8
100
AcDbLine
 39
0.25
 370
106
 10
125.1118
 20
464.71301171875
 30
0.0
 11
125.0198
 21
464.62101171875
 31
0.0
 0
LINE
 5
11B
100
AcDbEntity
 8
Layer8
100
AcDbLine
 39
0.25
 370
106
 10
129.2119
 20
464.62271171875
 30
0.0
 11
129.1059
 21
464.62271171875
 31
0.0
 0
LINE
 5
11C
100
AcDbEntity
 8
Layer8
100
AcDbLine
 39
0.25
 370
106
 10
129.1059
 20
464.62271171875
 30
0.0
 11
128.9999
 21
464.71371171875
 31
0.0
 0
LINE
 5
11D
100
AcDbEntity
 8
Layer8
100
AcDbLine
 39
0.25
 370
106
 10
128.9999
 20
464.71371171875
 30
0.0
 11
128.9119
 21
464.71371171875
 31
0.0
 0
LINE
 5
11E
100
AcDbEntity
 8
Layer8
100
AcDbLine
 39
0.25
 370
106
 10
128.9119
 20
464.71371171875
 30
0.0
 11
128.8059
 21
464.82071171875
 31
0.0
 0
LINE
 5
11F
100
AcDbEntity
 8
Layer8
100
AcDbLine
 39
0.25
 370
106
 10
128.8059
 20
464.82071171875
 30
0.0
 11
128.5049
 21
464.82071171875
 31
0.0
 0
LINE
 5
120
100
AcDbEntity
 8
Layer8
100
AcDbLine
 39
0.25
 370
106
 10
128.5053
 20
463.41711171875
 30
0.0
 11
128.5053
 21
463.71711171875
 31
0.0
 0
LINE
 5
121
100
AcDbEntity
 8
Layer8
100
AcDbLine
 39
0.25
 370
106
 10
125.7118
 20
463.41711171875
 30
0.0
 11
125.7118
 21
463.71711171875
 31
0.0
 0
LINE
 5
122
100
AcDbEntity
 8
Layer8
100
AcDbLine
 39
0.25
 370
106
 10
125.9223
 20
463.11431171875
 30
0.0
 11
125.7133
 21
463.41831171875
 31
0.0
 0
LINE
 5
123
100
AcDbEntity
 8
Layer8
100
AcDbLine
 39
0.25
 370
106
 10
128.5053
 20
463.41711171875
 30
0.0
 11
128.2053
 21
463.11311171875
 31
0.0
 0
LINE
 5
124
100
AcDbEntity
 8
Layer8
100
AcDbLine
 39
0.25
 370
106
 10
111.5666
 20
465.72401171875
 30
0.0
 11
111.5666
 21
471.12101171875
 31
0.0
 0
LINE
 5
125
100
AcDbEntity
 8
Layer8
100
AcDbLine
 39
0.25
 370
106
 10
142.6513
 20
465.72401171875
 30
0.0
 11
142.6513
 21
471.12101171875
 31
0.0
 0
ARC
 5
126
100
AcDbEntity
 8
Layer8
100
AcDbCircle
 39
0.25
 370
106
 10
143.721809687674
 20
463.469210750202
 30
0.0
 40
2.27375233042427
100
AcDbArc
 50
120.734045977614
 51
133.460475336665
 0
LINE
 5
127
100
AcDbEntity
 8
Layer8
100
AcDbLine
 39
0.25
 370
106
 10
142.0658
 20
465.11961171875
 30
0.0
 11
142.1578
 21
465.11961171875
 31
0.0
 0
LINE
 5
128
100
AcDbEntity
 8
Layer8
100
AcDbLine
 39
0.25
 370
106
 10
142.5598
 20
465.42361171875
 30
0.0
 11
142.5598
 21
465.51461171875
 31
0.0
 0
LINE
 5
129
100
AcDbEntity
 8
Layer8
100
AcDbLine
 39
0.25
 370
106
 10
142.5598
 20
465.51461171875
 30
0.0
 11
142.6518
 21
465.61761171875
 31
0.0
 0
LINE
 5
12A
100
AcDbEntity
 8
Layer8
100
AcDbLine
 39
0.25
 370
106
 10
142.6518
 20
465.61761171875
 30
0.0
 11
142.6518
 21
465.72361171875
 31
0.0
 0
LINE
 5
12B
100
AcDbEntity
 8
Layer8
100
AcDbLine
 39
0.25
 370
106
 10
111.5666
 20
465.72401171875
 30
0.0
 11
111.5666
 21
465.51501171875
 31
0.0
 0
LINE
 5
12C
100
AcDbEntity
 8
Layer8
100
AcDbLine
 39
0.25
 370
106
 10
111.5666
 20
465.51501171875
 30
0.0
 11
111.7606
 21
465.31801171875
 31
0.0
 0
LINE
 5
12D
100
AcDbEntity
 8
Layer8
100
AcDbLine
 39
0.25
 370
106
 10
111.7606
 20
465.31801171875
 30
0.0
 11
111.7606
 21
465.21101171875
 31
0.0
 0
LINE
 5
12E
100
AcDbEntity
 8
Layer8
100
AcDbLine
 39
0.25
 370
106
 10
111.7606
 20
465.21101171875
 30
0.0
 11
111.8666
 21
465.21101171875
 31
0.0
 0
LINE
 5
12F
100
AcDbEntity
 8
Layer8
100
AcDbLine
 39
0.25
 370
106
 10
111.8666
 20
465.21101171875
 30
0.0
 11
111.9546
 21
465.12001171875
 31
0.0
 0
LINE
 5
130
100
AcDbEntity
 8
Layer8
100
AcDbLine
 39
0.25
 370
106
 10
111.9546
 20
465.12001171875
 30
0.0
 11
112.1666
 21
465.12001171875
 31
0.0
 0
LINE
 5
131
100
AcDbEntity
 8
Layer8
100
AcDbLine
 39
0.25
 370
106
 10
126.1178
 20
335.79561171875
 30
0.0
 11
126.1178
 21
439.58861171875
 31
0.0
 0
LINE
 5
132
100
AcDbEntity
 8
Layer8
100
AcDbLine
 39
0.25
 370
106
 10
128.0092
 20
334.87151171875
 30
0.0
 11
128.0092
 21
448.55351171875
 31
0.0
 0
LINE
 5
133
100
AcDbEntity
 8
Layer8
100
AcDbLine
 39
0.25
 370
106
 10
126.1178
 20
439.06981171875
 30
0.0
 11
126.1178
 21
463.11281171875
 31
0.0
 0
LINE
 5
134
100
AcDbEntity
 8
Layer8
100
AcDbLine
 39
0.25
 370
106
 10
128.0092
 20
448.00511171875
 30
0.0
 11
128.0092
 21
463.11511171875
 31
0.0
 0
LINE
 5
135
100
AcDbEntity
 8
Layer8
100
AcDbLine
 39
0.25
 370
106
 10
128.0092
 20
303.80331171875
 30
0.0
 11
128.0092
 21
303.90931171875
 31
0.0
 0
LINE
 5
136
100
AcDbEntity
 8
Layer8
100
AcDbLine
 39
0.25
 370
106
 10
128.0092
 20
305.61381171875
 30
0.0
 11
128.0092
 21
335.53381171875
 31
0.0
 0
LINE
 5
137
100
AcDbEntity
 8
Layer8
100
AcDbLine
 39
0.25
 370
106
 10
126.1178
 20
305.61381171875
 30
0.0
 11
126.1178
 21
335.53381171875
 31
0.0
 0
LINE
 5
138
100
AcDbEntity
 8
Layer8
100
AcDbLine
 39
0.25
 370
106
 10
126.1178
 20
303.80331171875
 30
0.0
 11
126.1178
 21
303.90931171875
 31
0.0
 0
LINE
 5
139
100
AcDbEntity
 8
Layer8
100
AcDbLine
 39
0.25
 370
106
 10
136.3748
 20
215.73421171875
 30
0.0
 11
135.9828
 21
215.73421171875
 31
0.0
 0
LINE
 5
13A
100
AcDbEntity
 8
Layer8
100
AcDbLine
 39
0.25
 370
106
 10
136.3748
 20
218.04331171875
 30
0.0
 11
135.9828
 21
218.04331171875
 31
0.0
 0
LINE
 5
13B
100
AcDbEntity
 8
Layer8
100
AcDbLine
 39
0.25
 370
106
 10
135.9838
 20
215.84041171875
 30
0.0
 11
135.8778
 21
215.84041171875
 31
0.0
 0
LINE
 5
13C
100
AcDbEntity
 8
Layer8
100
AcDbLine
 39
0.25
 370
106
 10
136.4802
 20
215.84041171875
 30
0.0
 11
136.3742
 21
215.84041171875
 31
0.0
 0
LINE
 5
13D
100
AcDbEntity
 8
Layer8
100
AcDbLine
 39
0.25
 370
106
 10
136.4802
 20
217.93751171875
 30
0.0
 11
136.3742
 21
218.04351171875
 31
0.0
 0
LINE
 5
13E
100
AcDbEntity
 8
Layer8
100
AcDbLine
 39
0.25
 370
106
 10
135.9838
 20
218.04331171875
 30
0.0
 11
135.8778
 21
217.93731171875
 31
0.0
 0
LINE
 5
13F
100
AcDbEntity
 8
Layer8
100
AcDbLine
 39
0.25
 370
106
 10
140.5644
 20
218.04331171875
 30
0.0
 11
140.4584
 21
218.04331171875
 31
0.0
 0
LINE
 5
140
100
AcDbEntity
 8
Layer8
100
AcDbLine
 39
0.25
 370
106
 10
140.5644
 20
215.73421171875
 30
0.0
 11
140.4584
 21
215.73421171875
 31
0.0
 0
LINE
 5
141
100
AcDbEntity
 8
Layer8
100
AcDbLine
 39
0.25
 370
106
 10
140.6698
 20
215.84041171875
 30
0.0
 11
140.5638
 21
215.84041171875
 31
0.0
 0
LINE
 5
142
100
AcDbEntity
 8
Layer8
100
AcDbLine
 39
0.25
 370
106
 10
140.6698
 20
217.93751171875
 30
0.0
 11
140.5638
 21
218.04351171875
 31
0.0
 0
LINE
 5
143
100
AcDbEntity
 8
Layer8
100
AcDbLine
 39
0.25
 370
106
 10
180.4357
 20
218.04331171875
 30
0.0
 11
180.3297
 21
218.04331171875
 31
0.0
 0
LINE
 5
144
100
AcDbEntity
 8
Layer8
100
AcDbLine
 39
0.25
 370
106
 10
180.4357
 20
215.73421171875
 30
0.0
 11
180.3297
 21
215.73421171875
 31
0.0
 0
LINE
 5
145
100
AcDbEntity
 8
Layer8
100
AcDbLine
 39
0.25
 370
106
 10
80.8696
 20
220.63551171875
 30
0.0
 11
78.5706
 21
214.43751171875
 31
0.0
 0
LINE
 5
146
100
AcDbEntity
 8
Layer8
100
AcDbLine
 39
0.25
 370
106
 10
135.6836
 20
214.54431171875
 30
0.0
 11
135.1896
 21
220.74231171875
 31
0.0
 0
LINE
 5
147
100
AcDbEntity
 8
Layer8
100
AcDbLine
 39
0.25
 370
106
 10
137.2751
 20
205.33111171875
 30
0.0
 11
137.1691
 21
206.73311171875
 31
0.0
 0
LINE
 5
148
100
AcDbEntity
 8
Layer8
100
AcDbLine
 39
0.25
 370
106
 10
135.3833
 20
205.33111171875
 30
0.0
 11
135.4893
 21
205.22511171875
 31
0.0
 0
LINE
 5
149
100
AcDbEntity
 8
Layer8
100
AcDbLine
 39
0.25
 370
106
 10
135.4893
 20
205.22511171875
 30
0.0
 11
135.4893
 21
205.13311171875
 31
0.0
 0
LINE
 5
14A
100
AcDbEntity
 8
Layer8
100
AcDbLine
 39
0.25
 370
106
 10
135.4893
 20
205.13311171875
 30
0.0
 11
135.6833
 21
205.13311171875
 31
0.0
 0
LINE
 5
14B
100
AcDbEntity
 8
Layer8
100
AcDbLine
 39
0.25
 370
106
 10
137.0807
 20
205.13491171875
 30
0.0
 11
137.1727
 21
205.13491171875
 31
0.0
 0
LINE
 5
14C
100
AcDbEntity
 8
Layer8
100
AcDbLine
 39
0.25
 370
106
 10
137.1727
 20
205.13491171875
 30
0.0
 11
137.1727
 21
205.22691171875
 31
0.0
 0
LINE
 5
14D
100
AcDbEntity
 8
Layer8
100
AcDbLine
 39
0.25
 370
106
 10
137.1727
 20
205.22691171875
 30
0.0
 11
137.2747
 21
205.22691171875
 31
0.0
 0
LINE
 5
14E
100
AcDbEntity
 8
Layer8
100
AcDbLine
 39
0.25
 370
106
 10
137.2747
 20
205.22691171875
 30
0.0
 11
137.2747
 21
205.43491171875
 31
0.0
 0
LINE
 5
14F
100
AcDbEntity
 8
Layer8
100
AcDbLine
 39
0.25
 370
106
 10
137.1704
 20
207.72891171875
 30
0.0
 11
136.7784
 21
210.44191171875
 31
0.0
 0
LINE
 5
150
100
AcDbEntity
 8
Layer8
100
AcDbLine
 39
0.25
 370
106
 10
141.2699
 20
208.43551171875
 30
0.0
 11
141.0609
 21
205.33051171875
 31
0.0
 0
LINE
 5
151
100
AcDbEntity
 8
Layer8
100
AcDbLine
 39
0.25
 370
106
 10
140.7599
 20
205.13491171875
 30
0.0
 11
140.9689
 21
205.13491171875
 31
0.0
 0
LINE
 5
152
100
AcDbEntity
 8
Layer8
100
AcDbLine
 39
0.25
 370
106
 10
140.9689
 20
205.13491171875
 30
0.0
 11
141.0599
 21
205.22691171875
 31
0.0
 0
LINE
 5
153
100
AcDbEntity
 8
Layer8
100
AcDbLine
 39
0.25
 370
106
 10
141.0599
 20
205.22691171875
 30
0.0
 11
141.0599
 21
205.33291171875
 31
0.0
 0
LINE
 5
154
100
AcDbEntity
 8
Layer8
100
AcDbLine
 39
0.25
 370
106
 10
136.7794
 20
210.44261171875
 30
0.0
 11
136.7794
 21
211.03161171875
 31
0.0
 0
LINE
 5
155
100
AcDbEntity
 8
Layer8
100
AcDbLine
 39
0.25
 370
106
 10
141.0597
 20
210.14201171875
 30
0.0
 11
141.0597
 21
210.23401171875
 31
0.0
 0
LINE
 5
156
100
AcDbEntity
 8
Layer8
100
AcDbLine
 39
0.25
 370
106
 10
179.7298
 20
213.64111171875
 30
0.0
 11
179.7298
 21
213.23111171875
 31
0.0
 0
LINE
 5
157
100
AcDbEntity
 8
Layer8
100
AcDbLine
 39
0.25
 370
106
 10
179.7298
 20
213.23061171875
 30
0.0
 11
179.3378
 21
205.32961171875
 31
0.0
 0
LINE
 5
158
100
AcDbEntity
 8
Layer8
100
AcDbLine
 39
0.25
 370
106
 10
179.1451
 20
205.13491171875
 30
0.0
 11
179.2331
 21
205.13491171875
 31
0.0
 0
LINE
 5
159
100
AcDbEntity
 8
Layer8
100
AcDbLine
 39
0.25
 370
106
 10
179.2331
 20
205.13491171875
 30
0.0
 11
179.3391
 21
205.22691171875
 31
0.0
 0
LINE
 5
15A
100
AcDbEntity
 8
Layer8
100
AcDbLine
 39
0.25
 370
106
 10
179.3391
 20
205.22691171875
 30
0.0
 11
179.3391
 21
205.33291171875
 31
0.0
 0
LINE
 5
15B
100
AcDbEntity
 8
Layer8
100
AcDbLine
 39
0.25
 370
106
 10
72.5956
 20
206.73341171875
 30
0.0
 11
72.7016
 21
207.03341171875
 31
0.0
 0
LINE
 5
15C
100
AcDbEntity
 8
Layer8
100
AcDbLine
 39
0.25
 370
106
 10
72.7016
 20
207.03341171875
 30
0.0
 11
72.7016
 21
207.33741171875
 31
0.0
 0
LINE
 5
15D
100
AcDbEntity
 8
Layer8
100
AcDbLine
 39
0.25
 370
106
 10
72.7016
 20
207.33741171875
 30
0.0
 11
73.0016
 21
207.93841171875
 31
0.0
 0
LINE
 5
15E
100
AcDbEntity
 8
Layer8
100
AcDbLine
 39
0.25
 370
106
 10
72.5956
 20
206.73341171875
 30
0.0
 11
72.7016
 21
205.33141171875
 31
0.0
 0
LINE
 5
15F
100
AcDbEntity
 8
Layer8
100
AcDbLine
 39
0.25
 370
106
 10
72.6999
 20
205.43551171875
 30
0.0
 11
72.6999
 21
205.13551171875
 31
0.0
 0
LINE
 5
160
100
AcDbEntity
 8
Layer8
100
AcDbLine
 39
0.25
 370
106
 10
72.6999
 20
205.13551171875
 30
0.0
 11
72.8979
 21
205.13551171875
 31
0.0
 0
LINE
 5
161
100
AcDbEntity
 8
Layer8
100
AcDbLine
 39
0.25
 370
106
 10
74.3826
 20
210.53271171875
 30
0.0
 11
73.0026
 21
207.83471171875
 31
0.0
 0
LINE
 5
162
100
AcDbEntity
 8
Layer8
100
AcDbLine
 39
0.25
 370
106
 10
75.7786
 20
213.64111171875
 30
0.0
 11
75.6866
 21
213.14311171875
 31
0.0
 0
LINE
 5
163
100
AcDbEntity
 8
Layer8
100
AcDbLine
 39
0.25
 370
106
 10
75.6866
 20
213.14311171875
 30
0.0
 11
74.3836
 21
210.53311171875
 31
0.0
 0
LINE
 5
164
100
AcDbEntity
 8
Layer8
100
AcDbLine
 39
0.25
 370
106
 10
71.905
 20
206.73341171875
 30
0.0
 11
71.905
 21
205.33141171875
 31
0.0
 0
LINE
 5
165
100
AcDbEntity
 8
Layer8
100
AcDbLine
 39
0.25
 370
106
 10
71.905
 20
205.43551171875
 30
0.0
 11
71.905
 21
205.22651171875
 31
0.0
 0
LINE
 5
166
100
AcDbEntity
 8
Layer8
100
AcDbLine
 39
0.25
 370
106
 10
71.905
 20
205.22651171875
 30
0.0
 11
71.997
 21
205.22651171875
 31
0.0
 0
LINE
 5
167
100
AcDbEntity
 8
Layer8
100
AcDbLine
 39
0.25
 370
106
 10
71.997
 20
205.22651171875
 30
0.0
 11
71.997
 21
205.13551171875
 31
0.0
 0
LINE
 5
168
100
AcDbEntity
 8
Layer8
100
AcDbLine
 39
0.25
 370
106
 10
71.9951
 20
205.13491171875
 30
0.0
 11
72.1891
 21
205.13491171875
 31
0.0
 0
LINE
 5
169
100
AcDbEntity
 8
Layer8
100
AcDbLine
 39
0.25
 370
106
 10
71.905
 20
206.73341171875
 30
0.0
 11
71.905
 21
207.03341171875
 31
0.0
 0
LINE
 5
16A
100
AcDbEntity
 8
Layer8
100
AcDbLine
 39
0.25
 370
106
 10
71.905
 20
207.03341171875
 30
0.0
 11
72.099
 21
207.63741171875
 31
0.0
 0
LINE
 5
16B
100
AcDbEntity
 8
Layer8
100
AcDbLine
 39
0.25
 370
106
 10
73.0913
 20
209.73561171875
 30
0.0
 11
73.0913
 21
209.53761171875
 31
0.0
 0
LINE
 5
16C
100
AcDbEntity
 8
Layer8
100
AcDbLine
 39
0.25
 370
106
 10
73.0913
 20
209.53761171875
 30
0.0
 11
72.5973
 21
208.73961171875
 31
0.0
 0
LINE
 5
16D
100
AcDbEntity
 8
Layer8
100
AcDbLine
 39
0.25
 370
106
 10
72.5973
 20
208.73961171875
 30
0.0
 11
72.0993
 21
207.53161171875
 31
0.0
 0
LINE
 5
16E
100
AcDbEntity
 8
Layer8
100
AcDbLine
 39
0.25
 370
106
 10
179.7298
 20
212.34131171875
 30
0.0
 11
180.7368
 21
210.44131171875
 31
0.0
 0
LINE
 5
16F
100
AcDbEntity
 8
Layer8
100
AcDbLine
 39
0.25
 370
106
 10
182.5241
 20
205.33111171875
 30
0.0
 11
182.5241
 21
205.22511171875
 31
0.0
 0
LINE
 5
170
100
AcDbEntity
 8
Layer8
100
AcDbLine
 39
0.25
 370
106
 10
182.5241
 20
205.22511171875
 30
0.0
 11
182.4181
 21
205.22511171875
 31
0.0
 0
LINE
 5
171
100
AcDbEntity
 8
Layer8
100
AcDbLine
 39
0.25
 370
106
 10
182.4181
 20
205.22511171875
 30
0.0
 11
182.4181
 21
205.13311171875
 31
0.0
 0
LINE
 5
172
100
AcDbEntity
 8
Layer8
100
AcDbLine
 39
0.25
 370
106
 10
182.5241
 20
205.33111171875
 30
0.0
 11
182.5241
 21
206.23511171875
 31
0.0
 0
LINE
 5
173
100
AcDbEntity
 8
Layer8
100
AcDbLine
 39
0.25
 370
106
 10
182.5241
 20
206.73341171875
 30
0.0
 11
182.4181
 21
206.83941171875
 31
0.0
 0
LINE
 5
174
100
AcDbEntity
 8
Layer8
100
AcDbLine
 39
0.25
 370
106
 10
182.5241
 20
206.23661171875
 30
0.0
 11
182.5241
 21
206.73461171875
 31
0.0
 0
LINE
 5
175
100
AcDbEntity
 8
Layer8
100
AcDbLine
 39
0.25
 370
106
 10
176.1418
 20
199.52331171875
 30
0.0
 11
175.9438
 21
199.52331171875
 31
0.0
 0
LINE
 5
176
100
AcDbEntity
 8
Layer8
100
AcDbLine
 39
0.25
 370
106
 10
183.8147
 20
199.52331171875
 30
0.0
 11
183.6207
 21
199.52331171875
 31
0.0
 0
LINE
 5
177
100
AcDbEntity
 8
Layer8
100
AcDbLine
 39
0.25
 370
106
 10
72.2942
 20
205.02871171875
 30
0.0
 11
72.2942
 21
205.13471171875
 31
0.0
 0
LINE
 5
178
100
AcDbEntity
 8
Layer8
100
AcDbLine
 39
0.25
 370
106
 10
70.5079
 20
199.43471171875
 30
0.0
 11
70.2989
 21
199.43471171875
 31
0.0
 0
LINE
 5
179
100
AcDbEntity
 8
Layer8
100
AcDbLine
 39
0.25
 370
106
 10
78.2719
 20
199.43471171875
 30
0.0
 11
78.0779
 21
199.43471171875
 31
0.0
 0
LINE
 5
17A
100
AcDbEntity
 8
Layer8
100
AcDbLine
 39
0.25
 370
106
 10
116.1461
 20
199.43471171875
 30
0.0
 11
117.3471
 21
199.43471171875
 31
0.0
 0
LINE
 5
17B
100
AcDbEntity
 8
Layer8
100
AcDbLine
 39
0.25
 370
106
 10
114.2532
 20
202.82791171875
 30
0.0
 11
113.9532
 21
205.13491171875
 31
0.0
 0
LINE
 5
17C
100
AcDbEntity
 8
Layer8
100
AcDbLine
 39
0.25
 370
106
 10
117.9489
 20
205.13491171875
 30
0.0
 11
117.6489
 21
202.82791171875
 31
0.0
 0
LINE
 5
17D
100
AcDbEntity
 8
Layer8
100
AcDbLine
 39
0.25
 370
106
 10
115.6503
 20
199.43471171875
 30
0.0
 11
114.5553
 21
199.43471171875
 31
0.0
 0
LINE
 5
17E
100
AcDbEntity
 8
Layer8
100
AcDbLine
 39
0.25
 370
106
 10
138.4767
 20
199.43471171875
 30
0.0
 11
139.5747
 21
199.43471171875
 31
0.0
 0
LINE
 5
17F
100
AcDbEntity
 8
Layer8
100
AcDbLine
 39
0.25
 370
106
 10
136.585
 20
202.82791171875
 30
0.0
 11
136.285
 21
205.13491171875
 31
0.0
 0
LINE
 5
180
100
AcDbEntity
 8
Layer8
100
AcDbLine
 39
0.25
 370
106
 10
140.2638
 20
205.13491171875
 30
0.0
 11
139.9638
 21
202.82791171875
 31
0.0
 0
LINE
 5
181
100
AcDbEntity
 8
Layer8
100
AcDbLine
 39
0.25
 370
106
 10
137.9664
 20
199.43471171875
 30
0.0
 11
136.8864
 21
199.43471171875
 31
0.0
 0
LINE
 5
182
100
AcDbEntity
 8
Layer8
100
AcDbLine
 39
0.25
 370
106
 10
127.0035
 20
304.31581171875
 30
0.0
 11
127.0035
 21
305.61181171875
 31
0.0
 0
LINE
 5
183
100
AcDbEntity
 8
Layer8
100
AcDbLine
 39
0.25
 370
106
 10
127.0035
 20
304.31581171875
 30
0.0
 11
126.4175
 21
304.20981171875
 31
0.0
 0
LINE
 5
184
100
AcDbEntity
 8
Layer8
100
AcDbLine
 39
0.25
 370
106
 10
126.4175
 20
304.20981171875
 30
0.0
 11
125.9235
 21
304.20981171875
 31
0.0
 0
LINE
 5
185
100
AcDbEntity
 8
Layer8
100
AcDbLine
 39
0.25
 370
106
 10
124.8261
 20
304.31581171875
 30
0.0
 11
125.3201
 21
304.31581171875
 31
0.0
 0
LINE
 5
186
100
AcDbEntity
 8
Layer8
100
AcDbLine
 39
0.25
 370
106
 10
125.3201
 20
304.31581171875
 30
0.0
 11
125.9211
 21
304.20981171875
 31
0.0
 0
LINE
 5
187
100
AcDbEntity
 8
Layer8
100
AcDbLine
 39
0.25
 370
106
 10
124.8261
 20
304.31581171875
 30
0.0
 11
124.8261
 21
305.61181171875
 31
0.0
 0
LINE
 5
188
100
AcDbEntity
 8
Layer8
100
AcDbLine
 39
0.25
 370
106
 10
124.8261
 20
305.61381171875
 30
0.0
 11
125.9211
 21
305.61381171875
 31
0.0
 0
LINE
 5
189
100
AcDbEntity
 8
Layer8
100
AcDbLine
 39
0.25
 370
106
 10
125.9223
 20
305.61381171875
 30
0.0
 11
127.0023
 21
305.61381171875
 31
0.0
 0
LINE
 5
18A
100
AcDbEntity
 8
Layer8
100
AcDbLine
 39
0.25
 370
106
 10
127.0035
 20
305.61381171875
 30
0.0
 11
128.0985
 21
305.61381171875
 31
0.0
 0
LINE
 5
18B
100
AcDbEntity
 8
Layer8
100
AcDbLine
 39
0.25
 370
106
 10
125.9223
 20
305.61381171875
 30
0.0
 11
128.1003
 21
305.61381171875
 31
0.0
 0
LINE
 5
18C
100
AcDbEntity
 8
Layer8
100
AcDbLine
 39
0.25
 370
106
 10
127.0035
 20
304.31581171875
 30
0.0
 11
127.5125
 21
304.31581171875
 31
0.0
 0
LINE
 5
18D
100
AcDbEntity
 8
Layer8
100
AcDbLine
 39
0.25
 370
106
 10
127.5125
 20
304.31581171875
 30
0.0
 11
128.0985
 21
304.20981171875
 31
0.0
 0
LINE
 5
18E
100
AcDbEntity
 8
Layer8
100
AcDbLine
 39
0.25
 370
106
 10
129.3009
 20
304.31581171875
 30
0.0
 11
129.3009
 21
305.61181171875
 31
0.0
 0
LINE
 5
18F
100
AcDbEntity
 8
Layer8
100
AcDbLine
 39
0.25
 370
106
 10
129.3009
 20
304.31581171875
 30
0.0
 11
128.6089
 21
304.20981171875
 31
0.0
 0
LINE
 5
190
100
AcDbEntity
 8
Layer8
100
AcDbLine
 39
0.25
 370
106
 10
128.6089
 20
304.20981171875
 30
0.0
 11
128.0999
 21
304.20981171875
 31
0.0
 0
LINE
 5
191
100
AcDbEntity
 8
Layer8
100
AcDbLine
 39
0.25
 370
106
 10
128.0993
 20
305.61381171875
 30
0.0
 11
129.3003
 21
305.61381171875
 31
0.0
 0
LINE
 5
192
100
AcDbEntity
 8
Layer8
100
AcDbLine
 39
0.25
 370
106
 10
124.8261
 20
304.21001171875
 30
0.0
 11
124.8261
 21
304.31601171875
 31
0.0
 0
LINE
 5
193
100
AcDbEntity
 8
Layer8
100
AcDbLine
 39
0.25
 370
106
 10
124.8261
 20
305.61381171875
 30
0.0
 11
125.9211
 21
305.61381171875
 31
0.0
 0
LINE
 5
194
100
AcDbEntity
 8
Layer8
100
AcDbLine
 39
0.25
 370
106
 10
129.3009
 20
304.21001171875
 30
0.0
 11
129.3009
 21
304.31601171875
 31
0.0
 0
LINE
 5
195
100
AcDbEntity
 8
Layer8
100
AcDbLine
 39
0.25
 370
106
 10
128.0993
 20
305.61381171875
 30
0.0
 11
129.3003
 21
305.61381171875
 31
0.0
 0
LINE
 5
196
100
AcDbEntity
 8
Layer8
100
AcDbLine
 39
0.25
 370
106
 10
129.4067
 20
304.31581171875
 30
0.0
 11
129.4067
 21
305.61181171875
 31
0.0
 0
LINE
 5
197
100
AcDbEntity
 8
Layer8
100
AcDbLine
 39
0.25
 370
106
 10
129.4067
 20
304.21001171875
 30
0.0
 11
129.4067
 21
304.31601171875
 31
0.0
 0
LINE
 5
198
100
AcDbEntity
 8
Layer8
100
AcDbLine
 39
0.25
 370
106
 10
124.5259
 20
303.90941171875
 30
0.0
 11
129.5999
 21
303.90941171875
 31
0.0
 0
LINE
 5
199
100
AcDbEntity
 8
Layer8
100
AcDbLine
 39
0.25
 370
106
 10
124.5259
 20
304.21001171875
 30
0.0
 11
129.5999
 21
304.21001171875
 31
0.0
 0
LINE
 5
19A
100
AcDbEntity
 8
Layer8
100
AcDbLine
 39
0.25
 370
106
 10
127.1082
 20
303.90941171875
 30
0.0
 11
126.9142
 21
303.90941171875
 31
0.0
 0
LINE
 5
19B
100
AcDbEntity
 8
Layer8
100
AcDbLine
 39
0.25
 370
106
 10
127.1082
 20
303.90941171875
 30
0.0
 11
126.9142
 21
303.90941171875
 31
0.0
 0
LINE
 5
19C
100
AcDbEntity
 8
Layer8
100
AcDbLine
 39
0.25
 370
106
 10
126.8091
 20
304.21001171875
 30
0.0
 11
126.7171
 21
304.31601171875
 31
0.0
 0
LINE
 5
19D
100
AcDbEntity
 8
Layer8
100
AcDbLine
 39
0.25
 370
106
 10
126.719
 20
304.31581171875
 30
0.0
 11
126.719
 21
304.20981171875
 31
0.0
 0
LINE
 5
19E
100
AcDbEntity
 8
Layer8
100
AcDbLine
 39
0.25
 370
106
 10
127.8148
 20
303.90941171875
 30
0.0
 11
127.7088
 21
303.90941171875
 31
0.0
 0
LINE
 5
19F
100
AcDbEntity
 8
Layer8
100
AcDbLine
 39
0.25
 370
106
 10
127.8148
 20
303.90941171875
 30
0.0
 11
127.7088
 21
303.90941171875
 31
0.0
 0
LINE
 5
1A0
100
AcDbEntity
 8
Layer8
100
AcDbLine
 39
0.25
 370
106
 10
127.7105
 20
303.90941171875
 30
0.0
 11
127.5125
 21
303.90941171875
 31
0.0
 0
LINE
 5
1A1
100
AcDbEntity
 8
Layer8
100
AcDbLine
 39
0.25
 370
106
 10
126.5078
 20
303.90941171875
 30
0.0
 11
126.3138
 21
303.90941171875
 31
0.0
 0
LINE
 5
1A2
100
AcDbEntity
 8
Layer8
100
AcDbLine
 39
0.25
 370
106
 10
126.3133
 20
303.90941171875
 30
0.0
 11
126.2073
 21
303.90941171875
 31
0.0
 0
LINE
 5
1A3
100
AcDbEntity
 8
Layer8
100
AcDbLine
 39
0.25
 370
106
 10
128.5053
 20
303.90941171875
 30
0.0
 11
128.3993
 21
303.90941171875
 31
0.0
 0
LINE
 5
1A4
100
AcDbEntity
 8
Layer8
100
AcDbLine
 39
0.25
 370
106
 10
128.3105
 20
303.90941171875
 30
0.0
 11
128.5045
 21
303.90941171875
 31
0.0
 0
LINE
 5
1A5
100
AcDbEntity
 8
Layer8
100
AcDbLine
 39
0.25
 370
106
 10
128.0993
 20
303.90941171875
 30
0.0
 11
128.3113
 21
303.90941171875
 31
0.0
 0
LINE
 5
1A6
100
AcDbEntity
 8
Layer8
100
AcDbLine
 39
0.25
 370
106
 10
126.012
 20
303.90941171875
 30
0.0
 11
125.62
 21
303.90941171875
 31
0.0
 0
LINE
 5
1A7
100
AcDbEntity
 8
Layer8
100
AcDbLine
 39
0.25
 370
106
 10
125.6221
 20
303.90941171875
 30
0.0
 11
125.5161
 21
303.90941171875
 31
0.0
 0
LINE
 5
1A8
100
AcDbEntity
 8
Layer8
100
AcDbLine
 39
0.25
 370
106
 10
129.0007
 20
303.90941171875
 30
0.0
 11
128.9087
 21
303.90941171875
 31
0.0
 0
LINE
 5
1A9
100
AcDbEntity
 8
Layer8
100
AcDbLine
 39
0.25
 370
106
 10
128.6097
 20
303.90941171875
 30
0.0
 11
129.0017
 21
303.90941171875
 31
0.0
 0
LINE
 5
1AA
100
AcDbEntity
 8
Layer8
100
AcDbLine
 39
0.25
 370
106
 10
128.6097
 20
303.90941171875
 30
0.0
 11
128.5037
 21
303.90941171875
 31
0.0
 0
LINE
 5
1AB
100
AcDbEntity
 8
Layer8
100
AcDbLine
 39
0.25
 370
106
 10
125.6221
 20
303.90941171875
 30
0.0
 11
125.2161
 21
303.90941171875
 31
0.0
 0
LINE
 5
1AC
100
AcDbEntity
 8
Layer8
100
AcDbLine
 39
0.25
 370
106
 10
125.2172
 20
303.90941171875
 30
0.0
 11
125.1112
 21
303.90941171875
 31
0.0
 0
LINE
 5
1AD
100
AcDbEntity
 8
Layer8
100
AcDbLine
 39
0.25
 370
106
 10
128.8063
 20
303.90941171875
 30
0.0
 11
129.2123
 21
303.90941171875
 31
0.0
 0
LINE
 5
1AE
100
AcDbEntity
 8
Layer8
100
AcDbLine
 39
0.25
 370
106
 10
129.1065
 20
304.31581171875
 30
0.0
 11
129.1065
 21
304.20981171875
 31
0.0
 0
LINE
 5
1AF
100
AcDbEntity
 8
Layer8
100
AcDbLine
 39
0.25
 370
106
 10
129.2119
 20
304.21001171875
 30
0.0
 11
129.1059
 21
304.31601171875
 31
0.0
 0
LINE
 5
1B0
100
AcDbEntity
 8
Layer8
100
AcDbLine
 39
0.25
 370
106
 10
125.4119
 20
303.90941171875
 30
0.0
 11
125.0199
 21
303.90941171875
 31
0.0
 0
LINE
 5
1B1
100
AcDbEntity
 8
Layer8
100
AcDbLine
 39
0.25
 370
106
 10
128.8063
 20
303.90941171875
 30
0.0
 11
128.7003
 21
303.90941171875
 31
0.0
 0
LINE
 5
1B2
100
AcDbEntity
 8
Layer8
100
AcDbLine
 39
0.25
 370
106
 10
128.4006
 20
303.90941171875
 30
0.0
 11
128.6096
 21
303.90941171875
 31
0.0
 0
LINE
 5
1B3
100
AcDbEntity
 8
Layer8
100
AcDbLine
 39
0.25
 370
106
 10
128.5053
 20
303.90941171875
 30
0.0
 11
128.3993
 21
303.90941171875
 31
0.0
 0
LINE
 5
1B4
100
AcDbEntity
 8
Layer8
100
AcDbLine
 39
0.25
 370
106
 10
125.7118
 20
303.90941171875
 30
0.0
 11
125.6198
 21
303.90941171875
 31
0.0
 0
LINE
 5
1B5
100
AcDbEntity
 8
Layer8
100
AcDbLine
 39
0.25
 370
106
 10
128.0993
 20
303.90941171875
 30
0.0
 11
128.0073
 21
303.90941171875
 31
0.0
 0
LINE
 5
1B6
100
AcDbEntity
 8
Layer8
100
AcDbLine
 39
0.25
 370
106
 10
128.0092
 20
303.90941171875
 30
0.0
 11
128.2032
 21
303.90941171875
 31
0.0
 0
LINE
 5
1B7
100
AcDbEntity
 8
Layer8
100
AcDbLine
 39
0.25
 370
106
 10
126.1178
 20
303.90941171875
 30
0.0
 11
126.0118
 21
303.90941171875
 31
0.0
 0
LINE
 5
1B8
100
AcDbEntity
 8
Layer8
100
AcDbLine
 39
0.25
 370
106
 10
73.0913
 20
201.52781171875
 30
0.0
 11
75.3903
 21
201.52781171875
 31
0.0
 0
LINE
 5
1B9
100
AcDbEntity
 8
Layer8
100
AcDbLine
 39
0.25
 370
106
 10
73.2857
 20
201.33531171875
 30
0.0
 11
75.1937
 21
201.33531171875
 31
0.0
 0
LINE
 5
1BA
100
AcDbEntity
 8
Layer8
100
AcDbLine
 39
0.25
 370
106
 10
138.4767
 20
207.63841171875
 30
0.0
 11
139.3777
 21
207.63841171875
 31
0.0
 0
LINE
 5
1BB
100
AcDbEntity
 8
Layer8
100
AcDbLine
 39
0.25
 370
106
 10
137.0807
 20
207.63841171875
 30
0.0
 11
138.4757
 21
207.63841171875
 31
0.0
 0
LINE
 5
1BC
100
AcDbEntity
 8
Layer8
100
AcDbLine
 39
0.25
 370
106
 10
137.0807
 20
201.52781171875
 30
0.0
 11
138.0727
 21
201.52781171875
 31
0.0
 0
LINE
 5
1BD
100
AcDbEntity
 8
Layer8
100
AcDbLine
 39
0.25
 370
106
 10
138.4767
 20
207.42651171875
 30
0.0
 11
139.3777
 21
207.42651171875
 31
0.0
 0
LINE
 5
1BE
100
AcDbEntity
 8
Layer8
100
AcDbLine
 39
0.25
 370
106
 10
137.0807
 20
207.42651171875
 30
0.0
 11
138.4757
 21
207.42651171875
 31
0.0
 0
LINE
 5
1BF
100
AcDbEntity
 8
Layer8
100
AcDbLine
 39
0.25
 370
106
 10
137.2751
 20
201.33531171875
 30
0.0
 11
138.1761
 21
201.33531171875
 31
0.0
 0
LINE
 5
1C0
100
AcDbEntity
 8
Layer8
100
AcDbLine
 39
0.25
 370
106
 10
114.9591
 20
201.33531171875
 30
0.0
 11
115.8451
 21
201.33531171875
 31
0.0
 0
LINE
 5
1C1
100
AcDbEntity
 8
Layer8
100
AcDbLine
 39
0.25
 370
106
 10
114.7489
 20
201.52781171875
 30
0.0
 11
115.8439
 21
201.52781171875
 31
0.0
 0
LINE
 5
1C2
100
AcDbEntity
 8
Layer8
100
AcDbLine
 39
0.25
 370
106
 10
178.8441
 20
201.52781171875
 30
0.0
 11
181.0371
 21
201.52781171875
 31
0.0
 0
LINE
 5
1C3
100
AcDbEntity
 8
Layer8
100
AcDbLine
 39
0.25
 370
106
 10
179.0397
 20
201.33531171875
 30
0.0
 11
180.8267
 21
201.33531171875
 31
0.0
 0
LINE
 5
1C4
100
AcDbEntity
 8
Layer8
100
AcDbLine
 39
0.25
 370
106
 10
101.6995
 20
464.81901171875
 30
0.0
 11
152.5175
 21
464.81901171875
 31
0.0
 0
LINE
 5
1C5
100
AcDbEntity
 8
Layer8
100
AcDbLine
 39
0.25
 370
106
 10
101.6995
 20
465.11961171875
 30
0.0
 11
152.5175
 21
465.11961171875
 31
0.0
 0
LINE
 5
1C6
100
AcDbEntity
 8
Layer8
100
AcDbLine
 39
0.25
 370
106
 10
126.012
 20
464.02191171875
 30
0.0
 11
126.012
 21
464.62191171875
 31
0.0
 0
LINE
 5
1C7
100
AcDbEntity
 8
Layer8
100
AcDbLine
 39
0.25
 370
106
 10
126.012
 20
464.02191171875
 30
0.0
 11
125.818
 21
463.91591171875
 31
0.0
 0
LINE
 5
1C8
100
AcDbEntity
 8
Layer8
100
AcDbLine
 39
0.25
 370
106
 10
125.818
 20
463.91591171875
 30
0.0
 11
125.518
 21
463.80991171875
 31
0.0
 0
LINE
 5
1C9
100
AcDbEntity
 8
Layer8
100
AcDbLine
 39
0.25
 370
106
 10
125.518
 20
463.80991171875
 30
0.0
 11
125.218
 21
463.91591171875
 31
0.0
 0
LINE
 5
1CA
100
AcDbEntity
 8
Layer8
100
AcDbLine
 39
0.25
 370
106
 10
125.218
 20
463.91591171875
 30
0.0
 11
125.02
 21
464.02191171875
 31
0.0
 0
LINE
 5
1CB
100
AcDbEntity
 8
Layer8
100
AcDbLine
 39
0.25
 370
106
 10
125.0217
 20
464.02191171875
 30
0.0
 11
125.0217
 21
464.62191171875
 31
0.0
 0
LINE
 5
1CC
100
AcDbEntity
 8
Layer8
100
AcDbLine
 39
0.25
 370
106
 10
125.0217
 20
464.62271171875
 30
0.0
 11
125.2157
 21
464.71371171875
 31
0.0
 0
LINE
 5
1CD
100
AcDbEntity
 8
Layer8
100
AcDbLine
 39
0.25
 370
106
 10
125.2157
 20
464.71371171875
 30
0.0
 11
125.7137
 21
464.71371171875
 31
0.0
 0
LINE
 5
1CE
100
AcDbEntity
 8
Layer8
100
AcDbLine
 39
0.25
 370
106
 10
125.7137
 20
464.71371171875
 30
0.0
 11
126.0137
 21
464.62271171875
 31
0.0
 0
LINE
 5
1CF
100
AcDbEntity
 8
Layer8
100
AcDbLine
 39
0.25
 370
106
 10
126.012
 20
464.02191171875
 30
0.0
 11
127.107
 21
463.80991171875
 31
0.0
 0
LINE
 5
1D0
100
AcDbEntity
 8
Layer8
100
AcDbLine
 39
0.25
 370
106
 10
127.107
 20
463.80991171875
 30
0.0
 11
128.099
 21
464.02191171875
 31
0.0
 0
LINE
 5
1D1
100
AcDbEntity
 8
Layer8
100
AcDbLine
 39
0.25
 370
106
 10
129.2119
 20
464.02191171875
 30
0.0
 11
128.6989
 21
463.80991171875
 31
0.0
 0
LINE
 5
1D2
100
AcDbEntity
 8
Layer8
100
AcDbLine
 39
0.25
 370
106
 10
128.6989
 20
463.80991171875
 30
0.0
 11
128.0989
 21
464.02191171875
 31
0.0
 0
LINE
 5
1D3
100
AcDbEntity
 8
Layer8
100
AcDbLine
 39
0.25
 370
106
 10
128.0993
 20
464.02191171875
 30
0.0
 11
128.0993
 21
464.62191171875
 31
0.0
 0
LINE
 5
1D4
100
AcDbEntity
 8
Layer8
100
AcDbLine
 39
0.25
 370
106
 10
126.012
 20
464.62271171875
 30
0.0
 11
126.118
 21
464.62271171875
 31
0.0
 0
LINE
 5
1D5
100
AcDbEntity
 8
Layer8
100
AcDbLine
 39
0.25
 370
106
 10
126.118
 20
464.62271171875
 30
0.0
 11
127.107
 21
464.71371171875
 31
0.0
 0
LINE
 5
1D6
100
AcDbEntity
 8
Layer8
100
AcDbLine
 39
0.25
 370
106
 10
127.107
 20
464.71371171875
 30
0.0
 11
127.605
 21
464.71371171875
 31
0.0
 0
LINE
 5
1D7
100
AcDbEntity
 8
Layer8
100
AcDbLine
 39
0.25
 370
106
 10
127.605
 20
464.71371171875
 30
0.0
 11
128.099
 21
464.62271171875
 31
0.0
 0
LINE
 5
1D8
100
AcDbEntity
 8
Layer8
100
AcDbLine
 39
0.25
 370
106
 10
128.0993
 20
464.62271171875
 30
0.0
 11
128.3993
 21
464.71371171875
 31
0.0
 0
LINE
 5
1D9
100
AcDbEntity
 8
Layer8
100
AcDbLine
 39
0.25
 370
106
 10
128.3993
 20
464.71371171875
 30
0.0
 11
128.6083
 21
464.71371171875
 31
0.0
 0
LINE
 5
1DA
100
AcDbEntity
 8
Layer8
100
AcDbLine
 39
0.25
 370
106
 10
128.6083
 20
464.71371171875
 30
0.0
 11
128.9123
 21
464.71371171875
 31
0.0
 0
LINE
 5
1DB
100
AcDbEntity
 8
Layer8
100
AcDbLine
 39
0.25
 370
106
 10
128.9123
 20
464.71371171875
 30
0.0
 11
129.2123
 21
464.62271171875
 31
0.0
 0
LINE
 5
1DC
100
AcDbEntity
 8
Layer8
100
AcDbLine
 39
0.25
 370
106
 10
129.2119
 20
464.02191171875
 30
0.0
 11
129.2119
 21
464.62191171875
 31
0.0
 0
LINE
 5
1DD
100
AcDbEntity
 8
Layer8
100
AcDbLine
 39
0.25
 370
106
 10
126.8091
 20
463.41711171875
 30
0.0
 11
128.5041
 21
463.41711171875
 31
0.0
 0
LINE
 5
1DE
100
AcDbEntity
 8
Layer8
100
AcDbLine
 39
0.25
 370
106
 10
125.7118
 20
463.41711171875
 30
0.0
 11
126.8098
 21
463.41711171875
 31
0.0
 0
LINE
 5
1DF
100
AcDbEntity
 8
Layer8
100
AcDbLine
 39
0.25
 370
106
 10
126.9134
 20
463.11431171875
 30
0.0
 11
125.9214
 21
463.11431171875
 31
0.0
 0
LINE
 5
1E0
100
AcDbEntity
 8
Layer8
100
AcDbLine
 39
0.25
 370
106
 10
128.2051
 20
463.11431171875
 30
0.0
 11
126.9131
 21
463.11431171875
 31
0.0
 0
LINE
 5
1E1
100
AcDbEntity
 8
Layer8
100
AcDbLine
 39
0.25
 370
106
 10
142.6513
 20
471.12221171875
 30
0.0
 11
111.5673
 21
471.12221171875
 31
0.0
 0
ARC
 5
1E2
100
AcDbEntity
 8
Layer8
100
AcDbCircle
 39
0.25
 370
106
 10
74.7191219092387
 20
216.928092469922
 30
0.0
 40
1.03661909635034
100
AcDbArc
 50
102.933829856886
 51
-120.879083086695
 0
LINE
 5
1E3
100
AcDbEntity
 8
Layer8
100
AcDbLine
 39
0.25
 370
106
 10
74.4871
 20
217.93841171875
 30
0.0
 11
74.7871
 21
217.93841171875
 31
0.0
 0
LINE
 5
1E4
100
AcDbEntity
 8
Layer8
100
AcDbLine
 39
0.25
 370
106
 10
74.1871
 20
215.94621171875
 30
0.0
 11
74.1871
 21
216.03821171875
 31
0.0
 0
ARC
 5
1E5
100
AcDbEntity
 8
Layer8
100
AcDbCircle
 39
0.25
 370
106
 10
75.1046527656707
 20
216.703689453895
 30
0.0
 40
1.523328115437
100
AcDbArc
 50
118.35814945166
 51
175.009232330939
 0
LINE
 5
1E6
100
AcDbEntity
 8
Layer8
100
AcDbLine
 39
0.25
 370
106
 10
74.1871
 20
215.94621171875
 30
0.0
 11
73.6931
 21
216.53521171875
 31
0.0
 0
LINE
 5
1E7
100
AcDbEntity
 8
Layer8
100
AcDbLine
 39
0.25
 370
106
 10
73.6931
 20
216.53521171875
 30
0.0
 11
73.5871
 21
216.83621171875
 31
0.0
 0
LINE
 5
1E8
100
AcDbEntity
 8
Layer8
100
AcDbLine
 39
0.25
 370
106
 10
74.3811
 20
218.04421171875
 30
0.0
 11
74.7871
 21
218.04421171875
 31
0.0
 0
LINE
 5
1E9
100
AcDbEntity
 8
Layer8
100
AcDbLine
 39
0.25
 370
106
 10
74.7875
 20
217.93751171875
 30
0.0
 11
74.7875
 21
218.04351171875
 31
0.0
 0
LINE
 5
1EA
100
AcDbEntity
 8
Layer8
100
AcDbLine
 39
0.25
 370
106
 10
74.7875
 20
217.93751171875
 30
0.0
 11
74.1875
 21
216.03751171875
 31
0.0
 0
LINE
 5
1EB
100
AcDbEntity
 8
Layer8
100
AcDbLine
 39
0.25
 370
106
 10
73.5867
 20
217.24231171875
 30
0.0
 11
73.5867
 21
216.53531171875
 31
0.0
 0
LINE
 5
1EC
100
AcDbEntity
 8
Layer8
100
AcDbLine
 39
0.25
 370
106
 10
73.5867
 20
216.53531171875
 30
0.0
 11
73.6927
 21
216.23131171875
 31
0.0
 0
LINE
 5
1ED
100
AcDbEntity
 8
Layer8
100
AcDbLine
 39
0.25
 370
106
 10
73.6927
 20
216.23131171875
 30
0.0
 11
74.2937
 21
215.84031171875
 31
0.0
 0
LINE
 5
1EE
100
AcDbEntity
 8
Layer8
100
AcDbLine
 39
0.25
 370
106
 10
74.2937
 20
215.84031171875
 30
0.0
 11
74.5937
 21
215.73431171875
 31
0.0
 0
LINE
 5
1EF
100
AcDbEntity
 8
Layer8
100
AcDbLine
 39
0.25
 370
106
 10
74.5937
 20
215.73431171875
 30
0.0
 11
74.6817
 21
215.73431171875
 31
0.0
 0
ARC
 5
1F0
100
AcDbEntity
 8
Layer8
100
AcDbCircle
 39
0.25
 370
106
 10
74.529598021637
 20
217.091664691688
 30
0.0
 40
0.953612996068831
100
AcDbArc
 50
86.3202821187728
 51
170.971463403822
 0
LINE
 5
1F1
100
AcDbEntity
 8
Layer8
100
AcDbLine
 39
0.25
 370
106
 10
74.6828
 20
218.04331171875
 30
0.0
 11
74.5908
 21
218.04331171875
 31
0.0
 0
LINE
 5
1F2
100
AcDbEntity
 8
Layer8
100
AcDbLine
 39
0.25
 370
106
 10
74.097
 20
215.94621171875
 30
0.0
 11
74.189
 21
215.94621171875
 31
0.0
 0
LINE
 5
1F3
100
AcDbEntity
 8
Layer8
100
AcDbLine
 39
0.25
 370
106
 10
74.097
 20
215.94621171875
 30
0.0
 11
74.189
 21
215.94621171875
 31
0.0
 0
LINE
 5
1F4
100
AcDbEntity
 8
Layer8
100
AcDbLine
 39
0.25
 370
106
 10
74.189
 20
215.94621171875
 30
0.0
 11
74.189
 21
215.84021171875
 31
0.0
 0
LINE
 5
1F5
100
AcDbEntity
 8
Layer8
100
AcDbLine
 39
0.25
 370
106
 10
74.189
 20
215.84021171875
 30
0.0
 11
74.489
 21
215.84021171875
 31
0.0
 0
LINE
 5
1F6
100
AcDbEntity
 8
Layer8
100
AcDbLine
 39
0.25
 370
106
 10
74.489
 20
215.84021171875
 30
0.0
 11
74.591
 21
215.73421171875
 31
0.0
 0
LINE
 5
1F7
100
AcDbEntity
 8
Layer8
100
AcDbLine
 39
0.25
 370
106
 10
74.6828
 20
215.73421171875
 30
0.0
 11
74.5908
 21
215.73421171875
 31
0.0
 0
ARC
 5
1F8
100
AcDbEntity
 8
Layer8
100
AcDbCircle
 39
0.25
 370
106
 10
74.7173475110211
 20
216.901442973321
 30
0.0
 40
1.16779612791853
100
AcDbArc
 50
-91.6167238548137
 51
2.04483478582277
 0
LINE
 5
1F9
100
AcDbEntity
 8
Layer8
100
AcDbLine
 39
0.25
 370
106
 10
75.2844
 20
217.84711171875
 30
0.0
 11
75.7784
 21
217.34911171875
 31
0.0
 0
LINE
 5
1FA
100
AcDbEntity
 8
Layer8
100
AcDbLine
 39
0.25
 370
106
 10
75.7784
 20
217.34911171875
 30
0.0
 11
75.8844
 21
216.94311171875
 31
0.0
 0
LINE
 5
1FB
100
AcDbEntity
 8
Layer8
100
AcDbLine
 39
0.25
 370
106
 10
74.7875
 20
218.04331171875
 30
0.0
 11
74.9815
 21
218.04331171875
 31
0.0
 0
LINE
 5
1FC
100
AcDbEntity
 8
Layer8
100
AcDbLine
 39
0.25
 370
106
 10
74.9815
 20
218.04331171875
 30
0.0
 11
75.0875
 21
217.93731171875
 31
0.0
 0
LINE
 5
1FD
100
AcDbEntity
 8
Layer8
100
AcDbLine
 39
0.25
 370
106
 10
75.0875
 20
217.93731171875
 30
0.0
 11
75.1935
 21
217.93731171875
 31
0.0
 0
LINE
 5
1FE
100
AcDbEntity
 8
Layer8
100
AcDbLine
 39
0.25
 370
106
 10
75.1935
 20
217.93731171875
 30
0.0
 11
75.2855
 21
217.84531171875
 31
0.0
 0
LINE
 5
1FF
100
AcDbEntity
 8
Layer8
100
AcDbLine
 39
0.25
 370
106
 10
75.2844
 20
217.84711171875
 30
0.0
 11
74.5924
 21
215.73411171875
 31
0.0
 0
LINE
 5
200
100
AcDbEntity
 8
Layer8
100
AcDbLine
 39
0.25
 370
106
 10
75.2844
 20
217.84711171875
 30
0.0
 11
74.6844
 21
215.84111171875
 31
0.0
 0
LINE
 5
201
100
AcDbEntity
 8
Layer8
100
AcDbLine
 39
0.25
 370
106
 10
74.6828
 20
215.73421171875
 30
0.0
 11
74.6828
 21
215.84021171875
 31
0.0
 0
ARC
 5
202
100
AcDbEntity
 8
Layer8
100
AcDbCircle
 39
0.25
 370
106
 10
74.4339495184084
 20
216.889673216235
 30
0.0
 40
1.28060708561796
100
AcDbArc
 50
-41.679796504004
 51
48.3867240884365
 0
LINE
 5
203
100
AcDbEntity
 8
Layer8
100
AcDbLine
 39
0.25
 370
106
 10
75.3904
 20
216.03811171875
 30
0.0
 11
74.6844
 21
215.84111171875
 31
0.0
 0
LINE
 5
204
100
AcDbEntity
 8
Layer8
100
AcDbLine
 39
0.25
 370
106
 10
136.3748
 20
215.73421171875
 30
0.0
 11
136.5838
 21
216.03821171875
 31
0.0
 0
LINE
 5
205
100
AcDbEntity
 8
Layer8
100
AcDbLine
 39
0.25
 370
106
 10
136.5838
 20
216.03821171875
 30
0.0
 11
136.5838
 21
217.34921171875
 31
0.0
 0
LINE
 5
206
100
AcDbEntity
 8
Layer8
100
AcDbLine
 39
0.25
 370
106
 10
136.5838
 20
217.34921171875
 30
0.0
 11
136.4808
 21
218.04421171875
 31
0.0
 0
LINE
 5
207
100
AcDbEntity
 8
Layer8
100
AcDbLine
 39
0.25
 370
106
 10
136.4808
 20
218.04421171875
 30
0.0
 11
136.3748
 21
218.04421171875
 31
0.0
 0
LINE
 5
208
100
AcDbEntity
 8
Layer8
100
AcDbLine
 39
0.25
 370
106
 10
136.3748
 20
217.73911171875
 30
0.0
 11
136.1808
 21
217.73911171875
 31
0.0
 0
LINE
 5
209
100
AcDbEntity
 8
Layer8
100
AcDbLine
 39
0.25
 370
106
 10
135.9838
 20
218.04331171875
 30
0.0
 11
136.0758
 21
217.93731171875
 31
0.0
 0
LINE
 5
20A
100
AcDbEntity
 8
Layer8
100
AcDbLine
 39
0.25
 370
106
 10
136.0758
 20
217.93731171875
 30
0.0
 11
136.1778
 21
217.73931171875
 31
0.0
 0
LINE
 5
20B
100
AcDbEntity
 8
Layer8
100
AcDbLine
 39
0.25
 370
106
 10
135.8791
 20
216.53531171875
 30
0.0
 11
135.7871
 21
216.53531171875
 31
0.0
 0
LINE
 5
20C
100
AcDbEntity
 8
Layer8
100
AcDbLine
 39
0.25
 370
106
 10
136.1793
 20
217.34811171875
 30
0.0
 11
136.1793
 21
216.23111171875
 31
0.0
 0
LINE
 5
20D
100
AcDbEntity
 8
Layer8
100
AcDbLine
 39
0.25
 370
106
 10
136.1793
 20
216.23111171875
 30
0.0
 11
136.0733
 21
215.94611171875
 31
0.0
 0
LINE
 5
20E
100
AcDbEntity
 8
Layer8
100
AcDbLine
 39
0.25
 370
106
 10
136.0733
 20
215.94611171875
 30
0.0
 11
136.0733
 21
215.84011171875
 31
0.0
 0
LINE
 5
20F
100
AcDbEntity
 8
Layer8
100
AcDbLine
 39
0.25
 370
106
 10
136.0733
 20
215.84011171875
 30
0.0
 11
135.9853
 21
215.73311171875
 31
0.0
 0
LINE
 5
210
100
AcDbEntity
 8
Layer8
100
AcDbLine
 39
0.25
 370
106
 10
135.9853
 20
215.73311171875
 30
0.0
 11
135.9853
 21
215.84011171875
 31
0.0
 0
LINE
 5
211
100
AcDbEntity
 8
Layer8
100
AcDbLine
 39
0.25
 370
106
 10
136.3748
 20
217.34811171875
 30
0.0
 11
136.1808
 21
217.34811171875
 31
0.0
 0
LINE
 5
212
100
AcDbEntity
 8
Layer8
100
AcDbLine
 39
0.25
 370
106
 10
136.3748
 20
217.73911171875
 30
0.0
 11
136.3748
 21
217.34711171875
 31
0.0
 0
LINE
 5
213
100
AcDbEntity
 8
Layer8
100
AcDbLine
 39
0.25
 370
106
 10
135.789
 20
216.14461171875
 30
0.0
 11
135.789
 21
215.94661171875
 31
0.0
 0
LINE
 5
214
100
AcDbEntity
 8
Layer8
100
AcDbLine
 39
0.25
 370
106
 10
135.789
 20
215.94661171875
 30
0.0
 11
135.881
 21
215.84061171875
 31
0.0
 0
LINE
 5
215
100
AcDbEntity
 8
Layer8
100
AcDbLine
 39
0.25
 370
106
 10
135.881
 20
215.84061171875
 30
0.0
 11
135.983
 21
215.94661171875
 31
0.0
 0
LINE
 5
216
100
AcDbEntity
 8
Layer8
100
AcDbLine
 39
0.25
 370
106
 10
135.983
 20
215.94661171875
 30
0.0
 11
135.983
 21
216.03861171875
 31
0.0
 0
LINE
 5
217
100
AcDbEntity
 8
Layer8
100
AcDbLine
 39
0.25
 370
106
 10
135.983
 20
216.03861171875
 30
0.0
 11
136.075
 21
216.23261171875
 31
0.0
 0
LINE
 5
218
100
AcDbEntity
 8
Layer8
100
AcDbLine
 39
0.25
 370
106
 10
136.075
 20
216.23261171875
 30
0.0
 11
136.075
 21
217.24261171875
 31
0.0
 0
LINE
 5
219
100
AcDbEntity
 8
Layer8
100
AcDbLine
 39
0.25
 370
106
 10
136.1793
 20
217.34811171875
 30
0.0
 11
136.0733
 21
217.24211171875
 31
0.0
 0
LINE
 5
21A
100
AcDbEntity
 8
Layer8
100
AcDbLine
 39
0.25
 370
106
 10
136.4802
 20
217.93751171875
 30
0.0
 11
136.5862
 21
217.93751171875
 31
0.0
 0
LINE
 5
21B
100
AcDbEntity
 8
Layer8
100
AcDbLine
 39
0.25
 370
106
 10
136.5862
 20
217.93751171875
 30
0.0
 11
136.6742
 21
217.54551171875
 31
0.0
 0
LINE
 5
21C
100
AcDbEntity
 8
Layer8
100
AcDbLine
 39
0.25
 370
106
 10
136.6742
 20
217.54551171875
 30
0.0
 11
136.6742
 21
216.53551171875
 31
0.0
 0
LINE
 5
21D
100
AcDbEntity
 8
Layer8
100
AcDbLine
 39
0.25
 370
106
 10
136.6742
 20
216.53551171875
 30
0.0
 11
136.6742
 21
216.23151171875
 31
0.0
 0
LINE
 5
21E
100
AcDbEntity
 8
Layer8
100
AcDbLine
 39
0.25
 370
106
 10
136.6742
 20
216.23151171875
 30
0.0
 11
136.4802
 21
215.83951171875
 31
0.0
 0
LINE
 5
21F
100
AcDbEntity
 8
Layer8
100
AcDbLine
 39
0.25
 370
106
 10
136.0746
 20
217.24231171875
 30
0.0
 11
135.7886
 21
216.14431171875
 31
0.0
 0
LINE
 5
220
100
AcDbEntity
 8
Layer8
100
AcDbLine
 39
0.25
 370
106
 10
136.3748
 20
217.73911171875
 30
0.0
 11
136.1808
 21
217.34711171875
 31
0.0
 0
LINE
 5
221
100
AcDbEntity
 8
Layer8
100
AcDbLine
 39
0.25
 370
106
 10
135.789
 20
216.53531171875
 30
0.0
 11
135.683
 21
216.53531171875
 31
0.0
 0
LINE
 5
222
100
AcDbEntity
 8
Layer8
100
AcDbLine
 39
0.25
 370
106
 10
136.0746
 20
217.73911171875
 30
0.0
 11
135.6826
 21
216.53411171875
 31
0.0
 0
LINE
 5
223
100
AcDbEntity
 8
Layer8
100
AcDbLine
 39
0.25
 370
106
 10
136.1793
 20
217.73911171875
 30
0.0
 11
136.0733
 21
217.73911171875
 31
0.0
 0
LINE
 5
224
100
AcDbEntity
 8
Layer8
100
AcDbLine
 39
0.25
 370
106
 10
136.0746
 20
217.73911171875
 30
0.0
 11
135.9826
 21
217.93711171875
 31
0.0
 0
LINE
 5
225
100
AcDbEntity
 8
Layer8
100
AcDbLine
 39
0.25
 370
106
 10
135.9826
 20
217.93711171875
 30
0.0
 11
135.8806
 21
217.93711171875
 31
0.0
 0
LINE
 5
226
100
AcDbEntity
 8
Layer8
100
AcDbLine
 39
0.25
 370
106
 10
135.8806
 20
217.93711171875
 30
0.0
 11
135.7886
 21
217.73911171875
 31
0.0
 0
LINE
 5
227
100
AcDbEntity
 8
Layer8
100
AcDbLine
 39
0.25
 370
106
 10
135.7886
 20
217.73911171875
 30
0.0
 11
135.7886
 21
217.54511171875
 31
0.0
 0
LINE
 5
228
100
AcDbEntity
 8
Layer8
100
AcDbLine
 39
0.25
 370
106
 10
135.7886
 20
217.54511171875
 30
0.0
 11
135.6826
 21
217.24111171875
 31
0.0
 0
LINE
 5
229
100
AcDbEntity
 8
Layer8
100
AcDbLine
 39
0.25
 370
106
 10
135.6826
 20
217.24111171875
 30
0.0
 11
135.6826
 21
216.53411171875
 31
0.0
 0
LINE
 5
22A
100
AcDbEntity
 8
Layer8
100
AcDbLine
 39
0.25
 370
106
 10
140.7599
 20
217.34811171875
 30
0.0
 11
140.6679
 21
217.63711171875
 31
0.0
 0
LINE
 5
22B
100
AcDbEntity
 8
Layer8
100
AcDbLine
 39
0.25
 370
106
 10
140.6679
 20
217.63711171875
 30
0.0
 11
140.6679
 21
217.93711171875
 31
0.0
 0
LINE
 5
22C
100
AcDbEntity
 8
Layer8
100
AcDbLine
 39
0.25
 370
106
 10
140.6679
 20
217.93711171875
 30
0.0
 11
140.5659
 21
218.04411171875
 31
0.0
 0
LINE
 5
22D
100
AcDbEntity
 8
Layer8
100
AcDbLine
 39
0.25
 370
106
 10
140.7599
 20
217.34811171875
 30
0.0
 11
140.5659
 21
217.34811171875
 31
0.0
 0
LINE
 5
22E
100
AcDbEntity
 8
Layer8
100
AcDbLine
 39
0.25
 370
106
 10
140.5644
 20
217.34811171875
 30
0.0
 11
140.5644
 21
216.74411171875
 31
0.0
 0
LINE
 5
22F
100
AcDbEntity
 8
Layer8
100
AcDbLine
 39
0.25
 370
106
 10
140.7599
 20
216.74541171875
 30
0.0
 11
140.5659
 21
216.74541171875
 31
0.0
 0
LINE
 5
230
100
AcDbEntity
 8
Layer8
100
AcDbLine
 39
0.25
 370
106
 10
140.5644
 20
215.73421171875
 30
0.0
 11
140.5644
 21
215.84021171875
 31
0.0
 0
LINE
 5
231
100
AcDbEntity
 8
Layer8
100
AcDbLine
 39
0.25
 370
106
 10
140.5644
 20
215.84021171875
 30
0.0
 11
140.6704
 21
215.94621171875
 31
0.0
 0
LINE
 5
232
100
AcDbEntity
 8
Layer8
100
AcDbLine
 39
0.25
 370
106
 10
140.6704
 20
215.94621171875
 30
0.0
 11
140.6704
 21
216.14421171875
 31
0.0
 0
LINE
 5
233
100
AcDbEntity
 8
Layer8
100
AcDbLine
 39
0.25
 370
106
 10
140.6704
 20
216.14421171875
 30
0.0
 11
140.7584
 21
216.44421171875
 31
0.0
 0
LINE
 5
234
100
AcDbEntity
 8
Layer8
100
AcDbLine
 39
0.25
 370
106
 10
140.7584
 20
216.44421171875
 30
0.0
 11
140.7584
 21
216.74421171875
 31
0.0
 0
LINE
 5
235
100
AcDbEntity
 8
Layer8
100
AcDbLine
 39
0.25
 370
106
 10
140.8642
 20
216.74541171875
 30
0.0
 11
140.7582
 21
216.44541171875
 31
0.0
 0
LINE
 5
236
100
AcDbEntity
 8
Layer8
100
AcDbLine
 39
0.25
 370
106
 10
140.7582
 20
216.44541171875
 30
0.0
 11
140.7582
 21
216.14541171875
 31
0.0
 0
LINE
 5
237
100
AcDbEntity
 8
Layer8
100
AcDbLine
 39
0.25
 370
106
 10
140.7582
 20
216.14541171875
 30
0.0
 11
140.6702
 21
215.94741171875
 31
0.0
 0
LINE
 5
238
100
AcDbEntity
 8
Layer8
100
AcDbLine
 39
0.25
 370
106
 10
140.6702
 20
215.94741171875
 30
0.0
 11
140.6702
 21
215.84141171875
 31
0.0
 0
LINE
 5
239
100
AcDbEntity
 8
Layer8
100
AcDbLine
 39
0.25
 370
106
 10
140.8642
 20
216.74541171875
 30
0.0
 11
140.7582
 21
216.74541171875
 31
0.0
 0
LINE
 5
23A
100
AcDbEntity
 8
Layer8
100
AcDbLine
 39
0.25
 370
106
 10
140.7599
 20
217.34811171875
 30
0.0
 11
140.5659
 21
217.13911171875
 31
0.0
 0
LINE
 5
23B
100
AcDbEntity
 8
Layer8
100
AcDbLine
 39
0.25
 370
106
 10
140.6698
 20
217.93751171875
 30
0.0
 11
140.6698
 21
217.84551171875
 31
0.0
 0
LINE
 5
23C
100
AcDbEntity
 8
Layer8
100
AcDbLine
 39
0.25
 370
106
 10
140.6698
 20
217.84551171875
 30
0.0
 11
140.7618
 21
217.63751171875
 31
0.0
 0
LINE
 5
23D
100
AcDbEntity
 8
Layer8
100
AcDbLine
 39
0.25
 370
106
 10
140.7618
 20
217.63751171875
 30
0.0
 11
140.7618
 21
217.34851171875
 31
0.0
 0
ARC
 5
23E
100
AcDbEntity
 8
Layer8
100
AcDbCircle
 39
0.25
 370
106
 10
180.464918333338
 20
216.942611718749
 30
0.0
 40
1.1018901100728
100
AcDbArc
 50
124.828797888165
 51
-91.5246665838403
 0
LINE
 5
23F
100
AcDbEntity
 8
Layer8
100
AcDbLine
 39
0.25
 370
106
 10
180.4357
 20
215.73421171875
 30
0.0
 11
180.4357
 21
215.84021171875
 31
0.0
 0
ARC
 5
240
100
AcDbEntity
 8
Layer8
100
AcDbCircle
 39
0.25
 370
106
 10
180.479629223756
 20
216.942711718761
 30
0.0
 40
1.2092981545992
100
AcDbArc
 50
160.357796418534
 51
-92.0817967831481
 0
LINE
 5
241
100
AcDbEntity
 8
Layer8
100
AcDbLine
 39
0.25
 370
106
 10
179.3407
 20
217.34921171875
 30
0.0
 11
179.8357
 21
217.84721171875
 31
0.0
 0
LINE
 5
242
100
AcDbEntity
 8
Layer8
100
AcDbLine
 39
0.25
 370
106
 10
180.4357
 20
215.84041171875
 30
0.0
 11
179.8357
 21
217.84641171875
 31
0.0
 0
ARC
 5
243
100
AcDbEntity
 8
Layer8
100
AcDbCircle
 39
0.25
 370
106
 10
180.277599999946
 20
216.811518701218
 30
0.0
 40
1.07943621722258
100
AcDbArc
 50
-165.174218169283
 51
-87.2653750312577
 0
ARC
 5
244
100
AcDbEntity
 8
Layer8
100
AcDbCircle
 39
0.25
 370
106
 10
180.334644748853
 20
216.888311718758
 30
0.0
 40
1.15500974568288
100
AcDbArc
 50
90.2353701773929
 51
-162.204223022289
 0
LINE
 5
245
100
AcDbEntity
 8
Layer8
100
AcDbLine
 39
0.25
 370
106
 10
180.4357
 20
215.73421171875
 30
0.0
 11
180.5277
 21
215.73421171875
 31
0.0
 0
LINE
 5
246
100
AcDbEntity
 8
Layer8
100
AcDbLine
 39
0.25
 370
106
 10
180.5277
 20
215.73421171875
 30
0.0
 11
180.5277
 21
215.84021171875
 31
0.0
 0
LINE
 5
247
100
AcDbEntity
 8
Layer8
100
AcDbLine
 39
0.25
 370
106
 10
180.5277
 20
215.84021171875
 30
0.0
 11
180.8277
 21
215.84021171875
 31
0.0
 0
LINE
 5
248
100
AcDbEntity
 8
Layer8
100
AcDbLine
 39
0.25
 370
106
 10
180.8277
 20
215.84021171875
 30
0.0
 11
180.9297
 21
215.94621171875
 31
0.0
 0
LINE
 5
249
100
AcDbEntity
 8
Layer8
100
AcDbLine
 39
0.25
 370
106
 10
181.0358
 20
215.94621171875
 30
0.0
 11
180.9298
 21
215.94621171875
 31
0.0
 0
ARC
 5
24A
100
AcDbEntity
 8
Layer8
100
AcDbCircle
 39
0.25
 370
106
 10
180.465385473125
 20
217.076178363996
 30
0.0
 40
0.97657730840768
100
AcDbArc
 50
9.7351459765081
 51
97.9746539651845
 0
LINE
 5
24B
100
AcDbEntity
 8
Layer8
100
AcDbLine
 39
0.25
 370
106
 10
181.4279
 20
217.24131171875
 30
0.0
 11
181.5309
 21
216.83531171875
 31
0.0
 0
LINE
 5
24C
100
AcDbEntity
 8
Layer8
100
AcDbLine
 39
0.25
 370
106
 10
181.5309
 20
216.83531171875
 30
0.0
 11
181.0369
 21
215.94531171875
 31
0.0
 0
LINE
 5
24D
100
AcDbEntity
 8
Layer8
100
AcDbLine
 39
0.25
 370
106
 10
180.3299
 20
218.04331171875
 30
0.0
 11
180.0299
 21
218.04331171875
 31
0.0
 0
LINE
 5
24E
100
AcDbEntity
 8
Layer8
100
AcDbLine
 39
0.25
 370
106
 10
180.0299
 20
218.04331171875
 30
0.0
 11
179.9379
 21
217.93731171875
 31
0.0
 0
LINE
 5
24F
100
AcDbEntity
 8
Layer8
100
AcDbLine
 39
0.25
 370
106
 10
179.9379
 20
217.93731171875
 30
0.0
 11
179.8359
 21
217.93731171875
 31
0.0
 0
LINE
 5
250
100
AcDbEntity
 8
Layer8
100
AcDbLine
 39
0.25
 370
106
 10
179.8359
 20
217.93731171875
 30
0.0
 11
179.8359
 21
217.84531171875
 31
0.0
 0
ARC
 5
251
100
AcDbEntity
 8
Layer8
100
AcDbCircle
 39
0.25
 370
106
 10
180.426338631188
 20
216.922728967189
 30
0.0
 40
1.01838302330353
100
AcDbArc
 50
-60.2679548251446
 51
53.1278831683029
 0
LINE
 5
252
100
AcDbEntity
 8
Layer8
100
AcDbLine
 39
0.25
 370
106
 10
181.0374
 20
217.73741171875
 30
0.0
 11
180.7374
 21
217.93841171875
 31
0.0
 0
LINE
 5
253
100
AcDbEntity
 8
Layer8
100
AcDbLine
 39
0.25
 370
106
 10
180.7374
 20
217.93841171875
 30
0.0
 11
180.4374
 21
217.93841171875
 31
0.0
 0
LINE
 5
254
100
AcDbEntity
 8
Layer8
100
AcDbLine
 39
0.25
 370
106
 10
180.4357
 20
217.93751171875
 30
0.0
 11
180.3297
 21
218.04351171875
 31
0.0
 0
LINE
 5
255
100
AcDbEntity
 8
Layer8
100
AcDbLine
 39
0.25
 370
106
 10
181.0358
 20
215.94621171875
 30
0.0
 11
180.9298
 21
216.03821171875
 31
0.0
 0
LINE
 5
256
100
AcDbEntity
 8
Layer8
100
AcDbLine
 39
0.25
 370
106
 10
180.9314
 20
215.94621171875
 30
0.0
 11
180.3314
 21
218.04421171875
 31
0.0
 0
LINE
 5
257
100
AcDbEntity
 8
Layer8
100
AcDbLine
 39
0.25
 370
106
 10
180.9314
 20
216.03841171875
 30
0.0
 11
180.4374
 21
217.93841171875
 31
0.0
 0
LINE
 5
258
100
AcDbEntity
 8
Layer8
100
AcDbLine
 39
0.25
 370
106
 10
74.097
 20
219.14501171875
 30
0.0
 11
73.991
 21
219.14501171875
 31
0.0
 0
ARC
 5
259
100
AcDbEntity
 8
Layer8
100
AcDbCircle
 39
0.25
 370
106
 10
74.7333523296941
 20
216.894491297855
 30
0.0
 40
2.33875745907405
100
AcDbArc
 50
105.78866718652
 51
-131.097108950698
 0
LINE
 5
25A
100
AcDbEntity
 8
Layer8
100
AcDbLine
 39
0.25
 370
106
 10
73.196
 20
215.13201171875
 30
0.0
 11
73.691
 21
214.84701171875
 31
0.0
 0
LINE
 5
25B
100
AcDbEntity
 8
Layer8
100
AcDbLine
 39
0.25
 370
106
 10
73.691
 20
214.84701171875
 30
0.0
 11
74.591
 21
214.63801171875
 31
0.0
 0
LINE
 5
25C
100
AcDbEntity
 8
Layer8
100
AcDbLine
 39
0.25
 370
106
 10
74.5928
 20
214.63661171875
 30
0.0
 11
74.4868
 21
214.63661171875
 31
0.0
 0
ARC
 5
25D
100
AcDbEntity
 8
Layer8
100
AcDbCircle
 39
0.25
 370
106
 10
74.6114369447733
 20
216.911190226388
 30
0.0
 40
2.31792878807078
100
AcDbArc
 50
105.481978574837
 51
179.26283637351
 0
LINE
 5
25E
100
AcDbEntity
 8
Layer8
100
AcDbLine
 39
0.25
 370
106
 10
72.2937
 20
216.94101171875
 30
0.0
 11
72.7917
 21
215.53901171875
 31
0.0
 0
LINE
 5
25F
100
AcDbEntity
 8
Layer8
100
AcDbLine
 39
0.25
 370
106
 10
72.7917
 20
215.53901171875
 30
0.0
 11
73.5867
 21
214.84701171875
 31
0.0
 0
LINE
 5
260
100
AcDbEntity
 8
Layer8
100
AcDbLine
 39
0.25
 370
106
 10
73.5867
 20
214.84701171875
 30
0.0
 11
74.4867
 21
214.63801171875
 31
0.0
 0
LINE
 5
261
100
AcDbEntity
 8
Layer8
100
AcDbLine
 39
0.25
 370
106
 10
80.5697
 20
220.74131171875
 30
0.0
 11
74.0967
 21
219.14531171875
 31
0.0
 0
LINE
 5
262
100
AcDbEntity
 8
Layer8
100
AcDbLine
 39
0.25
 370
106
 10
80.5697
 20
220.74131171875
 30
0.0
 11
78.2707
 21
214.54231171875
 31
0.0
 0
LINE
 5
263
100
AcDbEntity
 8
Layer8
100
AcDbLine
 39
0.25
 370
106
 10
74.5928
 20
214.63661171875
 30
0.0
 11
75.5558
 21
214.60361171875
 31
0.0
 0
LINE
 5
264
100
AcDbEntity
 8
Layer8
100
AcDbLine
 39
0.25
 370
106
 10
75.5558
 20
214.60361171875
 30
0.0
 11
76.6358
 21
214.58861171875
 31
0.0
 0
LINE
 5
265
100
AcDbEntity
 8
Layer8
100
AcDbLine
 39
0.25
 370
106
 10
76.6358
 20
214.58861171875
 30
0.0
 11
76.7568
 21
214.57461171875
 31
0.0
 0
LINE
 5
266
100
AcDbEntity
 8
Layer8
100
AcDbLine
 39
0.25
 370
106
 10
76.7568
 20
214.57461171875
 30
0.0
 11
78.2728
 21
214.54461171875
 31
0.0
 0
LINE
 5
267
100
AcDbEntity
 8
Layer8
100
AcDbLine
 39
0.25
 370
106
 10
80.5697
 20
220.74131171875
 30
0.0
 11
80.4637
 21
220.74131171875
 31
0.0
 0
LINE
 5
268
100
AcDbEntity
 8
Layer8
100
AcDbLine
 39
0.25
 370
106
 10
80.4639
 20
220.74131171875
 30
0.0
 11
73.9909
 21
219.14531171875
 31
0.0
 0
LINE
 5
269
100
AcDbEntity
 8
Layer8
100
AcDbLine
 39
0.25
 370
106
 10
78.2719
 20
214.54431171875
 30
0.0
 11
78.1799
 21
214.54431171875
 31
0.0
 0
LINE
 5
26A
100
AcDbEntity
 8
Layer8
100
AcDbLine
 39
0.25
 370
106
 10
74.4873
 20
214.63661171875
 30
0.0
 11
75.5523
 21
214.60361171875
 31
0.0
 0
LINE
 5
26B
100
AcDbEntity
 8
Layer8
100
AcDbLine
 39
0.25
 370
106
 10
75.5523
 20
214.60361171875
 30
0.0
 11
76.6363
 21
214.58861171875
 31
0.0
 0
LINE
 5
26C
100
AcDbEntity
 8
Layer8
100
AcDbLine
 39
0.25
 370
106
 10
76.6363
 20
214.58861171875
 30
0.0
 11
76.7573
 21
214.57461171875
 31
0.0
 0
LINE
 5
26D
100
AcDbEntity
 8
Layer8
100
AcDbLine
 39
0.25
 370
106
 10
76.7573
 20
214.57461171875
 30
0.0
 11
78.1813
 21
214.54461171875
 31
0.0
 0
LINE
 5
26E
100
AcDbEntity
 8
Layer8
100
AcDbLine
 39
0.25
 370
106
 10
80.5697
 20
220.74131171875
 30
0.0
 11
80.6757
 21
220.74131171875
 31
0.0
 0
LINE
 5
26F
100
AcDbEntity
 8
Layer8
100
AcDbLine
 39
0.25
 370
106
 10
80.6757
 20
220.74131171875
 30
0.0
 11
80.7637
 21
220.63531171875
 31
0.0
 0
LINE
 5
270
100
AcDbEntity
 8
Layer8
100
AcDbLine
 39
0.25
 370
106
 10
80.7637
 20
220.63531171875
 30
0.0
 11
80.8697
 21
220.63531171875
 31
0.0
 0
LINE
 5
271
100
AcDbEntity
 8
Layer8
100
AcDbLine
 39
0.25
 370
106
 10
78.5722
 20
214.43811171875
 30
0.0
 11
78.4802
 21
214.43811171875
 31
0.0
 0
LINE
 5
272
100
AcDbEntity
 8
Layer8
100
AcDbLine
 39
0.25
 370
106
 10
78.4802
 20
214.43811171875
 30
0.0
 11
78.4802
 21
214.54411171875
 31
0.0
 0
LINE
 5
273
100
AcDbEntity
 8
Layer8
100
AcDbLine
 39
0.25
 370
106
 10
78.4802
 20
214.54411171875
 30
0.0
 11
78.2722
 21
214.54411171875
 31
0.0
 0
LINE
 5
274
100
AcDbEntity
 8
Layer8
100
AcDbLine
 39
0.25
 370
106
 10
78.5722
 20
214.43811171875
 30
0.0
 11
77.9722
 21
214.43811171875
 31
0.0
 0
LINE
 5
275
100
AcDbEntity
 8
Layer8
100
AcDbLine
 39
0.25
 370
106
 10
77.476
 20
214.54431171875
 30
0.0
 11
77.67
 21
214.54431171875
 31
0.0
 0
LINE
 5
276
100
AcDbEntity
 8
Layer8
100
AcDbLine
 39
0.25
 370
106
 10
77.67
 20
214.54431171875
 30
0.0
 11
77.776
 21
214.43831171875
 31
0.0
 0
LINE
 5
277
100
AcDbEntity
 8
Layer8
100
AcDbLine
 39
0.25
 370
106
 10
77.776
 20
214.43831171875
 30
0.0
 11
77.97
 21
214.43831171875
 31
0.0
 0
LINE
 5
278
100
AcDbEntity
 8
Layer8
100
AcDbLine
 39
0.25
 370
106
 10
77.5807
 20
214.54431171875
 30
0.0
 11
77.4747
 21
214.54431171875
 31
0.0
 0
LINE
 5
279
100
AcDbEntity
 8
Layer8
100
AcDbLine
 39
0.25
 370
106
 10
78.1819
 20
214.54431171875
 30
0.0
 11
77.5819
 21
214.54431171875
 31
0.0
 0
LINE
 5
27A
100
AcDbEntity
 8
Layer8
100
AcDbLine
 39
0.25
 370
106
 10
80.4639
 20
220.74131171875
 30
0.0
 11
79.8639
 21
220.74131171875
 31
0.0
 0
LINE
 5
27B
100
AcDbEntity
 8
Layer8
100
AcDbLine
 39
0.25
 370
106
 10
79.8635
 20
220.74131171875
 30
0.0
 11
79.7715
 21
220.63531171875
 31
0.0
 0
LINE
 5
27C
100
AcDbEntity
 8
Layer8
100
AcDbLine
 39
0.25
 370
106
 10
77.5807
 20
214.63661171875
 30
0.0
 11
77.5807
 21
214.54461171875
 31
0.0
 0
LINE
 5
27D
100
AcDbEntity
 8
Layer8
100
AcDbLine
 39
0.25
 370
106
 10
79.8635
 20
220.74131171875
 30
0.0
 11
74.6825
 21
219.44531171875
 31
0.0
 0
LINE
 5
27E
100
AcDbEntity
 8
Layer8
100
AcDbLine
 39
0.25
 370
106
 10
77.5807
 20
214.54431171875
 30
0.0
 11
76.7567
 21
214.57331171875
 31
0.0
 0
LINE
 5
27F
100
AcDbEntity
 8
Layer8
100
AcDbLine
 39
0.25
 370
106
 10
76.7567
 20
214.57331171875
 30
0.0
 11
76.6357
 21
214.58831171875
 31
0.0
 0
LINE
 5
280
100
AcDbEntity
 8
Layer8
100
AcDbLine
 39
0.25
 370
106
 10
76.6357
 20
214.58831171875
 30
0.0
 11
75.5817
 21
214.63631171875
 31
0.0
 0
LINE
 5
281
100
AcDbEntity
 8
Layer8
100
AcDbLine
 39
0.25
 370
106
 10
72.0994
 20
218.23781171875
 30
0.0
 11
71.6934
 21
217.43981171875
 31
0.0
 0
LINE
 5
282
100
AcDbEntity
 8
Layer8
100
AcDbLine
 39
0.25
 370
106
 10
71.6934
 20
217.43981171875
 30
0.0
 11
71.6934
 21
216.64181171875
 31
0.0
 0
LINE
 5
283
100
AcDbEntity
 8
Layer8
100
AcDbLine
 39
0.25
 370
106
 10
71.6934
 20
216.64181171875
 30
0.0
 11
72.0994
 21
215.53981171875
 31
0.0
 0
LINE
 5
284
100
AcDbEntity
 8
Layer8
100
AcDbLine
 39
0.25
 370
106
 10
79.7734
 20
220.74131171875
 30
0.0
 11
74.5924
 21
219.44531171875
 31
0.0
 0
LINE
 5
285
100
AcDbEntity
 8
Layer8
100
AcDbLine
 39
0.25
 370
106
 10
79.8635
 20
220.74131171875
 30
0.0
 11
79.7715
 21
220.74131171875
 31
0.0
 0
LINE
 5
286
100
AcDbEntity
 8
Layer8
100
AcDbLine
 39
0.25
 370
106
 10
75.5831
 20
214.63661171875
 30
0.0
 11
76.6341
 21
214.58861171875
 31
0.0
 0
LINE
 5
287
100
AcDbEntity
 8
Layer8
100
AcDbLine
 39
0.25
 370
106
 10
76.6341
 20
214.58861171875
 30
0.0
 11
76.7551
 21
214.57461171875
 31
0.0
 0
LINE
 5
288
100
AcDbEntity
 8
Layer8
100
AcDbLine
 39
0.25
 370
106
 10
76.7551
 20
214.57461171875
 30
0.0
 11
77.4761
 21
214.54461171875
 31
0.0
 0
LINE
 5
289
100
AcDbEntity
 8
Layer8
100
AcDbLine
 39
0.25
 370
106
 10
136.8852
 20
214.63661171875
 30
0.0
 11
136.4792
 21
214.63661171875
 31
0.0
 0
LINE
 5
28A
100
AcDbEntity
 8
Layer8
100
AcDbLine
 39
0.25
 370
106
 10
136.585
 20
219.14501171875
 30
0.0
 11
136.885
 21
218.34301171875
 31
0.0
 0
LINE
 5
28B
100
AcDbEntity
 8
Layer8
100
AcDbLine
 39
0.25
 370
106
 10
136.885
 20
218.34301171875
 30
0.0
 11
136.885
 21
215.94501171875
 31
0.0
 0
LINE
 5
28C
100
AcDbEntity
 8
Layer8
100
AcDbLine
 39
0.25
 370
106
 10
136.885
 20
215.94501171875
 30
0.0
 11
136.779
 21
215.13201171875
 31
0.0
 0
LINE
 5
28D
100
AcDbEntity
 8
Layer8
100
AcDbLine
 39
0.25
 370
106
 10
136.779
 20
215.13201171875
 30
0.0
 11
136.479
 21
214.63801171875
 31
0.0
 0
LINE
 5
28E
100
AcDbEntity
 8
Layer8
100
AcDbLine
 39
0.25
 370
106
 10
136.9749
 20
219.14501171875
 30
0.0
 11
136.5829
 21
219.14501171875
 31
0.0
 0
LINE
 5
28F
100
AcDbEntity
 8
Layer8
100
AcDbLine
 39
0.25
 370
106
 10
136.8852
 20
214.63661171875
 30
0.0
 11
137.1712
 21
215.13461171875
 31
0.0
 0
LINE
 5
290
100
AcDbEntity
 8
Layer8
100
AcDbLine
 39
0.25
 370
106
 10
137.1712
 20
215.13461171875
 30
0.0
 11
137.3792
 21
216.44561171875
 31
0.0
 0
LINE
 5
291
100
AcDbEntity
 8
Layer8
100
AcDbLine
 39
0.25
 370
106
 10
137.3792
 20
216.44561171875
 30
0.0
 11
137.2772
 21
218.34561171875
 31
0.0
 0
LINE
 5
292
100
AcDbEntity
 8
Layer8
100
AcDbLine
 39
0.25
 370
106
 10
137.2772
 20
218.34561171875
 30
0.0
 11
136.9772
 21
219.14361171875
 31
0.0
 0
LINE
 5
293
100
AcDbEntity
 8
Layer8
100
AcDbLine
 39
0.25
 370
106
 10
136.585
 20
219.14501171875
 30
0.0
 11
135.19
 21
220.74101171875
 31
0.0
 0
LINE
 5
294
100
AcDbEntity
 8
Layer8
100
AcDbLine
 39
0.25
 370
106
 10
136.4802
 20
214.63661171875
 30
0.0
 11
135.6822
 21
214.54461171875
 31
0.0
 0
LINE
 5
295
100
AcDbEntity
 8
Layer8
100
AcDbLine
 39
0.25
 370
106
 10
135.6836
 20
214.54431171875
 30
0.0
 11
135.1896
 21
220.74231171875
 31
0.0
 0
LINE
 5
296
100
AcDbEntity
 8
Layer8
100
AcDbLine
 39
0.25
 370
106
 10
140.1741
 20
219.14501171875
 30
0.0
 11
139.7681
 21
219.14501171875
 31
0.0
 0
LINE
 5
297
100
AcDbEntity
 8
Layer8
100
AcDbLine
 39
0.25
 370
106
 10
140.1741
 20
219.14501171875
 30
0.0
 11
140.4601
 21
218.34301171875
 31
0.0
 0
LINE
 5
298
100
AcDbEntity
 8
Layer8
100
AcDbLine
 39
0.25
 370
106
 10
140.4601
 20
218.34301171875
 30
0.0
 11
140.5661
 21
216.94101171875
 31
0.0
 0
LINE
 5
299
100
AcDbEntity
 8
Layer8
100
AcDbLine
 39
0.25
 370
106
 10
140.5661
 20
216.94101171875
 30
0.0
 11
140.4601
 21
215.53901171875
 31
0.0
 0
LINE
 5
29A
100
AcDbEntity
 8
Layer8
100
AcDbLine
 39
0.25
 370
106
 10
140.4601
 20
215.53901171875
 30
0.0
 11
140.2661
 21
214.84701171875
 31
0.0
 0
LINE
 5
29B
100
AcDbEntity
 8
Layer8
100
AcDbLine
 39
0.25
 370
106
 10
140.2661
 20
214.84701171875
 30
0.0
 11
140.0681
 21
214.63801171875
 31
0.0
 0
LINE
 5
29C
100
AcDbEntity
 8
Layer8
100
AcDbLine
 39
0.25
 370
106
 10
140.0694
 20
214.63661171875
 30
0.0
 11
139.6634
 21
214.63661171875
 31
0.0
 0
LINE
 5
29D
100
AcDbEntity
 8
Layer8
100
AcDbLine
 39
0.25
 370
106
 10
139.7684
 20
219.14501171875
 30
0.0
 11
139.9624
 21
218.64701171875
 31
0.0
 0
LINE
 5
29E
100
AcDbEntity
 8
Layer8
100
AcDbLine
 39
0.25
 370
106
 10
139.9624
 20
218.64701171875
 30
0.0
 11
140.0684
 21
217.84901171875
 31
0.0
 0
LINE
 5
29F
100
AcDbEntity
 8
Layer8
100
AcDbLine
 39
0.25
 370
106
 10
140.0684
 20
217.84901171875
 30
0.0
 11
140.0684
 21
215.94501171875
 31
0.0
 0
LINE
 5
2A0
100
AcDbEntity
 8
Layer8
100
AcDbLine
 39
0.25
 370
106
 10
140.0684
 20
215.94501171875
 30
0.0
 11
139.8744
 21
214.84701171875
 31
0.0
 0
LINE
 5
2A1
100
AcDbEntity
 8
Layer8
100
AcDbLine
 39
0.25
 370
106
 10
139.8744
 20
214.84701171875
 30
0.0
 11
139.6624
 21
214.63801171875
 31
0.0
 0
LINE
 5
2A2
100
AcDbEntity
 8
Layer8
100
AcDbLine
 39
0.25
 370
106
 10
138.4767
 20
219.44561171875
 30
0.0
 11
138.3707
 21
220.74161171875
 31
0.0
 0
LINE
 5
2A3
100
AcDbEntity
 8
Layer8
100
AcDbLine
 39
0.25
 370
106
 10
139.7684
 20
219.14501171875
 30
0.0
 11
138.3694
 21
220.74101171875
 31
0.0
 0
LINE
 5
2A4
100
AcDbEntity
 8
Layer8
100
AcDbLine
 39
0.25
 370
106
 10
139.6637
 20
214.63661171875
 30
0.0
 11
139.5717
 21
214.63661171875
 31
0.0
 0
LINE
 5
2A5
100
AcDbEntity
 8
Layer8
100
AcDbLine
 39
0.25
 370
106
 10
135.5788
 20
220.74131171875
 30
0.0
 11
135.1868
 21
220.74131171875
 31
0.0
 0
LINE
 5
2A6
100
AcDbEntity
 8
Layer8
100
AcDbLine
 39
0.25
 370
106
 10
136.9749
 20
219.14501171875
 30
0.0
 11
135.5799
 21
220.74101171875
 31
0.0
 0
LINE
 5
2A7
100
AcDbEntity
 8
Layer8
100
AcDbLine
 39
0.25
 370
106
 10
136.0746
 20
214.54431171875
 30
0.0
 11
135.6826
 21
214.54431171875
 31
0.0
 0
LINE
 5
2A8
100
AcDbEntity
 8
Layer8
100
AcDbLine
 39
0.25
 370
106
 10
136.8852
 20
214.63661171875
 30
0.0
 11
136.0762
 21
214.54461171875
 31
0.0
 0
LINE
 5
2A9
100
AcDbEntity
 8
Layer8
100
AcDbLine
 39
0.25
 370
106
 10
138.7766
 20
220.74131171875
 30
0.0
 11
138.3706
 21
220.74131171875
 31
0.0
 0
LINE
 5
2AA
100
AcDbEntity
 8
Layer8
100
AcDbLine
 39
0.25
 370
106
 10
140.1741
 20
219.14501171875
 30
0.0
 11
138.7751
 21
220.74101171875
 31
0.0
 0
LINE
 5
2AB
100
AcDbEntity
 8
Layer8
100
AcDbLine
 39
0.25
 370
106
 10
140.0694
 20
214.63661171875
 30
0.0
 11
139.5754
 21
214.63661171875
 31
0.0
 0
LINE
 5
2AC
100
AcDbEntity
 8
Layer8
100
AcDbLine
 39
0.25
 370
106
 10
137.0807
 20
214.43811171875
 30
0.0
 11
136.0737
 21
214.43811171875
 31
0.0
 0
LINE
 5
2AD
100
AcDbEntity
 8
Layer8
100
AcDbLine
 39
0.25
 370
106
 10
135.6836
 20
214.54431171875
 30
0.0
 11
135.7896
 21
214.43831171875
 31
0.0
 0
LINE
 5
2AE
100
AcDbEntity
 8
Layer8
100
AcDbLine
 39
0.25
 370
106
 10
135.7896
 20
214.43831171875
 30
0.0
 11
136.0756
 21
214.43831171875
 31
0.0
 0
LINE
 5
2AF
100
AcDbEntity
 8
Layer8
100
AcDbLine
 39
0.25
 370
106
 10
136.9749
 20
214.54431171875
 30
0.0
 11
136.0739
 21
214.54431171875
 31
0.0
 0
LINE
 5
2B0
100
AcDbEntity
 8
Layer8
100
AcDbLine
 39
0.25
 370
106
 10
138.3713
 20
220.74131171875
 30
0.0
 11
135.5773
 21
220.74131171875
 31
0.0
 0
ARC
 5
2B1
100
AcDbEntity
 8
Layer8
100
AcDbCircle
 39
0.25
 370
106
 10
180.189560020855
 20
216.894471618774
 30
0.0
 40
2.33880024556505
100
AcDbArc
 50
-61.0961096899584
 51
74.2093977676074
 0
LINE
 5
2B2
100
AcDbEntity
 8
Layer8
100
AcDbLine
 39
0.25
 370
106
 10
181.32
 20
214.84701171875
 30
0.0
 11
180.332
 21
214.63801171875
 31
0.0
 0
LINE
 5
2B3
100
AcDbEntity
 8
Layer8
100
AcDbLine
 39
0.25
 370
106
 10
180.3299
 20
214.63661171875
 30
0.0
 11
176.7419
 21
214.54461171875
 31
0.0
 0
LINE
 5
2B4
100
AcDbEntity
 8
Layer8
100
AcDbLine
 39
0.25
 370
106
 10
174.6535
 20
220.74131171875
 30
0.0
 11
180.8265
 21
219.14531171875
 31
0.0
 0
LINE
 5
2B5
100
AcDbEntity
 8
Layer8
100
AcDbLine
 39
0.25
 370
106
 10
76.4845
 20
213.23061171875
 30
0.0
 11
134.0945
 21
213.23061171875
 31
0.0
 0
LINE
 5
2B6
100
AcDbEntity
 8
Layer8
100
AcDbLine
 39
0.25
 370
106
 10
134.0927
 20
213.64111171875
 30
0.0
 11
76.5887
 21
213.64111171875
 31
0.0
 0
LINE
 5
2B7
100
AcDbEntity
 8
Layer8
100
AcDbLine
 39
0.25
 370
106
 10
134.4819
 20
205.33111171875
 30
0.0
 11
134.0939
 21
213.23211171875
 31
0.0
 0
LINE
 5
2B8
100
AcDbEntity
 8
Layer8
100
AcDbLine
 39
0.25
 370
106
 10
76.7858
 20
205.33111171875
 30
0.0
 11
134.4838
 21
205.33111171875
 31
0.0
 0
LINE
 5
2B9
100
AcDbEntity
 8
Layer8
100
AcDbLine
 39
0.25
 370
106
 10
76.7858
 20
205.33111171875
 30
0.0
 11
76.4858
 21
213.14011171875
 31
0.0
 0
LINE
 5
2BA
100
AcDbEntity
 8
Layer8
100
AcDbLine
 39
0.25
 370
106
 10
77.085
 20
205.13491171875
 30
0.0
 11
76.876
 21
205.13491171875
 31
0.0
 0
LINE
 5
2BB
100
AcDbEntity
 8
Layer8
100
AcDbLine
 39
0.25
 370
106
 10
76.876
 20
205.13491171875
 30
0.0
 11
76.785
 21
205.22691171875
 31
0.0
 0
LINE
 5
2BC
100
AcDbEntity
 8
Layer8
100
AcDbLine
 39
0.25
 370
106
 10
76.785
 20
205.22691171875
 30
0.0
 11
76.785
 21
205.33291171875
 31
0.0
 0
LINE
 5
2BD
100
AcDbEntity
 8
Layer8
100
AcDbLine
 39
0.25
 370
106
 10
134.3919
 20
205.13491171875
 30
0.0
 11
134.4839
 21
205.13491171875
 31
0.0
 0
LINE
 5
2BE
100
AcDbEntity
 8
Layer8
100
AcDbLine
 39
0.25
 370
106
 10
134.4839
 20
205.13491171875
 30
0.0
 11
134.4839
 21
205.33291171875
 31
0.0
 0
LINE
 5
2BF
100
AcDbEntity
 8
Layer8
100
AcDbLine
 39
0.25
 370
106
 10
134.3919
 20
205.13491171875
 30
0.0
 11
77.0859
 21
205.13491171875
 31
0.0
 0
LINE
 5
2C0
100
AcDbEntity
 8
Layer8
100
AcDbLine
 39
0.25
 370
106
 10
137.1704
 20
206.73341171875
 30
0.0
 11
137.1704
 21
207.72941171875
 31
0.0
 0
LINE
 5
2C1
100
AcDbEntity
 8
Layer8
100
AcDbLine
 39
0.25
 370
106
 10
136.585
 20
205.33111171875
 30
0.0
 11
137.171
 21
205.33111171875
 31
0.0
 0
LINE
 5
2C2
100
AcDbEntity
 8
Layer8
100
AcDbLine
 39
0.25
 370
106
 10
137.171
 20
205.33111171875
 30
0.0
 11
137.273
 21
205.43411171875
 31
0.0
 0
LINE
 5
2C3
100
AcDbEntity
 8
Layer8
100
AcDbLine
 39
0.25
 370
106
 10
136.585
 20
205.33111171875
 30
0.0
 11
136.585
 21
205.22511171875
 31
0.0
 0
LINE
 5
2C4
100
AcDbEntity
 8
Layer8
100
AcDbLine
 39
0.25
 370
106
 10
136.585
 20
205.22511171875
 30
0.0
 11
136.677
 21
205.13311171875
 31
0.0
 0
LINE
 5
2C5
100
AcDbEntity
 8
Layer8
100
AcDbLine
 39
0.25
 370
106
 10
136.677
 20
205.13311171875
 30
0.0
 11
136.779
 21
205.13311171875
 31
0.0
 0
LINE
 5
2C6
100
AcDbEntity
 8
Layer8
100
AcDbLine
 39
0.25
 370
106
 10
136.7794
 20
205.13491171875
 30
0.0
 11
135.6844
 21
205.13491171875
 31
0.0
 0
LINE
 5
2C7
100
AcDbEntity
 8
Layer8
100
AcDbLine
 39
0.25
 370
106
 10
136.9749
 20
205.13491171875
 30
0.0
 11
137.1689
 21
205.13491171875
 31
0.0
 0
LINE
 5
2C8
100
AcDbEntity
 8
Layer8
100
AcDbLine
 39
0.25
 370
106
 10
136.7794
 20
205.13491171875
 30
0.0
 11
136.9734
 21
205.13491171875
 31
0.0
 0
ARC
 5
2C9
100
AcDbEntity
 8
Layer8
100
AcDbCircle
 39
0.25
 370
106
 10
142.016873961025
 20
211.245946295086
 30
0.0
 40
5.58242439371807
100
AcDbArc
 50
154.596960976906
 51
-172.659580879581
 0
LINE
 5
2CA
100
AcDbEntity
 8
Layer8
100
AcDbLine
 39
0.25
 370
106
 10
136.7794
 20
207.83511171875
 30
0.0
 11
136.4794
 21
210.53311171875
 31
0.0
 0
LINE
 5
2CB
100
AcDbEntity
 8
Layer8
100
AcDbLine
 39
0.25
 370
106
 10
136.9749
 20
213.64111171875
 30
0.0
 11
134.4819
 21
213.64111171875
 31
0.0
 0
LINE
 5
2CC
100
AcDbEntity
 8
Layer8
100
AcDbLine
 39
0.25
 370
106
 10
139.9639
 20
205.22531171875
 30
0.0
 11
139.9639
 21
205.13331171875
 31
0.0
 0
LINE
 5
2CD
100
AcDbEntity
 8
Layer8
100
AcDbLine
 39
0.25
 370
106
 10
139.9639
 20
205.13331171875
 30
0.0
 11
140.0699
 21
205.13331171875
 31
0.0
 0
LINE
 5
2CE
100
AcDbEntity
 8
Layer8
100
AcDbLine
 39
0.25
 370
106
 10
140.1741
 20
205.13491171875
 30
0.0
 11
140.0681
 21
205.13491171875
 31
0.0
 0
LINE
 5
2CF
100
AcDbEntity
 8
Layer8
100
AcDbLine
 39
0.25
 370
106
 10
136.7794
 20
210.33641171875
 30
0.0
 11
136.7794
 21
210.53441171875
 31
0.0
 0
LINE
 5
2D0
100
AcDbEntity
 8
Layer8
100
AcDbLine
 39
0.25
 370
106
 10
136.7794
 20
210.53441171875
 30
0.0
 11
136.4794
 21
210.53441171875
 31
0.0
 0
LINE
 5
2D1
100
AcDbEntity
 8
Layer8
100
AcDbLine
 39
0.25
 370
106
 10
140.1741
 20
205.13491171875
 30
0.0
 11
140.0681
 21
205.13491171875
 31
0.0
 0
LINE
 5
2D2
100
AcDbEntity
 8
Layer8
100
AcDbLine
 39
0.25
 370
106
 10
139.8728
 20
205.43551171875
 30
0.0
 11
139.9648
 21
205.33251171875
 31
0.0
 0
LINE
 5
2D3
100
AcDbEntity
 8
Layer8
100
AcDbLine
 39
0.25
 370
106
 10
139.9648
 20
205.33251171875
 30
0.0
 11
139.9648
 21
205.13551171875
 31
0.0
 0
LINE
 5
2D4
100
AcDbEntity
 8
Layer8
100
AcDbLine
 39
0.25
 370
106
 10
139.9648
 20
205.13551171875
 30
0.0
 11
140.0708
 21
205.13551171875
 31
0.0
 0
LINE
 5
2D5
100
AcDbEntity
 8
Layer8
100
AcDbLine
 39
0.25
 370
106
 10
140.4593
 20
205.13491171875
 30
0.0
 11
140.5653
 21
205.13491171875
 31
0.0
 0
LINE
 5
2D6
100
AcDbEntity
 8
Layer8
100
AcDbLine
 39
0.25
 370
106
 10
140.5653
 20
205.13491171875
 30
0.0
 11
140.6683
 21
205.22691171875
 31
0.0
 0
LINE
 5
2D7
100
AcDbEntity
 8
Layer8
100
AcDbLine
 39
0.25
 370
106
 10
140.6683
 20
205.22691171875
 30
0.0
 11
140.6683
 21
205.33291171875
 31
0.0
 0
LINE
 5
2D8
100
AcDbEntity
 8
Layer8
100
AcDbLine
 39
0.25
 370
106
 10
140.1741
 20
205.13491171875
 30
0.0
 11
140.4601
 21
205.13491171875
 31
0.0
 0
LINE
 5
2D9
100
AcDbEntity
 8
Layer8
100
AcDbLine
 39
0.25
 370
106
 10
140.6698
 20
205.13491171875
 30
0.0
 11
140.4608
 21
205.13491171875
 31
0.0
 0
LINE
 5
2DA
100
AcDbEntity
 8
Layer8
100
AcDbLine
 39
0.25
 370
106
 10
141.361
 20
213.64111171875
 30
0.0
 11
139.377
 21
213.64111171875
 31
0.0
 0
LINE
 5
2DB
100
AcDbEntity
 8
Layer8
100
AcDbLine
 39
0.25
 370
106
 10
139.8728
 20
205.43551171875
 30
0.0
 11
139.4668
 21
205.43551171875
 31
0.0
 0
LINE
 5
2DC
100
AcDbEntity
 8
Layer8
100
AcDbLine
 39
0.25
 370
106
 10
139.6637
 20
210.33641171875
 30
0.0
 11
139.4697
 21
205.43441171875
 31
0.0
 0
LINE
 5
2DD
100
AcDbEntity
 8
Layer8
100
AcDbLine
 39
0.25
 370
106
 10
139.4682
 20
205.43551171875
 30
0.0
 11
139.4682
 21
205.22651171875
 31
0.0
 0
LINE
 5
2DE
100
AcDbEntity
 8
Layer8
100
AcDbLine
 39
0.25
 370
106
 10
139.9639
 20
205.22531171875
 30
0.0
 11
139.4699
 21
205.22531171875
 31
0.0
 0
LINE
 5
2DF
100
AcDbEntity
 8
Layer8
100
AcDbLine
 39
0.25
 370
106
 10
137.0807
 20
213.64111171875
 30
0.0
 11
136.9747
 21
213.64111171875
 31
0.0
 0
LINE
 5
2E0
100
AcDbEntity
 8
Layer8
100
AcDbLine
 39
0.25
 370
106
 10
139.4682
 20
205.22531171875
 30
0.0
 11
139.3762
 21
205.22531171875
 31
0.0
 0
LINE
 5
2E1
100
AcDbEntity
 8
Layer8
100
AcDbLine
 39
0.25
 370
106
 10
135.5788
 20
205.13491171875
 30
0.0
 11
134.3928
 21
205.13491171875
 31
0.0
 0
LINE
 5
2E2
100
AcDbEntity
 8
Layer8
100
AcDbLine
 39
0.25
 370
106
 10
141.766
 20
213.23061171875
 30
0.0
 11
141.272
 21
205.32961171875
 31
0.0
 0
LINE
 5
2E3
100
AcDbEntity
 8
Layer8
100
AcDbLine
 39
0.25
 370
106
 10
141.2699
 20
205.33111171875
 30
0.0
 11
141.2699
 21
205.13311171875
 31
0.0
 0
LINE
 5
2E4
100
AcDbEntity
 8
Layer8
100
AcDbLine
 39
0.25
 370
106
 10
141.2699
 20
205.13491171875
 30
0.0
 11
140.7609
 21
205.13491171875
 31
0.0
 0
LINE
 5
2E5
100
AcDbEntity
 8
Layer8
100
AcDbLine
 39
0.25
 370
106
 10
179.7298
 20
213.64111171875
 30
0.0
 11
141.7668
 21
213.64111171875
 31
0.0
 0
LINE
 5
2E6
100
AcDbEntity
 8
Layer8
100
AcDbLine
 39
0.25
 370
106
 10
179.0397
 20
205.13491171875
 30
0.0
 11
141.2707
 21
205.13491171875
 31
0.0
 0
LINE
 5
2E7
100
AcDbEntity
 8
Layer8
100
AcDbLine
 39
0.25
 370
106
 10
74.3826
 20
210.53271171875
 30
0.0
 11
73.0026
 21
207.83471171875
 31
0.0
 0
LINE
 5
2E8
100
AcDbEntity
 8
Layer8
100
AcDbLine
 39
0.25
 370
106
 10
75.7786
 20
213.64111171875
 30
0.0
 11
75.5846
 21
212.93111171875
 31
0.0
 0
LINE
 5
2E9
100
AcDbEntity
 8
Layer8
100
AcDbLine
 39
0.25
 370
106
 10
75.5846
 20
212.93111171875
 30
0.0
 11
74.3836
 21
210.53311171875
 31
0.0
 0
LINE
 5
2EA
100
AcDbEntity
 8
Layer8
100
AcDbLine
 39
0.25
 370
106
 10
76.4845
 20
213.64111171875
 30
0.0
 11
75.7775
 21
213.64111171875
 31
0.0
 0
LINE
 5
2EB
100
AcDbEntity
 8
Layer8
100
AcDbLine
 39
0.25
 370
106
 10
75.5831
 20
205.33111171875
 30
0.0
 11
76.7841
 21
205.33111171875
 31
0.0
 0
LINE
 5
2EC
100
AcDbEntity
 8
Layer8
100
AcDbLine
 39
0.25
 370
106
 10
75.5831
 20
205.33111171875
 30
0.0
 11
75.4771
 21
210.03611171875
 31
0.0
 0
LINE
 5
2ED
100
AcDbEntity
 8
Layer8
100
AcDbLine
 39
0.25
 370
106
 10
72.8965
 20
205.33111171875
 30
0.0
 11
75.5835
 21
205.33111171875
 31
0.0
 0
LINE
 5
2EE
100
AcDbEntity
 8
Layer8
100
AcDbLine
 39
0.25
 370
106
 10
72.8965
 20
205.33111171875
 30
0.0
 11
72.7905
 21
206.73311171875
 31
0.0
 0
LINE
 5
2EF
100
AcDbEntity
 8
Layer8
100
AcDbLine
 39
0.25
 370
106
 10
75.4788
 20
205.13491171875
 30
0.0
 11
75.5848
 21
205.13491171875
 31
0.0
 0
LINE
 5
2F0
100
AcDbEntity
 8
Layer8
100
AcDbLine
 39
0.25
 370
106
 10
75.5848
 20
205.13491171875
 30
0.0
 11
75.5848
 21
205.33291171875
 31
0.0
 0
LINE
 5
2F1
100
AcDbEntity
 8
Layer8
100
AcDbLine
 39
0.25
 370
106
 10
77.085
 20
205.13491171875
 30
0.0
 11
75.478
 21
205.13491171875
 31
0.0
 0
LINE
 5
2F2
100
AcDbEntity
 8
Layer8
100
AcDbLine
 39
0.25
 370
106
 10
73.0012
 20
205.13491171875
 30
0.0
 11
72.8952
 21
205.13491171875
 31
0.0
 0
LINE
 5
2F3
100
AcDbEntity
 8
Layer8
100
AcDbLine
 39
0.25
 370
106
 10
72.8952
 20
205.13491171875
 30
0.0
 11
72.8952
 21
205.33291171875
 31
0.0
 0
LINE
 5
2F4
100
AcDbEntity
 8
Layer8
100
AcDbLine
 39
0.25
 370
106
 10
73.0012
 20
205.13491171875
 30
0.0
 11
75.4802
 21
205.13491171875
 31
0.0
 0
LINE
 5
2F5
100
AcDbEntity
 8
Layer8
100
AcDbLine
 39
0.25
 370
106
 10
72.4
 20
205.13491171875
 30
0.0
 11
72.4
 21
205.22691171875
 31
0.0
 0
LINE
 5
2F6
100
AcDbEntity
 8
Layer8
100
AcDbLine
 39
0.25
 370
106
 10
75.6889
 20
213.64111171875
 30
0.0
 11
75.5829
 21
213.64111171875
 31
0.0
 0
LINE
 5
2F7
100
AcDbEntity
 8
Layer8
100
AcDbLine
 39
0.25
 370
106
 10
75.3887
 20
213.64111171875
 30
0.0
 11
75.5827
 21
213.64111171875
 31
0.0
 0
LINE
 5
2F8
100
AcDbEntity
 8
Layer8
100
AcDbLine
 39
0.25
 370
106
 10
72.4
 20
205.43551171875
 30
0.0
 11
72.4
 21
206.73151171875
 31
0.0
 0
LINE
 5
2F9
100
AcDbEntity
 8
Layer8
100
AcDbLine
 39
0.25
 370
106
 10
72.4
 20
206.73341171875
 30
0.0
 11
72.4
 21
207.13941171875
 31
0.0
 0
LINE
 5
2FA
100
AcDbEntity
 8
Layer8
100
AcDbLine
 39
0.25
 370
106
 10
72.4
 20
207.13941171875
 30
0.0
 11
72.7
 21
207.72941171875
 31
0.0
 0
LINE
 5
2FB
100
AcDbEntity
 8
Layer8
100
AcDbLine
 39
0.25
 370
106
 10
72.4
 20
205.43551171875
 30
0.0
 11
72.4
 21
205.13551171875
 31
0.0
 0
LINE
 5
2FC
100
AcDbEntity
 8
Layer8
100
AcDbLine
 39
0.25
 370
106
 10
72.1895
 20
205.13491171875
 30
0.0
 11
72.3985
 21
205.13491171875
 31
0.0
 0
LINE
 5
2FD
100
AcDbEntity
 8
Layer8
100
AcDbLine
 39
0.25
 370
106
 10
72.6999
 20
205.22531171875
 30
0.0
 11
72.3999
 21
205.22531171875
 31
0.0
 0
LINE
 5
2FE
100
AcDbEntity
 8
Layer8
100
AcDbLine
 39
0.25
 370
106
 10
72.0994
 20
207.53261171875
 30
0.0
 11
72.0994
 21
207.63861171875
 31
0.0
 0
LINE
 5
2FF
100
AcDbEntity
 8
Layer8
100
AcDbLine
 39
0.25
 370
106
 10
72.1895
 20
207.83511171875
 30
0.0
 11
72.3985
 21
207.83511171875
 31
0.0
 0
LINE
 5
300
100
AcDbEntity
 8
Layer8
100
AcDbLine
 39
0.25
 370
106
 10
72.3985
 20
207.83511171875
 30
0.0
 11
72.4895
 21
207.72911171875
 31
0.0
 0
LINE
 5
301
100
AcDbEntity
 8
Layer8
100
AcDbLine
 39
0.25
 370
106
 10
72.4895
 20
207.72911171875
 30
0.0
 11
72.6985
 21
207.72911171875
 31
0.0
 0
LINE
 5
302
100
AcDbEntity
 8
Layer8
100
AcDbLine
 39
0.25
 370
106
 10
179.94
 20
210.03581171875
 30
0.0
 11
179.731
 21
205.33081171875
 31
0.0
 0
LINE
 5
303
100
AcDbEntity
 8
Layer8
100
AcDbLine
 39
0.25
 370
106
 10
179.7298
 20
205.33111171875
 30
0.0
 11
179.7298
 21
205.13311171875
 31
0.0
 0
LINE
 5
304
100
AcDbEntity
 8
Layer8
100
AcDbLine
 39
0.25
 370
106
 10
179.7298
 20
205.13491171875
 30
0.0
 11
179.1438
 21
205.13491171875
 31
0.0
 0
LINE
 5
305
100
AcDbEntity
 8
Layer8
100
AcDbLine
 39
0.25
 370
106
 10
182.3275
 20
205.33111171875
 30
0.0
 11
182.3275
 21
206.53611171875
 31
0.0
 0
LINE
 5
306
100
AcDbEntity
 8
Layer8
100
AcDbLine
 39
0.25
 370
106
 10
179.7298
 20
205.33111171875
 30
0.0
 11
182.3288
 21
205.33111171875
 31
0.0
 0
LINE
 5
307
100
AcDbEntity
 8
Layer8
100
AcDbLine
 39
0.25
 370
106
 10
182.1184
 20
205.13491171875
 30
0.0
 11
182.2244
 21
205.13491171875
 31
0.0
 0
LINE
 5
308
100
AcDbEntity
 8
Layer8
100
AcDbLine
 39
0.25
 370
106
 10
182.2244
 20
205.13491171875
 30
0.0
 11
182.3274
 21
205.22691171875
 31
0.0
 0
LINE
 5
309
100
AcDbEntity
 8
Layer8
100
AcDbLine
 39
0.25
 370
106
 10
182.3274
 20
205.22691171875
 30
0.0
 11
182.3274
 21
205.33291171875
 31
0.0
 0
LINE
 5
30A
100
AcDbEntity
 8
Layer8
100
AcDbLine
 39
0.25
 370
106
 10
182.1184
 20
205.13491171875
 30
0.0
 11
179.7314
 21
205.13491171875
 31
0.0
 0
LINE
 5
30B
100
AcDbEntity
 8
Layer8
100
AcDbLine
 39
0.25
 370
106
 10
182.2231
 20
205.13491171875
 30
0.0
 11
182.1171
 21
205.13491171875
 31
0.0
 0
LINE
 5
30C
100
AcDbEntity
 8
Layer8
100
AcDbLine
 39
0.25
 370
106
 10
182.5241
 20
206.42881171875
 30
0.0
 11
182.3261
 21
206.53881171875
 31
0.0
 0
LINE
 5
30D
100
AcDbEntity
 8
Layer8
100
AcDbLine
 39
0.25
 370
106
 10
182.5241
 20
205.33111171875
 30
0.0
 11
182.5241
 21
206.12911171875
 31
0.0
 0
LINE
 5
30E
100
AcDbEntity
 8
Layer8
100
AcDbLine
 39
0.25
 370
106
 10
181.5326
 20
202.93371171875
 30
0.0
 11
181.8326
 21
205.13371171875
 31
0.0
 0
LINE
 5
30F
100
AcDbEntity
 8
Layer8
100
AcDbLine
 39
0.25
 370
106
 10
178.4381
 20
202.93371171875
 30
0.0
 11
181.5321
 21
202.93371171875
 31
0.0
 0
LINE
 5
310
100
AcDbEntity
 8
Layer8
100
AcDbLine
 39
0.25
 370
106
 10
178.1379
 20
205.13491171875
 30
0.0
 11
178.4379
 21
202.93491171875
 31
0.0
 0
ARC
 5
311
100
AcDbEntity
 8
Layer8
100
AcDbCircle
 39
0.25
 370
106
 10
175.885238797498
 20
201.241869631398
 30
0.0
 40
1.64970538395849
100
AcDbArc
 50
128.912709233225
 51
-158.061141629458
 0
LINE
 5
312
100
AcDbEntity
 8
Layer8
100
AcDbLine
 39
0.25
 370
106
 10
174.355
 20
200.62551171875
 30
0.0
 11
175.149
 21
199.72051171875
 31
0.0
 0
LINE
 5
313
100
AcDbEntity
 8
Layer8
100
AcDbLine
 39
0.25
 370
106
 10
175.149
 20
199.72051171875
 30
0.0
 11
175.944
 21
199.52351171875
 31
0.0
 0
LINE
 5
314
100
AcDbEntity
 8
Layer8
100
AcDbLine
 39
0.25
 370
106
 10
175.0445
 20
202.52551171875
 30
0.0
 11
174.8505
 21
202.52551171875
 31
0.0
 0
ARC
 5
315
100
AcDbEntity
 8
Layer8
100
AcDbCircle
 39
0.25
 370
106
 10
175.804038802761
 20
201.643964983625
 30
0.0
 40
2.14775092167017
100
AcDbArc
 50
-80.9735584653495
 51
-25.1612476511531
 0
ARC
 5
316
100
AcDbEntity
 8
Layer8
100
AcDbCircle
 39
0.25
 370
106
 10
176.23378730865
 20
201.317167133768
 30
0.0
 40
1.79675286003454
100
AcDbArc
 50
159.758232928063
 51
-92.960166152329
 0
LINE
 5
317
100
AcDbEntity
 8
Layer8
100
AcDbLine
 39
0.25
 370
106
 10
174.548
 20
201.93881171875
 30
0.0
 11
175.046
 21
202.52481171875
 31
0.0
 0
LINE
 5
318
100
AcDbEntity
 8
Layer8
100
AcDbLine
 39
0.25
 370
106
 10
178.4381
 20
202.93371171875
 30
0.0
 11
177.7461
 21
200.72971171875
 31
0.0
 0
LINE
 5
319
100
AcDbEntity
 8
Layer8
100
AcDbLine
 39
0.25
 370
106
 10
178.0324
 20
205.13491171875
 30
0.0
 11
175.0444
 21
202.52491171875
 31
0.0
 0
LINE
 5
31A
100
AcDbEntity
 8
Layer8
100
AcDbLine
 39
0.25
 370
106
 10
177.748
 20
205.13491171875
 30
0.0
 11
174.848
 21
202.52491171875
 31
0.0
 0
LINE
 5
31B
100
AcDbEntity
 8
Layer8
100
AcDbLine
 39
0.25
 370
106
 10
184.9116
 20
202.52551171875
 30
0.0
 11
182.0266
 21
205.13551171875
 31
0.0
 0
ARC
 5
31C
100
AcDbEntity
 8
Layer8
100
AcDbCircle
 39
0.25
 370
106
 10
183.78456851833
 20
201.205406706029
 30
0.0
 40
1.73576415600934
100
AcDbArc
 50
-19.5169845979089
 51
49.5111623786491
 0
ARC
 5
31D
100
AcDbEntity
 8
Layer8
100
AcDbCircle
 39
0.25
 370
106
 10
183.926231949087
 20
201.513280089578
 30
0.0
 40
1.91930919777053
100
AcDbArc
 50
-141.767648851434
 51
-69.0783481954334
 0
LINE
 5
31E
100
AcDbEntity
 8
Layer8
100
AcDbLine
 39
0.25
 370
106
 10
185.4206
 20
200.62551171875
 30
0.0
 11
184.6116
 21
199.72051171875
 31
0.0
 0
LINE
 5
31F
100
AcDbEntity
 8
Layer8
100
AcDbLine
 39
0.25
 370
106
 10
182.4186
 20
200.32551171875
 30
0.0
 11
182.3266
 21
200.73151171875
 31
0.0
 0
LINE
 5
320
100
AcDbEntity
 8
Layer8
100
AcDbLine
 39
0.25
 370
106
 10
182.3275
 20
200.73081171875
 30
0.0
 11
181.5335
 21
202.93481171875
 31
0.0
 0
LINE
 5
321
100
AcDbEntity
 8
Layer8
100
AcDbLine
 39
0.25
 370
106
 10
182.0276
 20
200.73081171875
 30
0.0
 11
181.3206
 21
202.93481171875
 31
0.0
 0
LINE
 5
322
100
AcDbEntity
 8
Layer8
100
AcDbLine
 39
0.25
 370
106
 10
182.3275
 20
200.73081171875
 30
0.0
 11
182.0275
 21
200.73081171875
 31
0.0
 0
ARC
 5
323
100
AcDbEntity
 8
Layer8
100
AcDbCircle
 39
0.25
 370
106
 10
183.988978383091
 20
201.662946871284
 30
0.0
 40
2.17160795362493
100
AcDbArc
 50
-154.580832457617
 51
-99.7665354348843
 0
LINE
 5
324
100
AcDbEntity
 8
Layer8
100
AcDbLine
 39
0.25
 370
106
 10
75.9892
 20
202.82791171875
 30
0.0
 11
76.2892
 21
205.02791171875
 31
0.0
 0
LINE
 5
325
100
AcDbEntity
 8
Layer8
100
AcDbLine
 39
0.25
 370
106
 10
72.8965
 20
202.82791171875
 30
0.0
 11
75.9905
 21
202.82791171875
 31
0.0
 0
LINE
 5
326
100
AcDbEntity
 8
Layer8
100
AcDbLine
 39
0.25
 370
106
 10
72.5956
 20
205.02871171875
 30
0.0
 11
72.5956
 21
204.42471171875
 31
0.0
 0
LINE
 5
327
100
AcDbEntity
 8
Layer8
100
AcDbLine
 39
0.25
 370
106
 10
72.5956
 20
204.42471171875
 30
0.0
 11
72.8956
 21
202.82871171875
 31
0.0
 0
LINE
 5
328
100
AcDbEntity
 8
Layer8
100
AcDbLine
 39
0.25
 370
106
 10
72.2942
 20
205.02871171875
 30
0.0
 11
72.5942
 21
205.02871171875
 31
0.0
 0
LINE
 5
329
100
AcDbEntity
 8
Layer8
100
AcDbLine
 39
0.25
 370
106
 10
72.2942
 20
205.13491171875
 30
0.0
 11
72.7922
 21
205.13491171875
 31
0.0
 0
LINE
 5
32A
100
AcDbEntity
 8
Layer8
100
AcDbLine
 39
0.25
 370
106
 10
72.7911
 20
202.82791171875
 30
0.0
 11
72.0991
 21
200.62391171875
 31
0.0
 0
ARC
 5
32B
100
AcDbEntity
 8
Layer8
100
AcDbCircle
 39
0.25
 370
106
 10
70.6547576951354
 20
201.139282548626
 30
0.0
 40
1.76226095807235
100
AcDbArc
 50
145.674445024424
 51
-104.739329825246
 0
LINE
 5
32C
100
AcDbEntity
 8
Layer8
100
AcDbLine
 39
0.25
 370
106
 10
72.0994
 20
200.62501171875
 30
0.0
 11
71.3924
 21
199.62901171875
 31
0.0
 0
LINE
 5
32D
100
AcDbEntity
 8
Layer8
100
AcDbLine
 39
0.25
 370
106
 10
71.3924
 20
199.62901171875
 30
0.0
 11
70.2064
 21
199.43501171875
 31
0.0
 0
LINE
 5
32E
100
AcDbEntity
 8
Layer8
100
AcDbLine
 39
0.25
 370
106
 10
69.1994
 20
202.13301171875
 30
0.0
 11
69.5034
 21
202.43701171875
 31
0.0
 0
LINE
 5
32F
100
AcDbEntity
 8
Layer8
100
AcDbLine
 39
0.25
 370
106
 10
72.5956
 20
205.02871171875
 30
0.0
 11
69.5016
 21
202.43671171875
 31
0.0
 0
LINE
 5
330
100
AcDbEntity
 8
Layer8
100
AcDbLine
 39
0.25
 370
106
 10
72.8965
 20
202.82791171875
 30
0.0
 11
72.7905
 21
202.82791171875
 31
0.0
 0
ARC
 5
331
100
AcDbEntity
 8
Layer8
100
AcDbCircle
 39
0.25
 370
106
 10
70.2760866691326
 20
201.107932541998
 30
0.0
 40
1.67336040930398
100
AcDbArc
 50
-159.894374170238
 51
-89.2599400181551
 0
LINE
 5
332
100
AcDbEntity
 8
Layer8
100
AcDbLine
 39
0.25
 370
106
 10
68.7047
 20
200.53271171875
 30
0.0
 11
68.7047
 21
201.33471171875
 31
0.0
 0
LINE
 5
333
100
AcDbEntity
 8
Layer8
100
AcDbLine
 39
0.25
 370
106
 10
68.7047
 20
201.33471171875
 30
0.0
 11
69.1997
 21
202.43671171875
 31
0.0
 0
LINE
 5
334
100
AcDbEntity
 8
Layer8
100
AcDbLine
 39
0.25
 370
106
 10
69.5022
 20
202.43691171875
 30
0.0
 11
69.2022
 21
202.43691171875
 31
0.0
 0
LINE
 5
335
100
AcDbEntity
 8
Layer8
100
AcDbLine
 39
0.25
 370
106
 10
72.2942
 20
205.02871171875
 30
0.0
 11
69.2002
 21
202.43671171875
 31
0.0
 0
LINE
 5
336
100
AcDbEntity
 8
Layer8
100
AcDbLine
 39
0.25
 370
106
 10
79.3681
 20
202.43691171875
 30
0.0
 11
76.2891
 21
205.02891171875
 31
0.0
 0
ARC
 5
337
100
AcDbEntity
 8
Layer8
100
AcDbCircle
 39
0.25
 370
106
 10
78.1718225433526
 20
201.13191171875
 30
0.0
 40
1.77034029307453
100
AcDbArc
 50
-73.4502516593104
 51
47.4888978761573
 0
LINE
 5
338
100
AcDbEntity
 8
Layer8
100
AcDbLine
 39
0.25
 370
106
 10
78.6761
 20
199.43491171875
 30
0.0
 11
77.4751
 21
199.62891171875
 31
0.0
 0
LINE
 5
339
100
AcDbEntity
 8
Layer8
100
AcDbLine
 39
0.25
 370
106
 10
77.4751
 20
199.62891171875
 30
0.0
 11
76.8751
 21
200.23291171875
 31
0.0
 0
LINE
 5
33A
100
AcDbEntity
 8
Layer8
100
AcDbLine
 39
0.25
 370
106
 10
76.8751
 20
200.23291171875
 30
0.0
 11
76.6811
 21
200.62491171875
 31
0.0
 0
LINE
 5
33B
100
AcDbEntity
 8
Layer8
100
AcDbLine
 39
0.25
 370
106
 10
76.68
 20
200.62501171875
 30
0.0
 11
75.988
 21
202.82901171875
 31
0.0
 0
LINE
 5
33C
100
AcDbEntity
 8
Layer8
100
AcDbLine
 39
0.25
 370
106
 10
76.4845
 20
200.62501171875
 30
0.0
 11
75.7775
 21
202.82901171875
 31
0.0
 0
LINE
 5
33D
100
AcDbEntity
 8
Layer8
100
AcDbLine
 39
0.25
 370
106
 10
76.68
 20
200.62501171875
 30
0.0
 11
76.486
 21
200.62501171875
 31
0.0
 0
ARC
 5
33E
100
AcDbEntity
 8
Layer8
100
AcDbCircle
 39
0.25
 370
106
 10
78.0239999999482
 20
201.024632727087
 30
0.0
 40
1.59052104674699
100
AcDbArc
 50
-165.44841033685
 51
-88.0723910932522
 0
LINE
 5
33F
100
AcDbEntity
 8
Layer8
100
AcDbLine
 39
0.25
 370
106
 10
117.5432
 20
202.43691171875
 30
0.0
 11
117.6492
 21
200.53291171875
 31
0.0
 0
LINE
 5
340
100
AcDbEntity
 8
Layer8
100
AcDbLine
 39
0.25
 370
106
 10
117.6492
 20
200.53291171875
 30
0.0
 11
117.5432
 21
199.82691171875
 31
0.0
 0
LINE
 5
341
100
AcDbEntity
 8
Layer8
100
AcDbLine
 39
0.25
 370
106
 10
117.5432
 20
199.82691171875
 30
0.0
 11
117.3452
 21
199.43491171875
 31
0.0
 0
LINE
 5
342
100
AcDbEntity
 8
Layer8
100
AcDbLine
 39
0.25
 370
106
 10
116.4474
 20
202.43691171875
 30
0.0
 11
116.5534
 21
200.53291171875
 31
0.0
 0
LINE
 5
343
100
AcDbEntity
 8
Layer8
100
AcDbLine
 39
0.25
 370
106
 10
116.5534
 20
200.53291171875
 30
0.0
 11
116.4474
 21
199.82691171875
 31
0.0
 0
LINE
 5
344
100
AcDbEntity
 8
Layer8
100
AcDbLine
 39
0.25
 370
106
 10
116.4474
 20
199.82691171875
 30
0.0
 11
116.2494
 21
199.43491171875
 31
0.0
 0
LINE
 5
345
100
AcDbEntity
 8
Layer8
100
AcDbLine
 39
0.25
 370
106
 10
116.2494
 20
199.43491171875
 30
0.0
 11
116.1474
 21
199.43491171875
 31
0.0
 0
LINE
 5
346
100
AcDbEntity
 8
Layer8
100
AcDbLine
 39
0.25
 370
106
 10
116.1474
 20
199.43491171875
 30
0.0
 11
115.8434
 21
200.62491171875
 31
0.0
 0
LINE
 5
347
100
AcDbEntity
 8
Layer8
100
AcDbLine
 39
0.25
 370
106
 10
117.5432
 20
202.43691171875
 30
0.0
 11
116.4482
 21
202.43691171875
 31
0.0
 0
LINE
 5
348
100
AcDbEntity
 8
Layer8
100
AcDbLine
 39
0.25
 370
106
 10
116.4474
 20
202.43691171875
 30
0.0
 11
115.7554
 21
205.02891171875
 31
0.0
 0
LINE
 5
349
100
AcDbEntity
 8
Layer8
100
AcDbLine
 39
0.25
 370
106
 10
115.755
 20
202.82791171875
 30
0.0
 11
115.817
 21
201.52791171875
 31
0.0
 0
LINE
 5
34A
100
AcDbEntity
 8
Layer8
100
AcDbLine
 39
0.25
 370
106
 10
115.817
 20
201.52791171875
 30
0.0
 11
115.817
 21
201.33391171875
 31
0.0
 0
LINE
 5
34B
100
AcDbEntity
 8
Layer8
100
AcDbLine
 39
0.25
 370
106
 10
115.817
 20
201.33391171875
 30
0.0
 11
115.847
 21
200.62391171875
 31
0.0
 0
LINE
 5
34C
100
AcDbEntity
 8
Layer8
100
AcDbLine
 39
0.25
 370
106
 10
115.755
 20
205.02871171875
 30
0.0
 11
115.755
 21
202.82871171875
 31
0.0
 0
LINE
 5
34D
100
AcDbEntity
 8
Layer8
100
AcDbLine
 39
0.25
 370
106
 10
115.755
 20
205.02871171875
 30
0.0
 11
116.853
 21
205.02871171875
 31
0.0
 0
LINE
 5
34E
100
AcDbEntity
 8
Layer8
100
AcDbLine
 39
0.25
 370
106
 10
116.8519
 20
205.02871171875
 30
0.0
 11
117.5439
 21
202.43671171875
 31
0.0
 0
LINE
 5
34F
100
AcDbEntity
 8
Layer8
100
AcDbLine
 39
0.25
 370
106
 10
117.4377
 20
202.82791171875
 30
0.0
 11
117.6467
 21
202.82791171875
 31
0.0
 0
LINE
 5
350
100
AcDbEntity
 8
Layer8
100
AcDbLine
 39
0.25
 370
106
 10
114.2532
 20
202.82791171875
 30
0.0
 11
115.7542
 21
202.82791171875
 31
0.0
 0
LINE
 5
351
100
AcDbEntity
 8
Layer8
100
AcDbLine
 39
0.25
 370
106
 10
114.9591
 20
201.33531171875
 30
0.0
 11
114.8531
 21
200.62531171875
 31
0.0
 0
ARC
 5
352
100
AcDbEntity
 8
Layer8
100
AcDbCircle
 39
0.25
 370
106
 10
121.986761855664
 20
201.333011718749
 30
0.0
 40
7.77333779915796
100
AcDbArc
 50
174.09289453415
 51
-165.867332156109
 0
LINE
 5
353
100
AcDbEntity
 8
Layer8
100
AcDbLine
 39
0.25
 370
106
 10
114.8547
 20
200.62501171875
 30
0.0
 11
114.7487
 21
199.62901171875
 31
0.0
 0
LINE
 5
354
100
AcDbEntity
 8
Layer8
100
AcDbLine
 39
0.25
 370
106
 10
114.7487
 20
199.62901171875
 30
0.0
 11
114.4487
 21
199.43501171875
 31
0.0
 0
LINE
 5
355
100
AcDbEntity
 8
Layer8
100
AcDbLine
 39
0.25
 370
106
 10
114.2547
 20
202.13301171875
 30
0.0
 11
114.3607
 21
202.43701171875
 31
0.0
 0
LINE
 5
356
100
AcDbEntity
 8
Layer8
100
AcDbLine
 39
0.25
 370
106
 10
114.4487
 20
202.82791171875
 30
0.0
 11
114.3567
 21
202.43591171875
 31
0.0
 0
LINE
 5
357
100
AcDbEntity
 8
Layer8
100
AcDbLine
 39
0.25
 370
106
 10
115.9505
 20
200.01981171875
 30
0.0
 11
115.9505
 21
199.93181171875
 31
0.0
 0
LINE
 5
358
100
AcDbEntity
 8
Layer8
100
AcDbLine
 39
0.25
 370
106
 10
115.9505
 20
199.93181171875
 30
0.0
 11
115.8445
 21
199.62781171875
 31
0.0
 0
LINE
 5
359
100
AcDbEntity
 8
Layer8
100
AcDbLine
 39
0.25
 370
106
 10
115.8445
 20
199.62781171875
 30
0.0
 11
115.6505
 21
199.43381171875
 31
0.0
 0
LINE
 5
35A
100
AcDbEntity
 8
Layer8
100
AcDbLine
 39
0.25
 370
106
 10
138.7766
 20
202.43691171875
 30
0.0
 11
138.0696
 21
205.02891171875
 31
0.0
 0
LINE
 5
35B
100
AcDbEntity
 8
Layer8
100
AcDbLine
 39
0.25
 370
106
 10
138.7766
 20
202.43691171875
 30
0.0
 11
138.8686
 21
200.92891171875
 31
0.0
 0
LINE
 5
35C
100
AcDbEntity
 8
Layer8
100
AcDbLine
 39
0.25
 370
106
 10
138.8686
 20
200.92891171875
 30
0.0
 11
138.7766
 21
199.82691171875
 31
0.0
 0
LINE
 5
35D
100
AcDbEntity
 8
Layer8
100
AcDbLine
 39
0.25
 370
106
 10
138.7766
 20
199.82691171875
 30
0.0
 11
138.5676
 21
199.43491171875
 31
0.0
 0
LINE
 5
35E
100
AcDbEntity
 8
Layer8
100
AcDbLine
 39
0.25
 370
106
 10
138.5676
 20
199.43491171875
 30
0.0
 11
138.3706
 21
199.52291171875
 31
0.0
 0
LINE
 5
35F
100
AcDbEntity
 8
Layer8
100
AcDbLine
 39
0.25
 370
106
 10
138.3706
 20
199.52291171875
 30
0.0
 11
138.1766
 21
200.62491171875
 31
0.0
 0
LINE
 5
360
100
AcDbEntity
 8
Layer8
100
AcDbLine
 39
0.25
 370
106
 10
138.0718
 20
202.82791171875
 30
0.0
 11
138.1778
 21
200.62391171875
 31
0.0
 0
LINE
 5
361
100
AcDbEntity
 8
Layer8
100
AcDbLine
 39
0.25
 370
106
 10
138.0718
 20
205.02871171875
 30
0.0
 11
138.0718
 21
202.82871171875
 31
0.0
 0
LINE
 5
362
100
AcDbEntity
 8
Layer8
100
AcDbLine
 39
0.25
 370
106
 10
139.8728
 20
202.43691171875
 30
0.0
 11
139.9648
 21
200.53291171875
 31
0.0
 0
LINE
 5
363
100
AcDbEntity
 8
Layer8
100
AcDbLine
 39
0.25
 370
106
 10
139.9648
 20
200.53291171875
 30
0.0
 11
139.8728
 21
199.82691171875
 31
0.0
 0
LINE
 5
364
100
AcDbEntity
 8
Layer8
100
AcDbLine
 39
0.25
 370
106
 10
139.8728
 20
199.82691171875
 30
0.0
 11
139.5728
 21
199.43491171875
 31
0.0
 0
LINE
 5
365
100
AcDbEntity
 8
Layer8
100
AcDbLine
 39
0.25
 370
106
 10
139.8728
 20
202.43691171875
 30
0.0
 11
138.7778
 21
202.43691171875
 31
0.0
 0
LINE
 5
366
100
AcDbEntity
 8
Layer8
100
AcDbLine
 39
0.25
 370
106
 10
138.0718
 20
205.02871171875
 30
0.0
 11
139.1668
 21
205.02871171875
 31
0.0
 0
LINE
 5
367
100
AcDbEntity
 8
Layer8
100
AcDbLine
 39
0.25
 370
106
 10
139.168
 20
205.02871171875
 30
0.0
 11
139.875
 21
202.43671171875
 31
0.0
 0
LINE
 5
368
100
AcDbEntity
 8
Layer8
100
AcDbLine
 39
0.25
 370
106
 10
139.7684
 20
202.82791171875
 30
0.0
 11
139.9624
 21
202.82791171875
 31
0.0
 0
LINE
 5
369
100
AcDbEntity
 8
Layer8
100
AcDbLine
 39
0.25
 370
106
 10
136.585
 20
202.82791171875
 30
0.0
 11
138.071
 21
202.82791171875
 31
0.0
 0
LINE
 5
36A
100
AcDbEntity
 8
Layer8
100
AcDbLine
 39
0.25
 370
106
 10
137.0807
 20
205.13491171875
 30
0.0
 11
140.1747
 21
205.13491171875
 31
0.0
 0
LINE
 5
36B
100
AcDbEntity
 8
Layer8
100
AcDbLine
 39
0.25
 370
106
 10
137.2751
 20
201.33531171875
 30
0.0
 11
137.1691
 21
200.62531171875
 31
0.0
 0
LINE
 5
36C
100
AcDbEntity
 8
Layer8
100
AcDbLine
 39
0.25
 370
106
 10
137.1704
 20
200.62501171875
 30
0.0
 11
137.0784
 21
199.62901171875
 31
0.0
 0
LINE
 5
36D
100
AcDbEntity
 8
Layer8
100
AcDbLine
 39
0.25
 370
106
 10
137.0784
 20
199.62901171875
 30
0.0
 11
136.7784
 21
199.43501171875
 31
0.0
 0
LINE
 5
36E
100
AcDbEntity
 8
Layer8
100
AcDbLine
 39
0.25
 370
106
 10
136.7784
 20
199.43501171875
 30
0.0
 11
136.6764
 21
199.62901171875
 31
0.0
 0
LINE
 5
36F
100
AcDbEntity
 8
Layer8
100
AcDbLine
 39
0.25
 370
106
 10
136.6764
 20
199.62901171875
 30
0.0
 11
136.4784
 21
200.92901171875
 31
0.0
 0
LINE
 5
370
100
AcDbEntity
 8
Layer8
100
AcDbLine
 39
0.25
 370
106
 10
136.4784
 20
200.92901171875
 30
0.0
 11
136.6764
 21
202.43701171875
 31
0.0
 0
LINE
 5
371
100
AcDbEntity
 8
Layer8
100
AcDbLine
 39
0.25
 370
106
 10
136.7794
 20
202.82791171875
 30
0.0
 11
136.6734
 21
202.43591171875
 31
0.0
 0
LINE
 5
372
100
AcDbEntity
 8
Layer8
100
AcDbLine
 39
0.25
 370
106
 10
138.2666
 20
200.01981171875
 30
0.0
 11
138.1746
 21
199.93181171875
 31
0.0
 0
LINE
 5
373
100
AcDbEntity
 8
Layer8
100
AcDbLine
 39
0.25
 370
106
 10
138.1746
 20
199.93181171875
 30
0.0
 11
138.1746
 21
199.62781171875
 31
0.0
 0
LINE
 5
374
100
AcDbEntity
 8
Layer8
100
AcDbLine
 39
0.25
 370
106
 10
138.1746
 20
199.62781171875
 30
0.0
 11
137.9666
 21
199.43381171875
 31
0.0
 0
LINE
 5
375
100
AcDbEntity
 8
Layer8
100
AcDbLine
 39
0.25
 370
106
 10
72.6999
 20
214.93711171875
 30
0.0
 11
73.4979
 21
214.93711171875
 31
0.0
 0
LINE
 5
376
100
AcDbEntity
 8
Layer8
100
AcDbLine
 39
0.25
 370
106
 10
73.0913
 20
214.03171171875
 30
0.0
 11
75.3903
 21
214.03171171875
 31
0.0
 0
LINE
 5
377
100
AcDbEntity
 8
Layer8
100
AcDbLine
 39
0.25
 370
106
 10
137.0807
 20
214.93711171875
 30
0.0
 11
139.7677
 21
214.93711171875
 31
0.0
 0
LINE
 5
378
100
AcDbEntity
 8
Layer8
100
AcDbLine
 39
0.25
 370
106
 10
138.4767
 20
214.03171171875
 30
0.0
 11
139.3777
 21
214.03171171875
 31
0.0
 0
LINE
 5
379
100
AcDbEntity
 8
Layer8
100
AcDbLine
 39
0.25
 370
106
 10
137.0807
 20
214.03171171875
 30
0.0
 11
138.4757
 21
214.03171171875
 31
0.0
 0
LINE
 5
37A
100
AcDbEntity
 8
Layer8
100
AcDbLine
 39
0.25
 370
106
 10
181.3214
 20
214.93711171875
 30
0.0
 11
181.5334
 21
214.93711171875
 31
0.0
 0
LINE
 5
37B
100
AcDbEntity
 8
Layer8
100
AcDbLine
 39
0.25
 370
106
 10
178.8441
 20
214.03171171875
 30
0.0
 11
181.0371
 21
214.03171171875
 31
0.0
 0
LINE
 5
37C
100
AcDbEntity
 8
Layer8
100
AcDbLine
 39
0.25
 370
106
 10
111.5666
 20
465.72401171875
 30
0.0
 11
142.6506
 21
465.72401171875
 31
0.0
 0
LINE
 5
37D
100
AcDbEntity
 8
Layer8
100
AcDbLine
 39
0.25
 370
106
 10
176.7419
 20
214.54431171875
 30
0.0
 11
176.6499
 21
214.73831171875
 31
0.0
 0
LINE
 5
37E
100
AcDbEntity
 8
Layer8
100
AcDbLine
 39
0.25
 370
106
 10
137.1704
 20
207.72891171875
 30
0.0
 11
137.0784
 21
207.72891171875
 31
0.0
 0
LINE
 5
37F
100
AcDbEntity
 8
Layer8
100
AcDbLine
 39
0.25
 370
106
 10
137.0784
 20
207.72891171875
 30
0.0
 11
137.0784
 21
207.83491171875
 31
0.0
 0
LINE
 5
380
100
AcDbEntity
 8
Layer8
100
AcDbLine
 39
0.25
 370
106
 10
137.0784
 20
207.83491171875
 30
0.0
 11
136.7784
 21
207.83491171875
 31
0.0
 0
LINE
 5
381
100
AcDbEntity
 8
Layer8
100
AcDbLine
 39
0.25
 370
106
 10
136.585
 20
206.73341171875
 30
0.0
 11
137.171
 21
206.73341171875
 31
0.0
 0
LINE
 5
382
100
AcDbEntity
 8
Layer8
100
AcDbLine
 39
0.25
 370
106
 10
141.0597
 20
210.14201171875
 30
0.0
 11
141.0597
 21
210.23401171875
 31
0.0
 0
LINE
 5
383
100
AcDbEntity
 8
Layer8
100
AcDbLine
 39
0.25
 370
106
 10
140.6698
 20
205.33111171875
 30
0.0
 11
141.0618
 21
205.33111171875
 31
0.0
 0
LINE
 5
384
100
AcDbEntity
 8
Layer8
100
AcDbLine
 39
0.25
 370
106
 10
136.7794
 20
210.93941171875
 30
0.0
 11
136.8854
 21
212.53941171875
 31
0.0
 0
LINE
 5
385
100
AcDbEntity
 8
Layer8
100
AcDbLine
 39
0.25
 370
106
 10
136.8854
 20
212.53941171875
 30
0.0
 11
137.0794
 21
213.23141171875
 31
0.0
 0
LINE
 5
386
100
AcDbEntity
 8
Layer8
100
AcDbLine
 39
0.25
 370
106
 10
134.4819
 20
205.33111171875
 30
0.0
 11
135.3829
 21
205.33111171875
 31
0.0
 0
LINE
 5
387
100
AcDbEntity
 8
Layer8
100
AcDbLine
 39
0.25
 370
106
 10
139.4682
 20
205.43551171875
 30
0.0
 11
139.3762
 21
205.43551171875
 31
0.0
 0
LINE
 5
388
100
AcDbEntity
 8
Layer8
100
AcDbLine
 39
0.25
 370
106
 10
141.0597
 20
205.33111171875
 30
0.0
 11
141.2687
 21
205.33111171875
 31
0.0
 0
LINE
 5
389
100
AcDbEntity
 8
Layer8
100
AcDbLine
 39
0.25
 370
106
 10
141.766
 20
213.23061171875
 30
0.0
 11
179.729
 21
213.23061171875
 31
0.0
 0
LINE
 5
38A
100
AcDbEntity
 8
Layer8
100
AcDbLine
 39
0.25
 370
106
 10
141.2699
 20
205.33111171875
 30
0.0
 11
179.3399
 21
205.33111171875
 31
0.0
 0
LINE
 5
38B
100
AcDbEntity
 8
Layer8
100
AcDbLine
 39
0.25
 370
106
 10
72.5956
 20
206.73341171875
 30
0.0
 11
72.7896
 21
206.73341171875
 31
0.0
 0
LINE
 5
38C
100
AcDbEntity
 8
Layer8
100
AcDbLine
 39
0.25
 370
106
 10
72.6999
 20
205.33111171875
 30
0.0
 11
72.8979
 21
205.33111171875
 31
0.0
 0
LINE
 5
38D
100
AcDbEntity
 8
Layer8
100
AcDbLine
 39
0.25
 370
106
 10
75.5831
 20
213.64111171875
 30
0.0
 11
75.3891
 21
213.23111171875
 31
0.0
 0
LINE
 5
38E
100
AcDbEntity
 8
Layer8
100
AcDbLine
 39
0.25
 370
106
 10
72.1895
 20
207.83511171875
 30
0.0
 11
73.0905
 21
209.64411171875
 31
0.0
 0
LINE
 5
38F
100
AcDbEntity
 8
Layer8
100
AcDbLine
 39
0.25
 370
106
 10
72.1895
 20
207.83511171875
 30
0.0
 11
73.0905
 21
209.73511171875
 31
0.0
 0
LINE
 5
390
100
AcDbEntity
 8
Layer8
100
AcDbLine
 39
0.25
 370
106
 10
71.905
 20
205.33111171875
 30
0.0
 11
72.099
 21
205.33111171875
 31
0.0
 0
LINE
 5
391
100
AcDbEntity
 8
Layer8
100
AcDbLine
 39
0.25
 370
106
 10
72.099
 20
205.33111171875
 30
0.0
 11
72.293
 21
205.43411171875
 31
0.0
 0
LINE
 5
392
100
AcDbEntity
 8
Layer8
100
AcDbLine
 39
0.25
 370
106
 10
72.293
 20
205.43411171875
 30
0.0
 11
72.399
 21
205.43411171875
 31
0.0
 0
LINE
 5
393
100
AcDbEntity
 8
Layer8
100
AcDbLine
 39
0.25
 370
106
 10
71.905
 20
206.73341171875
 30
0.0
 11
72.399
 21
206.73341171875
 31
0.0
 0
LINE
 5
394
100
AcDbEntity
 8
Layer8
100
AcDbLine
 39
0.25
 370
106
 10
72.6999
 20
205.43551171875
 30
0.0
 11
72.3999
 21
205.43551171875
 31
0.0
 0
LINE
 5
395
100
AcDbEntity
 8
Layer8
100
AcDbLine
 39
0.25
 370
106
 10
73.0913
 20
208.63391171875
 30
0.0
 11
72.6993
 21
207.72991171875
 31
0.0
 0
LINE
 5
396
100
AcDbEntity
 8
Layer8
100
AcDbLine
 39
0.25
 370
106
 10
72.1895
 20
207.83511171875
 30
0.0
 11
72.0975
 21
207.63711171875
 31
0.0
 0
LINE
 5
397
100
AcDbEntity
 8
Layer8
100
AcDbLine
 39
0.25
 370
106
 10
179.6397
 20
211.13751171875
 30
0.0
 11
179.7317
 21
210.93951171875
 31
0.0
 0
LINE
 5
398
100
AcDbEntity
 8
Layer8
100
AcDbLine
 39
0.25
 370
106
 10
179.7317
 20
210.93951171875
 30
0.0
 11
179.9397
 21
210.03551171875
 31
0.0
 0
LINE
 5
399
100
AcDbEntity
 8
Layer8
100
AcDbLine
 39
0.25
 370
106
 10
179.3395
 20
205.33111171875
 30
0.0
 11
179.7315
 21
205.33111171875
 31
0.0
 0
LINE
 5
39A
100
AcDbEntity
 8
Layer8
100
AcDbLine
 39
0.25
 370
106
 10
182.5241
 20
205.33111171875
 30
0.0
 11
182.3261
 21
205.33111171875
 31
0.0
 0
LINE
 5
39B
100
AcDbEntity
 8
Layer8
100
AcDbLine
 39
0.25
 370
106
 10
182.5241
 20
206.42881171875
 30
0.0
 11
182.5241
 21
206.23481171875
 31
0.0
 0
LINE
 5
39C
100
AcDbEntity
 8
Layer8
100
AcDbLine
 39
0.25
 370
106
 10
182.5241
 20
206.42881171875
 30
0.0
 11
182.5241
 21
206.73281171875
 31
0.0
 0
LINE
 5
39D
100
AcDbEntity
 8
Layer8
100
AcDbLine
 39
0.25
 370
106
 10
115.8447
 20
200.62501171875
 30
0.0
 11
114.8557
 21
200.62501171875
 31
0.0
 0
LINE
 5
39E
100
AcDbEntity
 8
Layer8
100
AcDbLine
 39
0.25
 370
106
 10
138.1765
 20
200.62501171875
 30
0.0
 11
137.1695
 21
200.62501171875
 31
0.0
 0
LINE
 5
39F
100
AcDbEntity
 8
Layer8
100
AcDbLine
 39
0.25
 370
106
 10
43.8566
 20
312.32551171875
 30
0.0
 11
48.9856
 21
312.32551171875
 31
0.0
 0
LINE
 5
3A0
100
AcDbEntity
 8
Layer8
100
AcDbLine
 39
0.25
 370
106
 10
43.8566
 20
199.43401171875
 30
0.0
 11
48.9856
 21
199.43401171875
 31
0.0
 0
LINE
 5
3A1
100
AcDbEntity
 8
Layer8
100
AcDbLine
 39
0.25
 370
106
 10
185.1382
 20
162.50221171875
 30
0.0
 11
185.1382
 21
157.37321171875
 31
0.0
 0
LINE
 5
3A2
100
AcDbEntity
 8
Layer8
100
AcDbLine
 39
0.25
 370
106
 10
72.2463
 20
162.50221171875
 30
0.0
 11
72.2463
 21
157.37321171875
 31
0.0
 0
LINE
 5
3A3
100
AcDbEntity
 8
Layer8
100
AcDbLine
 39
0.25
 370
106
 10
152.7428
 20
502.65611171875
 30
0.0
 11
152.7428
 21
497.52711171875
 31
0.0
 0
LINE
 5
3A4
100
AcDbEntity
 8
Layer8
100
AcDbLine
 39
0.25
 370
106
 10
101.7284
 20
502.65611171875
 30
0.0
 11
101.7284
 21
497.52711171875
 31
0.0
 0
LINE
 5
3A5
100
AcDbEntity
 8
Layer8
100
AcDbLine
 39
0.25
 370
106
 10
43.7453
 20
473.47231171875
 30
0.0
 11
49.0573
 21
473.47231171875
 31
0.0
 0
HATCH
 5
3A6
100
AcDbEntity
 8
Layer22
100
AcDbHatch
 10
 0.0
 20
 0.0
 30
 0.0
 210
 0.0
 220
 0.0
 230
 1.0
 2
SOLID
 70
 1
 71
 1
 91
1              
 92
 0
 93
42             
 72
 1
 10
27.7152
 20
15.44591171875
 11
31.7532
 21
15.44591171875
 72
 1
 10
31.7532
 20
15.44591171875
 11
31.6322
 21
24.32691171875
 72
 1
 10
31.6322
 20
24.32691171875
 11
31.621088671875
 21
25.008702734375
 72
 1
 10
31.621088671875
 20
25.008702734375
 11
31.608559375
 21
25.74061484375
 72
 1
 10
31.608559375
 20
25.74061484375
 11
31.593194140625
 21
26.505456640625
 72
 1
 10
31.593194140625
 20
26.505456640625
 11
31.573575
 21
27.28603671875
 72
 1
 10
31.573575
 20
27.28603671875
 11
31.548283984375
 21
28.0651636718749
 72
 1
 10
31.548283984375
 20
28.0651636718749
 11
31.515903125
 21
28.82564609375
 72
 1
 10
31.515903125
 20
28.82564609375
 11
31.475014453125
 21
29.550292578125
 72
 1
 10
31.475014453125
 20
29.550292578125
 11
31.4242
 21
30.22191171875
 72
 1
 10
31.4242
 20
30.22191171875
 11
31.6100359375
 21
29.666077734375
 72
 1
 10
31.6100359375
 20
29.666077734375
 11
31.8676375
 21
28.97923984375
 72
 1
 10
31.8676375
 20
28.97923984375
 11
32.1847703125
 21
28.184519140625
 72
 1
 10
32.1847703125
 20
28.184519140625
 11
32.5492
 21
27.30503671875
 72
 1
 10
32.5492
 20
27.30503671875
 11
32.9486921875
 21
26.3639136718749
 72
 1
 10
32.9486921875
 20
26.3639136718749
 11
33.3710125
 21
25.38427109375
 72
 1
 10
33.3710125
 20
25.38427109375
 11
33.8039265625
 21
24.389230078125
 72
 1
 10
33.8039265625
 20
24.389230078125
 11
34.2352
 21
23.40191171875
 72
 1
 10
34.2352
 20
23.40191171875
 11
37.7952
 21
15.44591171875
 72
 1
 10
37.7952
 20
15.44591171875
 11
42.1612
 21
15.44591171875
 72
 1
 10
42.1612
 20
15.44591171875
 11
42.1612
 21
36.23191171875
 72
 1
 10
42.1612
 20
36.23191171875
 11
38.1832
 21
36.23191171875
 72
 1
 10
38.1832
 20
36.23191171875
 11
38.2732
 21
27.73791171875
 72
 1
 10
38.2732
 20
27.73791171875
 11
38.289549609375
 21
27.146628515625
 72
 1
 10
38.289549609375
 20
27.146628515625
 11
38.315871875
 21
26.46683359375
 72
 1
 10
38.315871875
 20
26.46683359375
 11
38.350701953125
 21
25.725233984375
 72
 1
 10
38.350701953125
 20
25.725233984375
 11
38.392575
 21
24.94853671875
 72
 1
 10
38.392575
 20
24.94853671875
 11
38.440026171875
 21
24.163448828125
 72
 1
 10
38.440026171875
 20
24.163448828125
 11
38.491590625
 21
23.39667734375
 72
 1
 10
38.491590625
 20
23.39667734375
 11
38.545803515625
 21
22.6749292968751
 72
 1
 10
38.545803515625
 20
22.6749292968751
 11
38.6012
 21
22.02491171875
 72
 1
 10
38.6012
 20
22.02491171875
 11
38.4265046875
 21
22.6165484375
 72
 1
 10
38.4265046875
 20
22.6165484375
 11
38.217075
 21
23.26506796875
 72
 1
 10
38.217075
 20
23.26506796875
 11
37.9746453125
 21
23.962759375
 72
 1
 10
37.9746453125
 20
23.962759375
 11
37.70095
 21
24.70191171875
 72
 1
 10
37.70095
 20
24.70191171875
 11
37.3977234375
 21
25.4748140625
 72
 1
 10
37.3977234375
 20
25.4748140625
 11
37.0667
 21
26.27375546875
 72
 1
 10
37.0667
 20
26.27375546875
 11
36.7096140625
 21
27.0910250000001
 72
 1
 10
36.7096140625
 20
27.0910250000001
 11
36.3282
 21
27.91891171875
 72
 1
 10
36.3282
 20
27.91891171875
 11
32.3522
 21
36.23191171875
 72
 1
 10
32.3522
 20
36.23191171875
 11
27.7152
 21
36.23191171875
 72
 1
 10
27.7152
 20
36.23191171875
 11
27.7152
 21
15.44591171875
 97
 1
 330
3A7
 75
 0
 76
 1
 98
 1
 10
 0.0
 20
 0.0
 0
HATCH
 5
3A8
100
AcDbEntity
 8
Layer22
100
AcDbHatch
 10
 0.0
 20
 0.0
 30
 0.0
 210
 0.0
 220
 0.0
 230
 1.0
 2
SOLID
 70
 1
 71
 1
 91
1              
 92
 0
 93
12             
 72
 1
 10
44.6694
 20
36.23221171875
 11
44.6694
 21
15.44621171875
 72
 1
 10
44.6694
 20
15.44621171875
 11
56.7834
 21
15.44621171875
 72
 1
 10
56.7834
 20
15.44621171875
 11
56.7834
 21
19.03521171875
 72
 1
 10
56.7834
 20
19.03521171875
 11
48.9184
 21
19.03521171875
 72
 1
 10
48.9184
 20
19.03521171875
 11
48.9184
 21
24.59721171875
 72
 1
 10
48.9184
 20
24.59721171875
 11
54.8084
 21
24.59721171875
 72
 1
 10
54.8084
 20
24.59721171875
 11
54.8084
 21
28.00821171875
 72
 1
 10
54.8084
 20
28.00821171875
 11
48.8564
 21
28.00821171875
 72
 1
 10
48.8564
 20
28.00821171875
 11
48.8564
 21
32.82221171875
 72
 1
 10
48.8564
 20
32.82221171875
 11
55.9744
 21
32.82221171875
 72
 1
 10
55.9744
 20
32.82221171875
 11
56.5134
 21
36.23221171875
 72
 1
 10
56.5134
 20
36.23221171875
 11
44.6694
 21
36.23221171875
 97
 1
 330
3A9
 75
 0
 76
 1
 98
 1
 10
 0.0
 20
 0.0
 0
HATCH
 5
3AA
100
AcDbEntity
 8
Layer22
100
AcDbHatch
 10
 0.0
 20
 0.0
 30
 0.0
 210
 0.0
 220
 0.0
 230
 1.0
 2
SOLID
 70
 1
 71
 1
 91
1              
 92
 0
 93
49             
 72
 1
 10
58.3368
 20
15.44591171875
 11
62.5538
 21
15.44591171875
 72
 1
 10
62.5538
 20
15.44591171875
 11
63.2708
 21
26.30291171875
 72
 1
 10
63.2708
 20
26.30291171875
 11
63.302798046875
 21
26.779605078125
 72
 1
 10
63.302798046875
 20
26.779605078125
 11
63.331784375
 21
27.24733359375
 72
 1
 10
63.331784375
 20
27.24733359375
 11
63.357372265625
 21
27.708194921875
 72
 1
 10
63.357372265625
 20
27.708194921875
 11
63.379175
 21
28.16428671875
 72
 1
 10
63.379175
 20
28.16428671875
 11
63.396805859375
 21
28.617706640625
 72
 1
 10
63.396805859375
 20
28.617706640625
 11
63.409878125
 21
29.07055234375
 72
 1
 10
63.409878125
 20
29.07055234375
 11
63.418005078125
 21
29.5249214843749
 72
 1
 10
63.418005078125
 20
29.5249214843749
 11
63.4208
 21
29.98291171875
 72
 1
 10
63.4208
 20
29.98291171875
 11
67.2198
 21
15.44591171875
 72
 1
 10
67.2198
 20
15.44591171875
 11
70.8988
 21
15.44591171875
 72
 1
 10
70.8988
 20
15.44591171875
 11
72.152903515625
 21
19.811882421875
 72
 1
 10
72.152903515625
 20
19.811882421875
 11
73.098253125
 21
23.10742734375
 72
 1
 10
73.098253125
 20
23.10742734375
 11
73.782157421875
 21
25.501495703125
 72
 1
 10
73.782157421875
 20
25.501495703125
 11
74.251925
 21
27.1630367187499
 72
 1
 10
74.251925
 20
27.1630367187499
 11
74.554864453125
 21
28.260999609375
 72
 1
 10
74.554864453125
 20
28.260999609375
 11
74.738284375
 21
28.96433359375
 72
 1
 10
74.738284375
 20
28.96433359375
 11
74.849493359375
 21
29.441987890625
 72
 1
 10
74.849493359375
 20
29.441987890625
 11
74.9358
 21
29.86291171875
 72
 1
 10
74.9358
 20
29.86291171875
 11
74.97692109375
 21
28.9253140625
 72
 1
 10
74.97692109375
 20
28.9253140625
 11
75.08533125
 21
27.14281796875
 72
 1
 10
75.08533125
 20
27.14281796875
 11
75.23860078125
 21
24.81436875
 72
 1
 10
75.23860078125
 20
24.81436875
 11
75.4143
 21
22.23891171875
 72
 1
 10
75.4143
 20
22.23891171875
 11
75.58999921875
 21
19.7153921875
 72
 1
 10
75.58999921875
 20
19.7153921875
 11
75.74326875
 21
17.5427554687501
 72
 1
 10
75.74326875
 20
17.5427554687501
 11
75.85167890625
 21
16.019946875
 72
 1
 10
75.85167890625
 20
16.019946875
 11
75.8928
 21
15.44591171875
 72
 1
 10
75.8928
 20
15.44591171875
 11
80.0208
 21
15.44591171875
 72
 1
 10
80.0208
 20
15.44591171875
 11
78.1668
 21
36.23191171875
 72
 1
 10
78.1668
 20
36.23191171875
 11
72.6928
 21
36.23191171875
 72
 1
 10
72.6928
 20
36.23191171875
 11
71.586962109375
 21
32.10316953125
 72
 1
 10
71.586962109375
 20
32.10316953125
 11
70.753409375
 21
28.9873492187501
 72
 1
 10
70.753409375
 20
28.9873492187501
 11
70.150458203125
 21
26.72531015625
 72
 1
 10
70.150458203125
 20
26.72531015625
 11
69.736425
 21
25.15791171875
 72
 1
 10
69.736425
 20
25.15791171875
 11
69.469626171875
 21
24.12601328125
 72
 1
 10
69.469626171875
 20
24.12601328125
 11
69.308378125
 21
23.47047421875
 72
 1
 10
69.308378125
 20
23.47047421875
 11
69.210997265625
 21
23.03215390625
 72
 1
 10
69.210997265625
 20
23.03215390625
 11
69.1358
 21
22.65191171875
 72
 1
 10
69.1358
 20
22.65191171875
 11
68.935934765625
 21
23.54493125
 72
 1
 10
68.935934765625
 20
23.54493125
 11
68.521628125
 21
25.22856796875
 72
 1
 10
68.521628125
 20
25.22856796875
 11
67.967188671875
 21
27.4224390625001
 72
 1
 10
67.967188671875
 20
27.4224390625001
 11
67.346925
 21
29.84616171875
 72
 1
 10
67.346925
 20
29.84616171875
 11
66.735145703125
 21
32.2193531250001
 72
 1
 10
66.735145703125
 20
32.2193531250001
 11
66.206159375
 21
34.26163046875
 72
 1
 10
66.206159375
 20
34.26163046875
 11
65.834274609375
 21
35.6926109375
 72
 1
 10
65.834274609375
 20
35.6926109375
 11
65.6938
 21
36.23191171875
 72
 1
 10
65.6938
 20
36.23191171875
 11
60.2818
 21
36.23191171875
 72
 1
 10
60.2818
 20
36.23191171875
 11
58.3368
 21
15.44591171875
 97
 1
 330
3AB
 75
 0
 76
 1
 98
 1
 10
 0.0
 20
 0.0
 0
HATCH
 5
3AC
100
AcDbEntity
 8
Layer22
100
AcDbHatch
 10
 0.0
 20
 0.0
 30
 0.0
 210
 0.0
 220
 0.0
 230
 1.0
 2
SOLID
 70
 1
 71
 1
 91
2              
 92
 0
 93
56             
 72
 1
 10
93.9097
 20
30.64021171875
 11
94.035272265625
 21
30.18529375
 72
 1
 10
94.035272265625
 20
30.18529375
 11
94.144215625
 21
29.69393046875
 72
 1
 10
94.144215625
 20
29.69393046875
 11
94.236494921875
 21
29.1633328125001
 72
 1
 10
94.236494921875
 20
29.1633328125001
 11
94.312075
 21
28.59071171875
 72
 1
 10
94.312075
 20
28.59071171875
 11
94.370920703125
 21
27.973278125
 72
 1
 10
94.370920703125
 20
27.973278125
 11
94.412996875
 21
27.30824296875
 72
 1
 10
94.412996875
 20
27.30824296875
 11
94.438268359375
 21
26.5928171875
 72
 1
 10
94.438268359375
 20
26.5928171875
 11
94.4467
 21
25.82421171875
 72
 1
 10
94.4467
 20
25.82421171875
 11
94.388397265625
 21
23.98230546875
 72
 1
 10
94.388397265625
 20
23.98230546875
 11
94.209965625
 21
22.41883671875
 72
 1
 10
94.209965625
 20
22.41883671875
 11
93.906119921875
 21
21.12368046875
 72
 1
 10
93.906119921875
 20
21.12368046875
 11
93.471575
 21
20.0867117187501
 72
 1
 10
93.471575
 20
20.0867117187501
 11
92.901045703125
 21
19.29780546875
 72
 1
 10
92.901045703125
 20
19.29780546875
 11
92.189246875
 21
18.7468367187499
 72
 1
 10
92.189246875
 20
18.7468367187499
 11
91.330893359375
 21
18.42368046875
 72
 1
 10
91.330893359375
 20
18.42368046875
 11
90.3207
 21
18.31821171875
 72
 1
 10
90.3207
 20
18.31821171875
 11
89.95733671875
 21
18.3293757812501
 72
 1
 10
89.95733671875
 20
18.3293757812501
 11
89.60848125
 21
18.36289921875
 72
 1
 10
89.60848125
 20
18.36289921875
 11
89.27448515625
 21
18.41882890625
 72
 1
 10
89.27448515625
 20
18.41882890625
 11
88.9557
 21
18.49721171875
 72
 1
 10
88.9557
 20
18.49721171875
 11
88.65247734375
 21
18.5980945312499
 72
 1
 10
88.65247734375
 20
18.5980945312499
 11
88.36516875
 21
18.72152421875
 72
 1
 10
88.36516875
 20
18.72152421875
 11
88.09412578125
 21
18.8675476562499
 72
 1
 10
88.09412578125
 20
18.8675476562499
 11
87.8397
 21
19.03621171875
 72
 1
 10
87.8397
 20
19.03621171875
 11
87.407049609375
 21
19.443678515625
 72
 1
 10
87.407049609375
 20
19.443678515625
 11
87.031059375
 21
19.9730085937499
 72
 1
 10
87.031059375
 20
19.9730085937499
 11
86.712045703125
 21
20.6252214843751
 72
 1
 10
86.712045703125
 20
20.6252214843751
 11
86.450325
 21
21.40133671875
 72
 1
 10
86.450325
 20
21.40133671875
 11
86.246213671875
 21
22.302373828125
 72
 1
 10
86.246213671875
 20
22.302373828125
 11
86.100028125
 21
23.32935234375
 72
 1
 10
86.100028125
 20
23.32935234375
 11
86.012084765625
 21
24.483291796875
 72
 1
 10
86.012084765625
 20
24.483291796875
 11
85.9827
 21
25.76521171875
 72
 1
 10
85.9827
 20
25.76521171875
 11
85.9982390625
 21
26.675330859375
 72
 1
 10
85.9982390625
 20
26.675330859375
 11
86.045325
 21
27.5233523437499
 72
 1
 10
86.045325
 20
27.5233523437499
 11
86.1246609375
 21
28.3117722656249
 72
 1
 10
86.1246609375
 20
28.3117722656249
 11
86.23695
 21
29.04308671875
 72
 1
 10
86.23695
 20
29.04308671875
 11
86.3828953125
 21
29.719791796875
 72
 1
 10
86.3828953125
 20
29.719791796875
 11
86.5632
 21
30.34438359375
 72
 1
 10
86.5632
 20
30.34438359375
 11
86.7785671875
 21
30.919358203125
 72
 1
 10
86.7785671875
 20
30.919358203125
 11
87.0297
 21
31.44721171875
 72
 1
 10
87.0297
 20
31.44721171875
 11
87.27422734375
 21
31.8431296875
 72
 1
 10
87.27422734375
 20
31.8431296875
 11
87.57685625
 21
32.19880546875
 72
 1
 10
87.57685625
 20
32.19880546875
 11
87.93128203125
 21
32.510371875
 72
 1
 10
87.93128203125
 20
32.510371875
 11
88.3312
 21
32.7739617187501
 72
 1
 10
88.3312
 20
32.7739617187501
 11
88.77030546875
 21
32.9857078125
 72
 1
 10
88.77030546875
 20
32.9857078125
 11
89.24229375
 21
33.14174296875
 72
 1
 10
89.24229375
 20
33.14174296875
 11
89.74086015625
 21
33.2382
 72
 1
 10
89.74086015625
 20
33.2382
 11
90.2597
 21
33.27121171875
 72
 1
 10
90.2597
 20
33.27121171875
 11
91.039030078125
 21
33.2011453125
 72
 1
 10
91.039030078125
 20
33.2011453125
 11
91.718340625
 21
33.0074929687499
 72
 1
 10
91.718340625
 20
33.0074929687499
 11
92.301487109375
 21
32.715075
 72
 1
 10
92.301487109375
 20
32.715075
 11
92.792325
 21
32.34871171875
 72
 1
 10
92.792325
 20
32.34871171875
 11
93.194709765625
 21
31.9332234375
 72
 1
 10
93.194709765625
 20
31.9332234375
 11
93.512496875
 21
31.49343046875
 72
 1
 10
93.512496875
 20
31.49343046875
 11
93.749541796875
 21
31.054153125
 72
 1
 10
93.749541796875
 20
31.054153125
 11
93.9097
 21
30.64021171875
 97
 1
 330
3AD
 92
 0
 93
56             
 72
 1
 10
86.0137
 20
35.48521171875
 11
84.961170703125
 21
34.779830859375
 72
 1
 10
84.961170703125
 20
34.779830859375
 11
84.029778125
 21
33.90416484375
 72
 1
 10
84.029778125
 20
33.90416484375
 11
83.225440234375
 21
32.870553515625
 72
 1
 10
83.225440234375
 20
32.870553515625
 11
82.554075
 21
31.69133671875
 72
 1
 10
82.554075
 20
31.69133671875
 11
82.021600390625
 21
30.378854296875
 72
 1
 10
82.021600390625
 20
30.378854296875
 11
81.633934375
 21
28.94544609375
 72
 1
 10
81.633934375
 20
28.94544609375
 11
81.396994921875
 21
27.403451953125
 72
 1
 10
81.396994921875
 20
27.403451953125
 11
81.3167
 21
25.76521171875
 72
 1
 10
81.3167
 20
25.76521171875
 11
81.354514453125
 21
24.640869921875
 72
 1
 10
81.354514453125
 20
24.640869921875
 11
81.467715625
 21
23.55816484375
 72
 1
 10
81.467715625
 20
23.55816484375
 11
81.655940234375
 21
22.519076953125
 72
 1
 10
81.655940234375
 20
22.519076953125
 11
81.918825
 21
21.52558671875
 72
 1
 10
81.918825
 20
21.52558671875
 11
82.256006640625
 21
20.5796746093749
 72
 1
 10
82.256006640625
 20
20.5796746093749
 11
82.667121875
 21
19.6833210937501
 72
 1
 10
82.667121875
 20
19.6833210937501
 11
83.151807421875
 21
18.8385066406249
 72
 1
 10
83.151807421875
 20
18.8385066406249
 11
83.7097
 21
18.04721171875
 72
 1
 10
83.7097
 20
18.04721171875
 11
84.326448046875
 21
17.3292507812499
 72
 1
 10
84.326448046875
 20
17.3292507812499
 11
84.993059375
 21
16.7193367187499
 72
 1
 10
84.993059375
 20
16.7193367187499
 11
85.717209765625
 21
16.2136726562501
 72
 1
 10
85.717209765625
 20
16.2136726562501
 11
86.506575
 21
15.80846171875
 72
 1
 10
86.506575
 20
15.80846171875
 11
87.368830859375
 21
15.49990703125
 72
 1
 10
87.368830859375
 20
15.49990703125
 11
88.311653125
 21
15.28421171875
 72
 1
 10
88.311653125
 20
15.28421171875
 11
89.342717578125
 21
15.15757890625
 72
 1
 10
89.342717578125
 20
15.15757890625
 11
90.4697
 21
15.11621171875
 72
 1
 10
90.4697
 20
15.11621171875
 11
91.094936328125
 21
15.1292019531251
 72
 1
 10
91.094936328125
 20
15.1292019531251
 11
91.674528125
 21
15.16932109375
 72
 1
 10
91.674528125
 20
15.16932109375
 11
92.216174609375
 21
15.238291796875
 72
 1
 10
92.216174609375
 20
15.238291796875
 11
92.727575
 21
15.3378367187499
 72
 1
 10
92.727575
 20
15.3378367187499
 11
93.216428515625
 21
15.469678515625
 72
 1
 10
93.216428515625
 20
15.469678515625
 11
93.690434375
 21
15.6355398437499
 72
 1
 10
93.690434375
 20
15.6355398437499
 11
94.157291796875
 21
15.837143359375
 72
 1
 10
94.157291796875
 20
15.837143359375
 11
94.6247
 21
16.07621171875
 72
 1
 10
94.6247
 20
16.07621171875
 11
95.68368046875
 21
16.7876628906249
 72
 1
 10
95.68368046875
 20
16.7876628906249
 11
96.61279375
 21
17.66307109375
 72
 1
 10
96.61279375
 20
17.66307109375
 11
97.40854765625
 21
18.6950183593749
 72
 1
 10
97.40854765625
 20
18.6950183593749
 11
98.06745
 21
19.8760867187499
 72
 1
 10
98.06745
 20
19.8760867187499
 11
98.58600859375
 21
21.1988582031249
 72
 1
 10
98.58600859375
 20
21.1988582031249
 11
98.96073125
 21
22.6559148437499
 72
 1
 10
98.96073125
 20
22.6559148437499
 11
99.18812578125
 21
24.2398386718749
 72
 1
 10
99.18812578125
 20
24.2398386718749
 11
99.2647
 21
25.94321171875
 72
 1
 10
99.2647
 20
25.94321171875
 11
99.1072859375
 21
28.2691589843749
 72
 1
 10
99.1072859375
 20
28.2691589843749
 11
98.6451375
 21
30.34410234375
 72
 1
 10
98.6451375
 20
30.34410234375
 11
97.8933953125
 21
32.149819140625
 72
 1
 10
97.8933953125
 20
32.149819140625
 11
96.8672
 21
33.66808671875
 72
 1
 10
96.8672
 20
33.66808671875
 11
95.5816921875
 21
34.880682421875
 72
 1
 10
95.5816921875
 20
34.880682421875
 11
94.0520125
 21
35.76938359375
 72
 1
 10
94.0520125
 20
35.76938359375
 11
92.2933015625
 21
36.3159675781251
 72
 1
 10
92.2933015625
 20
36.3159675781251
 11
90.3207
 21
36.50221171875
 72
 1
 10
90.3207
 20
36.50221171875
 11
89.739135546875
 21
36.48550078125
 72
 1
 10
89.739135546875
 20
36.48550078125
 11
89.163559375
 21
36.43583671875
 72
 1
 10
89.163559375
 20
36.43583671875
 11
88.597147265625
 21
36.3539226562499
 72
 1
 10
88.597147265625
 20
36.3539226562499
 11
88.043075
 21
36.24046171875
 72
 1
 10
88.043075
 20
36.24046171875
 11
87.504518359375
 21
36.09615703125
 72
 1
 10
87.504518359375
 20
36.09615703125
 11
86.984653125
 21
35.92171171875
 72
 1
 10
86.984653125
 20
35.92171171875
 11
86.486655078125
 21
35.71782890625
 72
 1
 10
86.486655078125
 20
35.71782890625
 11
86.0137
 21
35.48521171875
 97
 1
 330
3AE
 75
 0
 76
 1
 98
 1
 10
 0.0
 20
 0.0
 0
LINE
 5
3AF
100
AcDbEntity
 8
Layer8
100
AcDbLine
 39
0.25
 370
106
 10
43.7453
 20
465.78151171875
 30
0.0
 11
49.0573
 21
465.78151171875
 31
0.0
 0
TEXT
 5
3B0
100
AcDbEntity
 8
Layer8
100
AcDbText
 40
9.6
 41
0.61000
 72
0
 50
0
  1
Ø37
  7
STANDARD
 10
121.2788
 20
153.07471171875
 30
0.0
 11
121.2788
 21
153.07471171875
 31
0.0
100
AcDbText
 73
  1
 0
TEXT
 5
3B1
100
AcDbEntity
 8
Layer8
100
AcDbText
 40
9.6
 41
0.61000
 72
0
 50
0
  1
Ø18
  7
STANDARD
 10
117.9492
 20
493.22701171875
 30
0.0
 11
117.9492
 21
493.22701171875
 31
0.0
100
AcDbText
 73
  1
 0
TEXT
 5
3B2
100
AcDbEntity
 8
Layer8
100
AcDbText
 40
9.6
 41
0.61000
 72
0
 50
-270
  1
38
  7
STANDARD
 10
53.2832
 20
246.05611171875
 30
0.0
 11
53.2832
 21
246.05611171875
 31
0.0
100
AcDbText
 73
  1
 0
TEXT
 5
3B3
100
AcDbEntity
 8
Layer8
100
AcDbText
 40
9.6
 41
0.61000
 72
0
 50
-270
  1
3
  7
STANDARD
 10
39.7734
 20
464.79051171875
 30
0.0
 11
39.7734
 21
464.79051171875
 31
0.0
100
AcDbText
 73
  1
 0
TEXT
 5
3B4
100
AcDbEntity
 8
Layer8
100
AcDbText
 40
9.6
 41
0.61000
 72
0
 50
0
  1
cable lenght 3m
  7
STANDARD
 10
59.0205
 20
75.41551171875
 30
0.0
 11
59.0205
 21
75.41551171875
 31
0.0
100
AcDbText
 73
  1
  0
ENDSEC
  0
SECTION
  2
OBJECTS
  0
DICTIONARY
  5
19
100
AcDbDictionary
  3
ACAD_GROUP
350
1A
  3
ACAD_MLINESTYLE
350
1B
  0
DICTIONARY
  5
1A
102
{ACAD_REACTORS
330
19
102
}
100
AcDbDictionary
  0
DICTIONARY
  5
1B
102
{ACAD_REACTORS
330
19
102
}
100
AcDbDictionary
  3
STANDARD
350
1C
  0
MLINESTYLE
  5
1C
102
{ACAD_REACTORS
330
1B
102
}
100
AcDbMlineStyle
  2
STANDARD
 70
     0
  3

 62
     0
 51
90.0
 52
90.0
 71
     2
 49
0.5
 62
   256
  6
BYLAYER
 49
-0.5
 62
   256
  6
BYLAYER
  0
ENDSEC
  0
EOF
