 999
SCAN2CAD Date : 01/26/16
 999
SCAN2CAD ScalePixelX : 1
 999
SCAN2CAD ScalePixelY : 1
 999
SCAN2CAD TileXOffset : 0
 999
SCAN2CAD TileYOffset : 0
 999
SCAN2CAD MeasureType : 1
 999
SCAN2CAD DotsPerInch : 0
 999
SCAN2CAD GeScalePixX : 1
 999
SCAN2CAD GeScalePixY : 1
 999
SCAN2CAD GeRasTiePtX : 0
 999
SCAN2CAD GeRasTiePtY : 0
 999
SCAN2CAD ScalRasDist : 1
 999
SCAN2CAD ScalVecDist : 1
 999
SCAN2CAD ScalUnitTyp : 0
 999
SCAN2CAD ScalDistFac : 1
 999
SCAN2CAD ScalAdjustX : 1
 999
SCAN2CAD ScalAdjustY : 1
 999
SCAN2CAD MeasureMeth : 1
 999
SCAN2CAD OgDrawScale : 1
 999
SCAN2CAD OgDrawUType : 0
 999
SCAN2CAD ToDrawScale : 1
 999
SCAN2CAD ToDrawUType : 0
  0
SECTION
  2
HEADER
  9
$ACADVER
  1
AC1014
  9
$ACADMAINTVER
 70
     0
  9
$DWGCODEPAGE
  3
ANSI_1252
  9
$INSBASE
 10
0.0
 20
0.0
 30
0.0
 9
$EXTMIN
 10
27.553699999998
 20
15.3457931640625
 30
0.0
 9
$EXTMAX
 10
250.4465111
 20
439.227193164063
 30
0.0
 9
$LIMMIN
 10
0
 20
0
 9
$LIMMAX
 10
282
 20
465
  9
$ORTHOMODE
 70
     0
  9
$REGENMODE
 70
     1
  9
$FILLMODE
 70
     1
  9
$QTEXTMODE
 70
     0
  9
$MIRRTEXT
 70
     1
  9
$DRAGMODE
 70
     2
  9
$LTSCALE
 40
1.0
  9
$OSMODE
 70
     0
  9
$ATTMODE
 70
     1
  9
$TEXTSIZE
 40
0.2
  9
$TRACEWID
 40
0.05
  9
$TEXTSTYLE
  7
STANDARD
  9
$CLAYER
  8
0
  9
$CELTYPE
  6
CONTINUOUS
  9
$CECOLOR
 62
   256
  9
$CELTSCALE
 40
1.0
  9
$DELOBJ
 70
     1
  9
$DISPSILH
 70
     0
  9
$DIMSCALE
 40
1.0
  9
$DIMASZ
 40
0.18
  9
$DIMEXO
 40
0.0625
  9
$DIMDLI
 40
0.38
  9
$DIMRND
 40
0.0
  9
$DIMDLE
 40
0.0
  9
$DIMEXE
 40
0.18
  9
$DIMTP
 40
0.0
  9
$DIMTM
 40
0.0
  9
$DIMTXT
 40
0.18
  9
$DIMCEN
 40
0.09
  9
$DIMTSZ
 40
0.0
  9
$DIMTOL
 70
     0
  9
$DIMLIM
 70
     0
  9
$DIMTIH
 70
     1
  9
$DIMTOH
 70
     1
  9
$DIMSE1
 70
     0
  9
$DIMSE2
 70
     0
  9
$DIMTAD
 70
     0
  9
$DIMZIN
 70
     0
  9
$DIMBLK
  1

  9
$DIMASO
 70
     1
  9
$DIMSHO
 70
     1
  9
$DIMPOST
  1

  9
$DIMAPOST
  1

  9
$DIMALT
 70
     0
  9
$DIMALTD
 70
     2
  9
$DIMALTF
 40
25.4
  9
$DIMLFAC
 40
1.0
  9
$DIMTOFL
 70
     0
  9
$DIMTVP
 40
0.0
  9
$DIMTIX
 70
     0
  9
$DIMSOXD
 70
     0
  9
$DIMSAH
 70
     0
  9
$DIMBLK1
  1

  9
$DIMBLK2
  1

  9
$DIMSTYLE
  2
STANDARD
  9
$DIMCLRD
 70
     0
  9
$DIMCLRE
 70
     0
  9
$DIMCLRT
 70
     0
  9
$DIMTFAC
 40
1.0
  9
$DIMGAP
 40
0.09
  9
$DIMJUST
 70
     0
  9
$DIMSD1
 70
     0
  9
$DIMSD2
 70
     0
  9
$DIMTOLJ
 70
     1
  9
$DIMTZIN
 70
     0
  9
$DIMALTZ
 70
     0
  9
$DIMALTTZ
 70
     0
  9
$DIMFIT
 70
     3
  9
$DIMUPT
 70
     0
  9
$DIMUNIT
 70
     2
  9
$DIMDEC
 70
     4
  9
$DIMTDEC
 70
     4
  9
$DIMALTU
 70
     2
  9
$DIMALTTD
 70
     2
  9
$DIMTXSTY
  7
STANDARD
  9
$DIMAUNIT
 70
     0
  9
$LUNITS
 70
     2
  9
$LUPREC
 70
     4
  9
$SKETCHINC
 40
0.1
  9
$FILLETRAD
 40
0.0
  9
$AUNITS
 70
     0
  9
$AUPREC
 70
     0
  9
$MENU
  1
acad
  9
$ELEVATION
 40
0.0
  9
$PELEVATION
 40
0.0
  9
$THICKNESS
 40
0.0
  9
$LIMCHECK
 70
     0
  9
$BLIPMODE
 70
     1
  9
$CHAMFERA
 40
0.0
  9
$CHAMFERB
 40
0.0
  9
$CHAMFERC
 40
0.0
  9
$CHAMFERD
 40
0.0
  9
$SKPOLY
 70
     0
  9
$TDCREATE
 40
0.000000000
  9
$TDUPDATE
 40
0.000000000
  9
$TDINDWG
 40
0.0000000000
  9
$TDUSRTIMER
 40
0.0000000000
  9
$USRTIMER
 70
     1
  9
$ANGBASE
 50
0.0
  9
$ANGDIR
 70
     0
  9
$PDMODE
 70
     0
  9
$PDSIZE
 40
0.0
  9
$PLINEWID
 40
0.0
  9
$COORDS
 70
     0
  9
$SPLFRAME
 70
     0
  9
$SPLINETYPE
 70
     6
  9
$SPLINESEGS
 70
     8
  9
$ATTDIA
 70
     0
  9
$ATTREQ
 70
     1
  9
$HANDLING
 70
     1
  9
$HANDSEED
  5
     708
  9
$SURFTAB1
 70
     6
  9
$SURFTAB2
 70
     6
  9
$SURFTYPE
 70
     6
  9
$SURFU
 70
     6
  9
$SURFV
 70
     6
  9
$UCSNAME
  2

  9
$UCSORG
 10
0.0
 20
0.0
 30
0.0
  9
$UCSXDIR
 10
1.0
 20
0.0
 30
0.0
  9
$UCSYDIR
 10
0.0
 20
1.0
 30
0.0
  9
$PUCSNAME
  2

  9
$PUCSORG
 10
0.0
 20
0.0
 30
0.0
  9
$PUCSXDIR
 10
1.0
 20
0.0
 30
0.0
  9
$PUCSYDIR
 10
0.0
 20
1.0
 30
0.0
  9
$USERI1
 70
     0
  9
$USERI2
 70
     0
  9
$USERI3
 70
     0
  9
$USERI4
 70
     0
  9
$USERI5
 70
     0
  9
$USERR1
 40
0.0
  9
$USERR2
 40
0.0
  9
$USERR3
 40
0.0
  9
$USERR4
 40
0.0
  9
$USERR5
 40
0.0
  9
$WORLDVIEW
 70
     1
  9
$SHADEDGE
 70
     3
  9
$SHADEDIF
 70
    70
  9
$TILEMODE
 70
     1
  9
$MAXACTVP
 70
    16
  9
$PINSBASE
 10
0.0
 20
0.0
 30
0.0
  9
$PLIMCHECK
 70
     0
 9
$PEXTMIN
 10
27.553699999998
 20
15.3457931640625
 30
0.0
 9
$PEXTMAX
 10
250.4465111
 20
439.227193164063
 30
0.0
 9
$PLIMMIN
 10
0
 20
0
 9
$PLIMMAX
 10
282
 20
465
  9
$UNITMODE
 70
     0
  9
$VISRETAIN
 70
     0
  9
$PLINEGEN
 70
     1
  9
$PSLTSCALE
 70
     0
  9
$TREEDEPTH
 70
  3020
  9
$PICKSTYLE
 70
     1
  9
$CMLSTYLE
  2
STANDARD
  9
$CMLJUST
 70
     0
  9
$CMLSCALE
 40
1.0
  9
$PROXYGRAPHICS
 70
     0
  9
$MEASUREMENT
 70
     0
  0
ENDSEC
  0
SECTION
  2
CLASSES
  0
CLASS
  1
LWPOLYLINE
  2
AcDbPolyline
  3
"AutoCAD"
 90
        0
280
     0
281
     1
  0
CLASS
  1
IMAGE
  2
AcDbRasterImage
  3
ISM
 90
      127
280
     0
281
     1
  0
CLASS
  1
OLE2FRAME
  2
AcDbOle2Frame
  3
""
 90
        0
280
     0
281
     1
  0
CLASS
  1
HATCH
  2
AcDbHatch
  3
"ACAD_SEDONA"
 90
        0
280
     0
281
     1
  0
CLASS
  1
DICTIONARYVAR
  2
AcDbDictionaryVar
  3
"AutoCAD"
 90
        0
280
     0
281
     0
  0
CLASS
  1
RASTERVARIABLES
  2
AcDbRasterVariables
  3
ISM
 90
        0
280
     0
281
     0
  0
CLASS
  1
IMAGEDEF
  2
AcDbRasterImageDef
  3
ISM
 90
        0
280
     0
281
     0
  0
CLASS
  1
IMAGEDEF_REACTOR
  2
AcDbRasterImageDefReactor
  3
ISM
 90
        1
280
     0
281
     0
  0
CLASS
  1
IDBUFFER
  2
AcDbIdBuffer
  3
"Acad"
 90
        0
280
     0
281
     0
  0
CLASS
  1
SPATIAL_FILTER
  2
AcDbSpatialFilter
  3
"Acad"
 90
        0
280
     0
281
     0
  0
CLASS
  1
XRECORD
  2
AcDbXrecord
  3
"<Built In>"
 90
        0
280
     0
281
     0
  0
CLASS
  1
SORTENTSTABLE
  2
AcDbSortentsTable
  3
"AutoCAD"
 90
        0
280
     0
281
     0
  0
CLASS
  1
LAYER_INDEX
  2
AcDbLayerIndex
  3
"Acad"
 90
        0
280
     0
281
     0
  0
CLASS
  1
SPATIAL_INDEX
  2
AcDbSpatialIndex
  3
"Acad"
 90
        0
280
     0
281
     0
  0
CLASS
  1
OBJECT_PTR
  2
CAseDLPNTableRecord
  3
"ASE-LPNTableRecord"
 90
        1
280
     0
281
     0
  0
ENDSEC
  0
SECTION
  2
TABLES
  0
TABLE
  2
VPORT
  5
7
100
AcDbSymbolTable
 70
     1
  0
VPORT
  5
15
100
AcDbSymbolTableRecord
100
AcDbViewportTableRecord
 2
*ACTIVE
 70
     0
 10
0
 20
0
 11
1.0
 21
1.0
 12
0.0
 22
0.0
 13
0.0
 23
0.0
 14
1.0
 24
1.0
 15
0.0
 25
0.0
 16
0.0
 26
0.0
 36
1.0
 17
139.000105549999
 27
227.286493164063
 37
0.0
 40
427.8814
 41
0.530270329815696
 42
50.0
 43
0.0
 44
0.0
 50
0.0
 51
0.0
 71
     0
 72
   100
 73
     1
 74
     1
 75
     0
 76
     0
 77
     0
 78
     0
   0
ENDTAB
  0
TABLE
  2
LTYPE
  5
4
100
AcDbSymbolTable
 70
3
  0
LTYPE
  5
11
100
AcDbSymbolTableRecord
100
AcDbLinetypeTableRecord
  2
BYBLOCK
 70
     0
  3

 72
    65
 73
     0
 40
0.0
  0
LTYPE
  5
12
100
AcDbSymbolTableRecord
100
AcDbLinetypeTableRecord
  2
BYLAYER
 70
     0
  3

 72
    65
 73
     0
 40
0.0
  0
LTYPE
  5
80
330
5
100
AcDbSymbolTableRecord
100
AcDbLinetypeTableRecord
  2
CONTINUOUS
 70
     0
  3
Continuous
 72
    65
 73
     0
 40
0.0
  0
LTYPE
  5
81
330
5
100
AcDbSymbolTableRecord
100
AcDbLinetypeTableRecord
  2
DASH
 70
     0
  3
Dash
 72
    65
 73
     2
 40
48.0
 49
24.0
 74
     0
 49
-24.0
 74
     0
  0
LTYPE
  5
82
330
5
100
AcDbSymbolTableRecord
100
AcDbLinetypeTableRecord
  2
DASHDOT
 70
     0
  3
DashDot
 72
    65
 73
     4
 40
48.0
 49
24.0
 74
     0
 49
 -12.0
 74
     0
 49
0.0
 74
     0
 49
 -12.0
 74
     0	
  0
ENDTAB
  0
TABLE
  2
LAYER
  5
2
100
AcDbSymbolTable
 70
4              
  0
LAYER
  5
83
100
AcDbSymbolTableRecord
100
AcDbLayerTableRecord
  2
0
 70
     0
 62
     7
  6
CONTINUOUS
 0
LAYER
  5
84
100
AcDbSymbolTableRecord
100
AcDbLayerTableRecord
 2
Layer0
 70
 64
 62
 7
 6
CONTINUOUS
 0
LAYER
  5
85
100
AcDbSymbolTableRecord
100
AcDbLayerTableRecord
 2
Layer8
 70
 64
 62
 8
 6
CONTINUOUS
 0
LAYER
  5
86
100
AcDbSymbolTableRecord
100
AcDbLayerTableRecord
 2
Layer22
 70
 64
 62
 22
 6
CONTINUOUS
  0
ENDTAB
  0
TABLE
  2
STYLE
  5
3
100
AcDbSymbolTable
 70
1              
 0
STYLE
 5
17
100
AcDbSymbolTableRecord
100
AcDbTextStyleTableRecord
 2
STANDARD
 70
 0
 40
 0.0
 41
 1.0
 50
 0.0
 71
  0
 42
 8.0
 3
 txt
 4

  0
ENDTAB
  0
TABLE
  2
VIEW
  5
5
100
AcDbSymbolTable
 70
     0
  0
ENDTAB
  0
TABLE
  2
UCS
  5
6
100
AcDbSymbolTable
 70
     0
  0
ENDTAB
  0
TABLE
  2
APPID
  5
8
100
AcDbSymbolTable
 70
     1
  0
APPID
  5
16
100
AcDbSymbolTableRecord
100
AcDbRegAppTableRecord
  2
ACAD
 70
     0
  0
ENDTAB
  0
TABLE
  2
DIMSTYLE
  5
9
100
AcDbSymbolTable
 70
     1
  0
DIMSTYLE
105
18
100
AcDbSymbolTableRecord
100
AcDbDimStyleTableRecord
  2
STANDARD
 70
     0
  3

  4

  5

  6

  7

 40
1.0
 41
0.18
 42
0.0625
 43
0.38
 44
0.18
 45
0.0
 46
0.0
 47
0.0
 48
0.0
140
0.18
141
0.09
142
0.0
143
25.4
144
1.0
145
0.0
146
1.0
147
0.09
 71
     0
 72
     0
 73
     1
 74
     1
 75
     0
 76
     0
 77
     0
 78
     0
170
     0
171
     2
172
     0
173
     0
174
     0
175
     0
176
     0
177
     0
178
     0
270
     2
271
     4
272
     4
273
     2
274
     2
340
17
275
     0
280
     0
281
     0
282
     0
283
     1
284
     0
285
     0
286
     0
287
     0
288
     0
  0
ENDTAB
  0
TABLE
  2
BLOCK_RECORD
  5
1
100
AcDbSymbolTable
 70
     0
  0
BLOCK_RECORD
  5
A
100
AcDbSymbolTableRecord
100
AcDbBlockTableRecord
  2
*MODEL_SPACE
  0
BLOCK_RECORD
  5
B
100
AcDbSymbolTableRecord
100
AcDbBlockTableRecord
  2
*PAPER_SPACE
  0
ENDTAB
  0
ENDSEC
  0
SECTION
  2
BLOCKS
  0
BLOCK
  5
D
100
AcDbEntity
  8
0
100
AcDbBlockBegin
  2
*MODEL_SPACE
 70
     0
 10
0.0
 20
0.0
 30
0.0
  3
*MODEL_SPACE
  1

  0
ENDBLK
  5
E
100
AcDbEntity
  8
0
100
AcDbBlockEnd
  0
BLOCK
  5
F
100
AcDbEntity
 67
     1
  8
0
100
AcDbBlockBegin
  2
*PAPER_SPACE
 70
     0
 10
0.0
 20
0.0
 30
0.0
  3
*PAPER_SPACE
  1

  0
ENDBLK
  5
10
100
AcDbEntity
 67
     1
  8
0
100
AcDbBlockEnd
 0
ENDSEC
 0
SECTION
 2
ENTITIES
 0
LINE
 5
87
100
AcDbEntity
 8
Layer8
100
AcDbLine
 39
0.25
 370
106
 10
129.4298
 20
85.8139931640625
 30
0.0
 11
129.4298
 21
79.3259931640625
 31
0.0
 0
LINE
 5
88
100
AcDbEntity
 8
Layer8
100
AcDbLine
 39
0.25
 370
106
 10
210.669
 20
85.1149931640625
 30
0.0
 11
210.669
 21
78.6269931640625
 31
0.0
 0
LINE
 5
89
100
AcDbEntity
 8
Layer8
100
AcDbLine
 39
0.25
 370
106
 10
95.8557
 20
432.414293164062
 30
0.0
 11
95.8557
 21
425.926293164062
 31
0.0
 0
LINE
 5
8A
100
AcDbEntity
 8
Layer8
100
AcDbLine
 39
0.25
 370
106
 10
210.669
 20
431.715193164063
 30
0.0
 11
210.669
 21
425.227193164063
 31
0.0
 0
LINE
 5
8B
100
AcDbEntity
 8
Layer8
100
AcDbLine
 39
0.25
 370
106
 10
28.3465
 20
108.793693164063
 30
0.0
 11
34.8345
 21
108.793693164063
 31
0.0
 0
LINE
 5
8C
100
AcDbEntity
 8
Layer8
100
AcDbLine
 39
0.25
 370
106
 10
29.0455
 20
232.686593164062
 30
0.0
 11
35.5335
 21
232.686593164062
 31
0.0
 0
LINE
 5
8D
100
AcDbEntity
 8
Layer8
100
AcDbLine
 39
0.25
 370
106
 10
238.9542
 20
286.271093164063
 30
0.0
 11
245.4422
 21
286.271093164063
 31
0.0
 0
LINE
 5
8E
100
AcDbEntity
 8
Layer8
100
AcDbLine
 39
0.25
 370
106
 10
239.6532
 20
393.586493164063
 30
0.0
 11
246.1412
 21
393.586493164063
 31
0.0
 0
LINE
 5
8F
100
AcDbEntity
 8
Layer8
100
AcDbLine
 39
0.25
 370
106
 10
102.2457
 20
161.810793164062
 30
0.0
 11
102.2457
 21
195.578793164063
 31
0.0
 0
LINE
 5
90
100
AcDbEntity
 8
Layer8
100
AcDbLine
 39
0.25
 370
106
 10
194.2577
 20
137.586793164063
 30
0.0
 11
194.2577
 21
124.446793164062
 31
0.0
 0
LINE
 5
91
100
AcDbEntity
 8
Layer8
100
AcDbLine
 39
0.25
 370
106
 10
194.2577
 20
232.942793164062
 30
0.0
 11
194.2577
 21
219.807793164063
 31
0.0
 0
LINE
 5
92
100
AcDbEntity
 8
Layer8
100
AcDbLine
 39
0.25
 370
106
 10
202.3867
 20
136.458793164063
 30
0.0
 11
202.3867
 21
124.857793164063
 31
0.0
 0
LINE
 5
93
100
AcDbEntity
 8
Layer8
100
AcDbLine
 39
0.25
 370
106
 10
202.3867
 20
232.532793164062
 30
0.0
 11
202.3867
 21
220.936793164062
 31
0.0
 0
LINE
 5
94
100
AcDbEntity
 8
Layer8
100
AcDbLine
 39
0.25
 370
106
 10
194.2577
 20
219.807793164063
 30
0.0
 11
196.1087
 21
219.699793164063
 31
0.0
 0
LINE
 5
95
100
AcDbEntity
 8
Layer8
100
AcDbLine
 39
0.25
 370
106
 10
196.1087
 20
137.689793164063
 30
0.0
 11
194.2577
 21
137.586793164063
 31
0.0
 0
LINE
 5
96
100
AcDbEntity
 8
Layer8
100
AcDbLine
 39
0.25
 370
106
 10
194.2577
 20
137.586793164063
 30
0.0
 11
194.3597
 21
137.586793164063
 31
0.0
 0
LINE
 5
97
100
AcDbEntity
 8
Layer8
100
AcDbLine
 39
0.25
 370
106
 10
194.3597
 20
137.586793164063
 30
0.0
 11
194.3597
 21
137.689793164063
 31
0.0
 0
LINE
 5
98
100
AcDbEntity
 8
Layer8
100
AcDbLine
 39
0.25
 370
106
 10
194.3597
 20
137.689793164063
 30
0.0
 11
194.4627
 21
137.689793164063
 31
0.0
 0
LINE
 5
99
100
AcDbEntity
 8
Layer8
100
AcDbLine
 39
0.25
 370
106
 10
194.4627
 20
137.689793164063
 30
0.0
 11
194.8727
 21
137.792793164062
 31
0.0
 0
LINE
 5
9A
100
AcDbEntity
 8
Layer8
100
AcDbLine
 39
0.25
 370
106
 10
194.8727
 20
137.792793164062
 30
0.0
 11
195.0837
 21
137.792793164062
 31
0.0
 0
LINE
 5
9B
100
AcDbEntity
 8
Layer8
100
AcDbLine
 39
0.25
 370
106
 10
195.0837
 20
219.494793164062
 30
0.0
 11
194.8727
 21
219.597793164062
 31
0.0
 0
LINE
 5
9C
100
AcDbEntity
 8
Layer8
100
AcDbLine
 39
0.25
 370
106
 10
194.8727
 20
219.597793164062
 30
0.0
 11
194.4627
 21
219.597793164062
 31
0.0
 0
LINE
 5
9D
100
AcDbEntity
 8
Layer8
100
AcDbLine
 39
0.25
 370
106
 10
194.4627
 20
219.597793164062
 30
0.0
 11
194.2577
 21
219.807793164063
 31
0.0
 0
LINE
 5
9E
100
AcDbEntity
 8
Layer8
100
AcDbLine
 39
0.25
 370
106
 10
200.0227
 20
137.381793164063
 30
0.0
 11
197.7557
 21
138.202793164062
 31
0.0
 0
LINE
 5
9F
100
AcDbEntity
 8
Layer8
100
AcDbLine
 39
0.25
 370
106
 10
202.3867
 20
138.202793164062
 30
0.0
 11
202.3867
 21
137.176793164062
 31
0.0
 0
LINE
 5
A0
100
AcDbEntity
 8
Layer8
100
AcDbLine
 39
0.25
 370
106
 10
197.2427
 20
137.279793164062
 30
0.0
 11
197.2427
 21
137.381793164063
 31
0.0
 0
LINE
 5
A1
100
AcDbEntity
 8
Layer8
100
AcDbLine
 39
0.25
 370
106
 10
197.2427
 20
137.381793164063
 30
0.0
 11
197.1397
 21
137.484793164062
 31
0.0
 0
LINE
 5
A2
100
AcDbEntity
 8
Layer8
100
AcDbLine
 39
0.25
 370
106
 10
197.1397
 20
137.484793164062
 30
0.0
 11
197.1397
 21
137.586793164063
 31
0.0
 0
LINE
 5
A3
100
AcDbEntity
 8
Layer8
100
AcDbLine
 39
0.25
 370
106
 10
197.0377
 20
137.792793164062
 30
0.0
 11
196.3147
 21
138.099793164062
 31
0.0
 0
LINE
 5
A4
100
AcDbEntity
 8
Layer8
100
AcDbLine
 39
0.25
 370
106
 10
196.3147
 20
138.099793164062
 30
0.0
 11
196.2117
 21
138.202793164062
 31
0.0
 0
LINE
 5
A5
100
AcDbEntity
 8
Layer8
100
AcDbLine
 39
0.25
 370
106
 10
202.3867
 20
136.458793164063
 30
0.0
 11
202.3867
 21
137.176793164062
 31
0.0
 0
LINE
 5
A6
100
AcDbEntity
 8
Layer8
100
AcDbLine
 39
0.25
 370
106
 10
197.2427
 20
220.007793164062
 30
0.0
 11
197.1397
 21
219.910793164062
 31
0.0
 0
LINE
 5
A7
100
AcDbEntity
 8
Layer8
100
AcDbLine
 39
0.25
 370
106
 10
197.1397
 20
219.910793164062
 30
0.0
 11
197.1397
 21
219.807793164063
 31
0.0
 0
LINE
 5
A8
100
AcDbEntity
 8
Layer8
100
AcDbLine
 39
0.25
 370
106
 10
201.0537
 20
220.936793164062
 30
0.0
 11
201.1507
 21
220.936793164062
 31
0.0
 0
LINE
 5
A9
100
AcDbEntity
 8
Layer8
100
AcDbLine
 39
0.25
 370
106
 10
202.6947
 20
220.730793164063
 30
0.0
 11
202.5917
 21
220.833793164062
 31
0.0
 0
LINE
 5
AA
100
AcDbEntity
 8
Layer8
100
AcDbLine
 39
0.25
 370
106
 10
202.5917
 20
220.833793164062
 30
0.0
 11
202.4897
 21
220.833793164062
 31
0.0
 0
LINE
 5
AB
100
AcDbEntity
 8
Layer8
100
AcDbLine
 39
0.25
 370
106
 10
202.4897
 20
220.833793164062
 30
0.0
 11
202.3867
 21
220.936793164062
 31
0.0
 0
LINE
 5
AC
100
AcDbEntity
 8
Layer8
100
AcDbLine
 39
0.25
 370
106
 10
193.9497
 20
140.869793164062
 30
0.0
 11
194.2577
 21
140.971793164062
 31
0.0
 0
LINE
 5
AD
100
AcDbEntity
 8
Layer8
100
AcDbLine
 39
0.25
 370
106
 10
194.2577
 20
140.971793164062
 30
0.0
 11
194.7707
 21
140.971793164062
 31
0.0
 0
LINE
 5
AE
100
AcDbEntity
 8
Layer8
100
AcDbLine
 39
0.25
 370
106
 10
198.5817
 20
219.187793164063
 30
0.0
 11
198.8887
 21
219.187793164063
 31
0.0
 0
LINE
 5
AF
100
AcDbEntity
 8
Layer8
100
AcDbLine
 39
0.25
 370
106
 10
198.8887
 20
219.187793164063
 30
0.0
 11
199.2997
 21
219.289793164062
 31
0.0
 0
LINE
 5
B0
100
AcDbEntity
 8
Layer8
100
AcDbLine
 39
0.25
 370
106
 10
199.2997
 20
219.289793164062
 30
0.0
 11
199.7097
 21
219.289793164062
 31
0.0
 0
LINE
 5
B1
100
AcDbEntity
 8
Layer8
100
AcDbLine
 39
0.25
 370
106
 10
202.3867
 20
220.520793164063
 30
0.0
 11
202.4897
 21
220.423793164062
 31
0.0
 0
LINE
 5
B2
100
AcDbEntity
 8
Layer8
100
AcDbLine
 39
0.25
 370
106
 10
202.4897
 20
220.423793164062
 30
0.0
 11
202.5917
 21
220.423793164062
 31
0.0
 0
LINE
 5
B3
100
AcDbEntity
 8
Layer8
100
AcDbLine
 39
0.25
 370
106
 10
202.5917
 20
220.423793164062
 30
0.0
 11
202.6947
 21
220.320793164062
 31
0.0
 0
LINE
 5
B4
100
AcDbEntity
 8
Layer8
100
AcDbLine
 39
0.25
 370
106
 10
195.1857
 20
216.622793164063
 30
0.0
 11
195.0837
 21
216.622793164063
 31
0.0
 0
LINE
 5
B5
100
AcDbEntity
 8
Layer8
100
AcDbLine
 39
0.25
 370
106
 10
195.0837
 20
216.622793164063
 30
0.0
 11
194.6677
 21
216.725793164062
 31
0.0
 0
LINE
 5
B6
100
AcDbEntity
 8
Layer8
100
AcDbLine
 39
0.25
 370
106
 10
194.6677
 20
216.725793164062
 30
0.0
 11
194.3597
 21
216.725793164062
 31
0.0
 0
LINE
 5
B7
100
AcDbEntity
 8
Layer8
100
AcDbLine
 39
0.25
 370
106
 10
194.3597
 20
216.725793164062
 30
0.0
 11
194.2577
 21
216.827793164062
 31
0.0
 0
LINE
 5
B8
100
AcDbEntity
 8
Layer8
100
AcDbLine
 39
0.25
 370
106
 10
202.3867
 20
139.022793164062
 30
0.0
 11
202.3867
 21
139.535793164063
 31
0.0
 0
LINE
 5
B9
100
AcDbEntity
 8
Layer8
100
AcDbLine
 39
0.25
 370
106
 10
199.8177
 20
139.433793164062
 30
0.0
 11
199.8177
 21
139.330793164062
 31
0.0
 0
LINE
 5
BA
100
AcDbEntity
 8
Layer8
100
AcDbLine
 39
0.25
 370
106
 10
200.9457
 20
139.535793164063
 30
0.0
 11
200.9457
 21
139.022793164062
 31
0.0
 0
LINE
 5
BB
100
AcDbEntity
 8
Layer8
100
AcDbLine
 39
0.25
 370
106
 10
200.4327
 20
219.494793164062
 30
0.0
 11
200.1247
 21
219.910793164062
 31
0.0
 0
LINE
 5
BC
100
AcDbEntity
 8
Layer8
100
AcDbLine
 39
0.25
 370
106
 10
200.1247
 20
219.910793164062
 30
0.0
 11
198.9917
 21
220.007793164062
 31
0.0
 0
LINE
 5
BD
100
AcDbEntity
 8
Layer8
100
AcDbLine
 39
0.25
 370
106
 10
198.9917
 20
220.007793164062
 30
0.0
 11
198.3757
 21
219.910793164062
 31
0.0
 0
LINE
 5
BE
100
AcDbEntity
 8
Layer8
100
AcDbLine
 39
0.25
 370
106
 10
198.3757
 20
219.910793164062
 30
0.0
 11
196.4167
 21
219.187793164063
 31
0.0
 0
ARC
 5
BF
100
AcDbEntity
 8
Layer8
100
AcDbCircle
 39
0.25
 370
106
 10
194.649201762731
 20
224.247498727896
 30
0.0
 40
7.72895606001723
100
AcDbArc
 50
-91.3826965847024
 51
-55.8163065536488
 0
LINE
 5
C0
100
AcDbEntity
 8
Layer8
100
AcDbLine
 39
0.25
 370
106
 10
193.9497
 20
216.827793164062
 30
0.0
 11
194.4627
 21
216.520793164063
 31
0.0
 0
LINE
 5
C1
100
AcDbEntity
 8
Layer8
100
AcDbLine
 39
0.25
 370
106
 10
198.9917
 20
217.853793164062
 30
0.0
 11
200.1247
 21
218.879793164063
 31
0.0
 0
LINE
 5
C2
100
AcDbEntity
 8
Layer8
100
AcDbLine
 39
0.25
 370
106
 10
200.1247
 20
218.879793164063
 30
0.0
 11
200.4327
 21
219.494793164062
 31
0.0
 0
LINE
 5
C3
100
AcDbEntity
 8
Layer8
100
AcDbLine
 39
0.25
 370
106
 10
191.7857
 20
137.689793164063
 30
0.0
 11
191.7857
 21
137.586793164063
 31
0.0
 0
LINE
 5
C4
100
AcDbEntity
 8
Layer8
100
AcDbLine
 39
0.25
 370
106
 10
192.8167
 20
138.202793164062
 30
0.0
 11
192.9187
 21
138.202793164062
 31
0.0
 0
LINE
 5
C5
100
AcDbEntity
 8
Layer8
100
AcDbLine
 39
0.25
 370
106
 10
192.3037
 20
140.561793164062
 30
0.0
 11
192.3037
 21
139.946793164062
 31
0.0
 0
LINE
 5
C6
100
AcDbEntity
 8
Layer8
100
AcDbLine
 39
0.25
 370
106
 10
192.3037
 20
139.946793164062
 30
0.0
 11
192.0987
 21
139.433793164062
 31
0.0
 0
LINE
 5
C7
100
AcDbEntity
 8
Layer8
100
AcDbLine
 39
0.25
 370
106
 10
192.0987
 20
139.433793164062
 30
0.0
 11
192.0987
 21
139.330793164062
 31
0.0
 0
LINE
 5
C8
100
AcDbEntity
 8
Layer8
100
AcDbLine
 39
0.25
 370
106
 10
192.9187
 20
140.459793164062
 30
0.0
 11
193.0217
 21
140.459793164062
 31
0.0
 0
LINE
 5
C9
100
AcDbEntity
 8
Layer8
100
AcDbLine
 39
0.25
 370
106
 10
193.0217
 20
140.459793164062
 30
0.0
 11
192.9187
 21
140.459793164062
 31
0.0
 0
LINE
 5
CA
100
AcDbEntity
 8
Layer8
100
AcDbLine
 39
0.25
 370
106
 10
192.9187
 20
140.459793164062
 30
0.0
 11
192.8167
 21
140.253793164062
 31
0.0
 0
LINE
 5
CB
100
AcDbEntity
 8
Layer8
100
AcDbLine
 39
0.25
 370
106
 10
192.8167
 20
140.253793164062
 30
0.0
 11
192.8167
 21
140.048793164062
 31
0.0
 0
LINE
 5
CC
100
AcDbEntity
 8
Layer8
100
AcDbLine
 39
0.25
 370
106
 10
192.8167
 20
140.048793164062
 30
0.0
 11
192.9187
 21
139.740793164063
 31
0.0
 0
LINE
 5
CD
100
AcDbEntity
 8
Layer8
100
AcDbLine
 39
0.25
 370
106
 10
192.9187
 20
139.740793164063
 30
0.0
 11
193.0217
 21
139.535793164063
 31
0.0
 0
LINE
 5
CE
100
AcDbEntity
 8
Layer8
100
AcDbLine
 39
0.25
 370
106
 10
193.0217
 20
139.535793164063
 30
0.0
 11
193.0217
 21
139.433793164062
 31
0.0
 0
LINE
 5
CF
100
AcDbEntity
 8
Layer8
100
AcDbLine
 39
0.25
 370
106
 10
193.0217
 20
139.433793164062
 30
0.0
 11
192.9187
 21
139.228793164062
 31
0.0
 0
LINE
 5
D0
100
AcDbEntity
 8
Layer8
100
AcDbLine
 39
0.25
 370
106
 10
192.9187
 20
139.228793164062
 30
0.0
 11
192.8167
 21
139.125793164062
 31
0.0
 0
LINE
 5
D1
100
AcDbEntity
 8
Layer8
100
AcDbLine
 39
0.25
 370
106
 10
192.0987
 20
139.330793164062
 30
0.0
 11
192.0987
 21
139.433793164062
 31
0.0
 0
LINE
 5
D2
100
AcDbEntity
 8
Layer8
100
AcDbLine
 39
0.25
 370
106
 10
192.0987
 20
139.433793164062
 30
0.0
 11
191.9957
 21
139.433793164062
 31
0.0
 0
LINE
 5
D3
100
AcDbEntity
 8
Layer8
100
AcDbLine
 39
0.25
 370
106
 10
191.9957
 20
139.433793164062
 30
0.0
 11
191.9957
 21
139.535793164063
 31
0.0
 0
LINE
 5
D4
100
AcDbEntity
 8
Layer8
100
AcDbLine
 39
0.25
 370
106
 10
187.5697
 20
138.612793164063
 30
0.0
 11
187.6717
 21
138.099793164062
 31
0.0
 0
LINE
 5
D5
100
AcDbEntity
 8
Layer8
100
AcDbLine
 39
0.25
 370
106
 10
187.6717
 20
138.099793164062
 30
0.0
 11
188.1847
 21
137.484793164062
 31
0.0
 0
LINE
 5
D6
100
AcDbEntity
 8
Layer8
100
AcDbLine
 39
0.25
 370
106
 10
188.1847
 20
137.484793164062
 30
0.0
 11
189.5237
 21
136.971793164062
 31
0.0
 0
LINE
 5
D7
100
AcDbEntity
 8
Layer8
100
AcDbLine
 39
0.25
 370
106
 10
189.5237
 20
136.971793164062
 30
0.0
 11
191.0677
 21
137.176793164062
 31
0.0
 0
LINE
 5
D8
100
AcDbEntity
 8
Layer8
100
AcDbLine
 39
0.25
 370
106
 10
191.0677
 20
137.176793164062
 30
0.0
 11
191.7857
 21
137.689793164063
 31
0.0
 0
LINE
 5
D9
100
AcDbEntity
 8
Layer8
100
AcDbLine
 39
0.25
 370
106
 10
191.7857
 20
139.125793164062
 30
0.0
 11
191.0677
 21
138.612793164063
 31
0.0
 0
LINE
 5
DA
100
AcDbEntity
 8
Layer8
100
AcDbLine
 39
0.25
 370
106
 10
191.0677
 20
138.612793164063
 30
0.0
 11
189.5237
 21
138.407793164062
 31
0.0
 0
LINE
 5
DB
100
AcDbEntity
 8
Layer8
100
AcDbLine
 39
0.25
 370
106
 10
189.5237
 20
138.407793164062
 30
0.0
 11
188.1847
 21
138.920793164063
 31
0.0
 0
LINE
 5
DC
100
AcDbEntity
 8
Layer8
100
AcDbLine
 39
0.25
 370
106
 10
188.1847
 20
138.920793164063
 30
0.0
 11
187.6717
 21
139.535793164063
 31
0.0
 0
LINE
 5
DD
100
AcDbEntity
 8
Layer8
100
AcDbLine
 39
0.25
 370
106
 10
187.6717
 20
139.535793164063
 30
0.0
 11
187.5697
 21
140.048793164062
 31
0.0
 0
LINE
 5
DE
100
AcDbEntity
 8
Layer8
100
AcDbLine
 39
0.25
 370
106
 10
191.6827
 20
139.330793164062
 30
0.0
 11
191.6827
 21
139.228793164062
 31
0.0
 0
LINE
 5
DF
100
AcDbEntity
 8
Layer8
100
AcDbLine
 39
0.25
 370
106
 10
191.6827
 20
139.228793164062
 30
0.0
 11
191.7857
 21
139.228793164062
 31
0.0
 0
LINE
 5
E0
100
AcDbEntity
 8
Layer8
100
AcDbLine
 39
0.25
 370
106
 10
191.7857
 20
139.228793164062
 30
0.0
 11
191.7857
 21
139.125793164062
 31
0.0
 0
LINE
 5
E1
100
AcDbEntity
 8
Layer8
100
AcDbLine
 39
0.25
 370
106
 10
192.0987
 20
219.494793164062
 30
0.0
 11
192.0987
 21
219.597793164062
 31
0.0
 0
LINE
 5
E2
100
AcDbEntity
 8
Layer8
100
AcDbLine
 39
0.25
 370
106
 10
191.7857
 20
219.807793164063
 30
0.0
 11
191.7857
 21
219.699793164063
 31
0.0
 0
LINE
 5
E3
100
AcDbEntity
 8
Layer8
100
AcDbLine
 39
0.25
 370
106
 10
192.9187
 20
219.187793164063
 30
0.0
 11
192.8167
 21
219.187793164063
 31
0.0
 0
LINE
 5
E4
100
AcDbEntity
 8
Layer8
100
AcDbLine
 39
0.25
 370
106
 10
192.0987
 20
217.956793164063
 30
0.0
 11
192.1957
 21
217.853793164062
 31
0.0
 0
LINE
 5
E5
100
AcDbEntity
 8
Layer8
100
AcDbLine
 39
0.25
 370
106
 10
192.1957
 20
217.853793164062
 30
0.0
 11
192.1957
 21
217.648793164062
 31
0.0
 0
LINE
 5
E6
100
AcDbEntity
 8
Layer8
100
AcDbLine
 39
0.25
 370
106
 10
192.1957
 20
217.648793164062
 30
0.0
 11
192.3037
 21
217.135793164062
 31
0.0
 0
LINE
 5
E7
100
AcDbEntity
 8
Layer8
100
AcDbLine
 39
0.25
 370
106
 10
192.3037
 20
217.135793164062
 30
0.0
 11
192.3037
 21
216.725793164062
 31
0.0
 0
LINE
 5
E8
100
AcDbEntity
 8
Layer8
100
AcDbLine
 39
0.25
 370
106
 10
192.8167
 20
218.263793164062
 30
0.0
 11
192.9187
 21
218.058793164062
 31
0.0
 0
LINE
 5
E9
100
AcDbEntity
 8
Layer8
100
AcDbLine
 39
0.25
 370
106
 10
192.9187
 20
218.058793164062
 30
0.0
 11
193.0217
 21
217.956793164063
 31
0.0
 0
LINE
 5
EA
100
AcDbEntity
 8
Layer8
100
AcDbLine
 39
0.25
 370
106
 10
193.0217
 20
217.956793164063
 30
0.0
 11
193.0217
 21
217.648793164062
 31
0.0
 0
LINE
 5
EB
100
AcDbEntity
 8
Layer8
100
AcDbLine
 39
0.25
 370
106
 10
193.0217
 20
217.648793164062
 30
0.0
 11
192.9187
 21
217.648793164062
 31
0.0
 0
LINE
 5
EC
100
AcDbEntity
 8
Layer8
100
AcDbLine
 39
0.25
 370
106
 10
192.9187
 20
217.648793164062
 30
0.0
 11
192.8167
 21
217.340793164062
 31
0.0
 0
LINE
 5
ED
100
AcDbEntity
 8
Layer8
100
AcDbLine
 39
0.25
 370
106
 10
192.8167
 20
217.340793164062
 30
0.0
 11
192.8167
 21
217.135793164062
 31
0.0
 0
LINE
 5
EE
100
AcDbEntity
 8
Layer8
100
AcDbLine
 39
0.25
 370
106
 10
192.8167
 20
217.135793164062
 30
0.0
 11
192.9187
 21
216.930793164062
 31
0.0
 0
LINE
 5
EF
100
AcDbEntity
 8
Layer8
100
AcDbLine
 39
0.25
 370
106
 10
192.9187
 20
216.930793164062
 30
0.0
 11
193.0217
 21
216.827793164062
 31
0.0
 0
LINE
 5
F0
100
AcDbEntity
 8
Layer8
100
AcDbLine
 39
0.25
 370
106
 10
193.0217
 20
216.827793164062
 30
0.0
 11
192.9187
 21
216.827793164062
 31
0.0
 0
LINE
 5
F1
100
AcDbEntity
 8
Layer8
100
AcDbLine
 39
0.25
 370
106
 10
192.0987
 20
217.956793164063
 30
0.0
 11
191.9957
 21
217.853793164062
 31
0.0
 0
LINE
 5
F2
100
AcDbEntity
 8
Layer8
100
AcDbLine
 39
0.25
 370
106
 10
191.9957
 20
217.853793164062
 30
0.0
 11
191.9957
 21
217.751793164062
 31
0.0
 0
LINE
 5
F3
100
AcDbEntity
 8
Layer8
100
AcDbLine
 39
0.25
 370
106
 10
191.7857
 20
219.699793164063
 30
0.0
 11
191.0677
 21
220.218793164063
 31
0.0
 0
LINE
 5
F4
100
AcDbEntity
 8
Layer8
100
AcDbLine
 39
0.25
 370
106
 10
191.0677
 20
220.218793164063
 30
0.0
 11
189.5237
 21
220.320793164062
 31
0.0
 0
LINE
 5
F5
100
AcDbEntity
 8
Layer8
100
AcDbLine
 39
0.25
 370
106
 10
189.5237
 20
220.320793164062
 30
0.0
 11
188.1847
 21
219.910793164062
 31
0.0
 0
LINE
 5
F6
100
AcDbEntity
 8
Layer8
100
AcDbLine
 39
0.25
 370
106
 10
188.1847
 20
219.910793164062
 30
0.0
 11
187.6717
 21
219.289793164062
 31
0.0
 0
LINE
 5
F7
100
AcDbEntity
 8
Layer8
100
AcDbLine
 39
0.25
 370
106
 10
187.6717
 20
219.289793164062
 30
0.0
 11
187.5697
 21
218.776793164063
 31
0.0
 0
LINE
 5
F8
100
AcDbEntity
 8
Layer8
100
AcDbLine
 39
0.25
 370
106
 10
191.7857
 20
218.263793164062
 30
0.0
 11
191.7857
 21
218.161793164062
 31
0.0
 0
LINE
 5
F9
100
AcDbEntity
 8
Layer8
100
AcDbLine
 39
0.25
 370
106
 10
191.7857
 20
218.161793164062
 30
0.0
 11
191.6827
 21
218.058793164062
 31
0.0
 0
ARC
 5
FA
100
AcDbEntity
 8
Layer8
100
AcDbCircle
 39
0.25
 370
106
 10
189.996096091097
 20
214.741605544502
 30
0.0
 40
4.17505377960925
100
AcDbArc
 50
75.1275383920274
 51
109.59807342326
 0
LINE
 5
FB
100
AcDbEntity
 8
Layer8
100
AcDbLine
 39
0.25
 370
106
 10
187.5697
 20
217.238793164062
 30
0.0
 11
187.6717
 21
217.853793164062
 31
0.0
 0
LINE
 5
FC
100
AcDbEntity
 8
Layer8
100
AcDbLine
 39
0.25
 370
106
 10
187.6717
 20
217.853793164062
 30
0.0
 11
188.5957
 21
218.674793164062
 31
0.0
 0
LINE
 5
FD
100
AcDbEntity
 8
Layer8
100
AcDbLine
 39
0.25
 370
106
 10
191.0677
 20
218.776793164063
 30
0.0
 11
191.7857
 21
218.263793164062
 31
0.0
 0
LINE
 5
FE
100
AcDbEntity
 8
Layer8
100
AcDbLine
 39
0.25
 370
106
 10
99.0557
 20
179.976793164062
 30
0.0
 11
99.0557
 21
177.412793164062
 31
0.0
 0
LINE
 5
FF
100
AcDbEntity
 8
Layer8
100
AcDbLine
 39
0.25
 370
106
 10
98.6397
 20
179.976793164062
 30
0.0
 11
98.6397
 21
177.412793164062
 31
0.0
 0
ARC
 5
100
100
AcDbEntity
 8
Layer8
100
AcDbCircle
 39
0.25
 370
106
 10
144.227750645574
 20
178.607725520718
 30
0.0
 40
1.26709257950836
100
AcDbArc
 50
10.9675253479139
 51
89.6405413040169
 0
ARC
 5
101
100
AcDbEntity
 8
Layer8
100
AcDbCircle
 39
0.25
 370
106
 10
144.294019677504
 20
178.69647990738
 30
0.0
 40
1.18748906106722
100
AcDbArc
 50
-177.457055042857
 51
7.36934343859034
 0
LINE
 5
102
100
AcDbEntity
 8
Layer8
100
AcDbLine
 39
0.25
 370
106
 10
143.2097
 20
179.053793164062
 30
0.0
 11
143.3127
 21
179.361793164062
 31
0.0
 0
LINE
 5
103
100
AcDbEntity
 8
Layer8
100
AcDbLine
 39
0.25
 370
106
 10
143.3127
 20
179.361793164062
 30
0.0
 11
144.2357
 21
179.874793164062
 31
0.0
 0
LINE
 5
104
100
AcDbEntity
 8
Layer8
100
AcDbLine
 39
0.25
 370
106
 10
143.1077
 20
178.643793164062
 30
0.0
 11
143.2097
 21
179.053793164062
 31
0.0
 0
ARC
 5
105
100
AcDbEntity
 8
Layer8
100
AcDbCircle
 39
0.25
 370
106
 10
144.292399902563
 20
178.695143115346
 30
0.0
 40
1.08820211238763
100
AcDbArc
 50
-81.9015380728503
 51
45.0130288372685
 0
ARC
 5
106
100
AcDbEntity
 8
Layer8
100
AcDbCircle
 39
0.25
 370
106
 10
144.302919806534
 20
178.343771800828
 30
0.0
 40
1.35367510091
100
AcDbArc
 50
55.9073016347462
 51
115.380369041549
 0
LINE
 5
107
100
AcDbEntity
 8
Layer8
100
AcDbLine
 39
0.25
 370
106
 10
143.3127
 20
178.335793164062
 30
0.0
 11
143.7227
 21
177.822793164062
 31
0.0
 0
LINE
 5
108
100
AcDbEntity
 8
Layer8
100
AcDbLine
 39
0.25
 370
106
 10
143.7227
 20
177.822793164062
 30
0.0
 11
144.4457
 21
177.617793164063
 31
0.0
 0
LINE
 5
109
100
AcDbEntity
 8
Layer8
100
AcDbLine
 39
0.25
 370
106
 10
143.7227
 20
179.566793164062
 30
0.0
 11
143.3127
 21
179.053793164062
 31
0.0
 0
LINE
 5
10A
100
AcDbEntity
 8
Layer8
100
AcDbLine
 39
0.25
 370
106
 10
143.3127
 20
179.053793164062
 30
0.0
 11
143.3127
 21
178.335793164062
 31
0.0
 0
ARC
 5
10B
100
AcDbEntity
 8
Layer8
100
AcDbCircle
 39
0.25
 370
106
 10
144.359227194758
 20
178.684323531033
 30
0.0
 40
4.06934975017291
100
AcDbArc
 50
-172.182146841682
 51
-109.51718298712
 0
LINE
 5
10C
100
AcDbEntity
 8
Layer8
100
AcDbLine
 39
0.25
 370
106
 10
142.9997
 20
174.848793164063
 30
0.0
 11
144.3437
 21
174.642793164062
 31
0.0
 0
ARC
 5
10D
100
AcDbEntity
 8
Layer8
100
AcDbCircle
 39
0.25
 370
106
 10
144.238439285615
 20
178.388087191973
 30
0.0
 40
4.28159978152655
100
AcDbArc
 50
32.6938481955991
 51
84.4746235461845
 0
ARC
 5
10E
100
AcDbEntity
 8
Layer8
100
AcDbCircle
 39
0.25
 370
106
 10
144.486502069208
 20
178.272288605991
 30
0.0
 40
4.3805829653609
100
AcDbArc
 50
87.8518720253071
 51
146.332026224865
 0
LINE
 5
10F
100
AcDbEntity
 8
Layer8
100
AcDbLine
 39
0.25
 370
106
 10
148.2517
 20
179.258793164062
 30
0.0
 11
147.8417
 21
180.700793164062
 31
0.0
 0
LINE
 5
110
100
AcDbEntity
 8
Layer8
100
AcDbLine
 39
0.25
 370
106
 10
140.8407
 20
180.700793164062
 30
0.0
 11
140.5327
 21
180.079793164062
 31
0.0
 0
LINE
 5
111
100
AcDbEntity
 8
Layer8
100
AcDbLine
 39
0.25
 370
106
 10
140.5327
 20
180.079793164062
 30
0.0
 11
140.3277
 21
179.258793164062
 31
0.0
 0
ARC
 5
112
100
AcDbEntity
 8
Layer8
100
AcDbCircle
 39
0.25
 370
106
 10
144.042230249955
 20
179.324818729359
 30
0.0
 40
4.69172115585381
100
AcDbArc
 50
-86.3158823892738
 51
-47.3542528658274
 0
LINE
 5
113
100
AcDbEntity
 8
Layer8
100
AcDbLine
 39
0.25
 370
106
 10
147.2207
 20
175.873793164062
 30
0.0
 11
147.9437
 21
177.002793164063
 31
0.0
 0
LINE
 5
114
100
AcDbEntity
 8
Layer8
100
AcDbLine
 39
0.25
 370
106
 10
147.9437
 20
177.002793164063
 30
0.0
 11
148.2517
 21
178.130793164062
 31
0.0
 0
LINE
 5
115
100
AcDbEntity
 8
Layer8
100
AcDbLine
 39
0.25
 370
106
 10
148.4567
 20
178.130793164062
 30
0.0
 11
148.0467
 21
176.797793164062
 31
0.0
 0
LINE
 5
116
100
AcDbEntity
 8
Layer8
100
AcDbLine
 39
0.25
 370
106
 10
148.0467
 20
176.797793164062
 30
0.0
 11
146.8107
 21
175.360793164063
 31
0.0
 0
LINE
 5
117
100
AcDbEntity
 8
Layer8
100
AcDbLine
 39
0.25
 370
106
 10
146.8107
 20
175.360793164063
 30
0.0
 11
146.1897
 21
174.950793164062
 31
0.0
 0
LINE
 5
118
100
AcDbEntity
 8
Layer8
100
AcDbLine
 39
0.25
 370
106
 10
146.1897
 20
174.950793164062
 30
0.0
 11
144.9587
 21
174.540793164063
 31
0.0
 0
LINE
 5
119
100
AcDbEntity
 8
Layer8
100
AcDbLine
 39
0.25
 370
106
 10
144.9587
 20
174.540793164063
 30
0.0
 11
144.3437
 21
174.540793164063
 31
0.0
 0
ARC
 5
11A
100
AcDbEntity
 8
Layer8
100
AcDbCircle
 39
0.25
 370
106
 10
144.287199999999
 20
178.518419787441
 30
0.0
 40
4.32734355315882
100
AcDbArc
 50
54.3274401894667
 51
107.30910796471
 0
LINE
 5
11B
100
AcDbEntity
 8
Layer8
100
AcDbLine
 39
0.25
 370
106
 10
140.2247
 20
179.258793164062
 30
0.0
 11
140.3277
 21
179.976793164062
 31
0.0
 0
LINE
 5
11C
100
AcDbEntity
 8
Layer8
100
AcDbLine
 39
0.25
 370
106
 10
140.3277
 20
179.976793164062
 30
0.0
 11
141.3537
 21
181.623793164062
 31
0.0
 0
LINE
 5
11D
100
AcDbEntity
 8
Layer8
100
AcDbLine
 39
0.25
 370
106
 10
141.3537
 20
181.623793164062
 30
0.0
 11
142.9997
 21
182.649793164062
 31
0.0
 0
LINE
 5
11E
100
AcDbEntity
 8
Layer8
100
AcDbLine
 39
0.25
 370
106
 10
146.8107
 20
182.033793164063
 30
0.0
 11
148.0467
 21
180.592793164063
 31
0.0
 0
LINE
 5
11F
100
AcDbEntity
 8
Layer8
100
AcDbLine
 39
0.25
 370
106
 10
148.0467
 20
180.592793164063
 30
0.0
 11
148.4567
 21
179.258793164062
 31
0.0
 0
ARC
 5
120
100
AcDbEntity
 8
Layer8
100
AcDbCircle
 39
0.25
 370
106
 10
144.221385551724
 20
178.490435974507
 30
0.0
 40
3.95153630305406
100
AcDbArc
 50
-146.070423688136
 51
-88.226203502963
 0
LINE
 5
121
100
AcDbEntity
 8
Layer8
100
AcDbLine
 39
0.25
 370
106
 10
140.9427
 20
176.284793164062
 30
0.0
 11
140.3277
 21
177.412793164062
 31
0.0
 0
LINE
 5
122
100
AcDbEntity
 8
Layer8
100
AcDbLine
 39
0.25
 370
106
 10
140.3277
 20
177.412793164062
 30
0.0
 11
140.2247
 21
178.130793164062
 31
0.0
 0
ARC
 5
123
100
AcDbEntity
 8
Layer8
100
AcDbCircle
 39
0.25
 370
106
 10
144.244405737999
 20
178.841377443911
 30
0.0
 40
1.9059751612707
100
AcDbArc
 50
102.690272900876
 51
167.349474429772
 0
LINE
 5
124
100
AcDbEntity
 8
Layer8
100
AcDbLine
 39
0.25
 370
106
 10
143.8257
 20
180.700793164062
 30
0.0
 11
144.3437
 21
180.700793164062
 31
0.0
 0
ARC
 5
125
100
AcDbEntity
 8
Layer8
100
AcDbCircle
 39
0.25
 370
106
 10
144.242290144238
 20
178.730502298671
 30
0.0
 40
2.14111202913474
100
AcDbArc
 50
-87.2852745585089
 51
-16.2657174891076
 0
ARC
 5
126
100
AcDbEntity
 8
Layer8
100
AcDbCircle
 39
0.25
 370
106
 10
144.267610723176
 20
178.511248723971
 30
0.0
 40
1.9209630981659
100
AcDbArc
 50
-168.576780210839
 51
-87.7299224357724
 0
ARC
 5
127
100
AcDbEntity
 8
Layer8
100
AcDbCircle
 39
0.25
 370
106
 10
144.433963871442
 20
178.778210365723
 30
0.0
 40
1.92470054370881
100
AcDbArc
 50
14.4593015418939
 51
92.6880215456479
 0
ARC
 5
128
100
AcDbEntity
 8
Layer8
100
AcDbCircle
 39
0.25
 370
106
 10
144.135700000001
 20
178.919009727391
 30
0.0
 40
1.48343816313331
100
AcDbArc
 50
81.9397234449656
 51
166.758775864975
 0
ARC
 5
129
100
AcDbEntity
 8
Layer8
100
AcDbCircle
 39
0.25
 370
106
 10
144.34084703761
 20
178.62655072714
 30
0.0
 40
1.76124474761573
100
AcDbArc
 50
21.0372467922226
 51
89.9071890628668
 0
ARC
 5
12A
100
AcDbEntity
 8
Layer8
100
AcDbCircle
 39
0.25
 370
106
 10
144.338200000001
 20
178.60524163203
 30
0.0
 40
1.71349455755142
100
AcDbArc
 50
-163.925358652281
 51
-16.0746413477339
 0
LINE
 5
12B
100
AcDbEntity
 8
Layer8
100
AcDbLine
 39
0.25
 370
106
 10
145.9847
 20
179.258793164062
 30
0.0
 11
146.7077
 21
179.258793164062
 31
0.0
 0
LINE
 5
12C
100
AcDbEntity
 8
Layer8
100
AcDbLine
 39
0.25
 370
106
 10
145.9847
 20
178.130793164062
 30
0.0
 11
146.7077
 21
178.130793164062
 31
0.0
 0
LINE
 5
12D
100
AcDbEntity
 8
Layer8
100
AcDbLine
 39
0.25
 370
106
 10
145.9847
 20
178.130793164062
 30
0.0
 11
145.9847
 21
179.258793164062
 31
0.0
 0
LINE
 5
12E
100
AcDbEntity
 8
Layer8
100
AcDbLine
 39
0.25
 370
106
 10
142.6917
 20
179.258793164062
 30
0.0
 11
141.8717
 21
179.258793164062
 31
0.0
 0
LINE
 5
12F
100
AcDbEntity
 8
Layer8
100
AcDbLine
 39
0.25
 370
106
 10
142.6917
 20
178.130793164062
 30
0.0
 11
141.8717
 21
178.130793164062
 31
0.0
 0
LINE
 5
130
100
AcDbEntity
 8
Layer8
100
AcDbLine
 39
0.25
 370
106
 10
142.6917
 20
178.130793164062
 30
0.0
 11
142.6917
 21
179.258793164062
 31
0.0
 0
LINE
 5
131
100
AcDbEntity
 8
Layer8
100
AcDbLine
 39
0.25
 370
106
 10
150.1027
 20
179.258793164062
 30
0.0
 11
146.7077
 21
179.258793164062
 31
0.0
 0
LINE
 5
132
100
AcDbEntity
 8
Layer8
100
AcDbLine
 39
0.25
 370
106
 10
150.1027
 20
178.130793164062
 30
0.0
 11
146.7077
 21
178.130793164062
 31
0.0
 0
LINE
 5
133
100
AcDbEntity
 8
Layer8
100
AcDbLine
 39
0.25
 370
106
 10
146.7077
 20
178.130793164062
 30
0.0
 11
146.7077
 21
179.258793164062
 31
0.0
 0
LINE
 5
134
100
AcDbEntity
 8
Layer8
100
AcDbLine
 39
0.25
 370
106
 10
141.8717
 20
178.130793164062
 30
0.0
 11
141.8717
 21
179.258793164062
 31
0.0
 0
LINE
 5
135
100
AcDbEntity
 8
Layer8
100
AcDbLine
 39
0.25
 370
106
 10
141.8717
 20
179.258793164062
 30
0.0
 11
138.4707
 21
179.258793164062
 31
0.0
 0
LINE
 5
136
100
AcDbEntity
 8
Layer8
100
AcDbLine
 39
0.25
 370
106
 10
141.8717
 20
178.130793164062
 30
0.0
 11
138.4707
 21
178.130793164062
 31
0.0
 0
LINE
 5
137
100
AcDbEntity
 8
Layer8
100
AcDbLine
 39
0.25
 370
106
 10
100.5997
 20
163.554793164063
 30
0.0
 11
100.5997
 21
193.835793164062
 31
0.0
 0
LINE
 5
138
100
AcDbEntity
 8
Layer8
100
AcDbLine
 39
0.25
 370
106
 10
155.6627
 20
161.297793164062
 30
0.0
 11
155.6627
 21
196.096793164062
 31
0.0
 0
LINE
 5
139
100
AcDbEntity
 8
Layer8
100
AcDbLine
 39
0.25
 370
106
 10
156.3807
 20
160.579793164062
 30
0.0
 11
156.3807
 21
196.712793164062
 31
0.0
 0
LINE
 5
13A
100
AcDbEntity
 8
Layer8
100
AcDbLine
 39
0.25
 370
106
 10
193.7397
 20
140.459793164062
 30
0.0
 11
193.7397
 21
178.643793164062
 31
0.0
 0
LINE
 5
13B
100
AcDbEntity
 8
Layer8
100
AcDbLine
 39
0.25
 370
106
 10
193.7397
 20
127.221793164062
 30
0.0
 11
193.7397
 21
138.202793164062
 31
0.0
 0
LINE
 5
13C
100
AcDbEntity
 8
Layer8
100
AcDbLine
 39
0.25
 370
106
 10
193.7397
 20
219.187793164063
 30
0.0
 11
193.7397
 21
230.070793164062
 31
0.0
 0
LINE
 5
13D
100
AcDbEntity
 8
Layer8
100
AcDbLine
 39
0.25
 370
106
 10
193.7397
 20
178.643793164062
 30
0.0
 11
193.7397
 21
216.827793164062
 31
0.0
 0
LINE
 5
13E
100
AcDbEntity
 8
Layer8
100
AcDbLine
 39
0.25
 370
106
 10
193.9497
 20
137.586793164063
 30
0.0
 11
193.9497
 21
124.446793164062
 31
0.0
 0
LINE
 5
13F
100
AcDbEntity
 8
Layer8
100
AcDbLine
 39
0.25
 370
106
 10
193.9497
 20
232.840793164062
 30
0.0
 11
193.9497
 21
219.699793164063
 31
0.0
 0
LINE
 5
140
100
AcDbEntity
 8
Layer8
100
AcDbLine
 39
0.25
 370
106
 10
202.6947
 20
136.663793164063
 30
0.0
 11
202.6947
 21
125.164793164062
 31
0.0
 0
LINE
 5
141
100
AcDbEntity
 8
Layer8
100
AcDbLine
 39
0.25
 370
106
 10
202.6947
 20
232.224793164062
 30
0.0
 11
202.6947
 21
220.423793164062
 31
0.0
 0
LINE
 5
142
100
AcDbEntity
 8
Layer8
100
AcDbLine
 39
0.25
 370
106
 10
193.9497
 20
137.894793164062
 30
0.0
 11
193.9497
 21
137.586793164063
 31
0.0
 0
LINE
 5
143
100
AcDbEntity
 8
Layer8
100
AcDbLine
 39
0.25
 370
106
 10
194.2577
 20
137.586793164063
 30
0.0
 11
193.9497
 21
137.586793164063
 31
0.0
 0
LINE
 5
144
100
AcDbEntity
 8
Layer8
100
AcDbLine
 39
0.25
 370
106
 10
195.0837
 20
137.792793164062
 30
0.0
 11
195.1857
 21
137.792793164062
 31
0.0
 0
LINE
 5
145
100
AcDbEntity
 8
Layer8
100
AcDbLine
 39
0.25
 370
106
 10
193.9497
 20
219.699793164063
 30
0.0
 11
193.9497
 21
219.494793164062
 31
0.0
 0
LINE
 5
146
100
AcDbEntity
 8
Layer8
100
AcDbLine
 39
0.25
 370
106
 10
195.1857
 20
219.494793164062
 30
0.0
 11
195.0837
 21
219.494793164062
 31
0.0
 0
LINE
 5
147
100
AcDbEntity
 8
Layer8
100
AcDbLine
 39
0.25
 370
106
 10
194.2577
 20
219.807793164063
 30
0.0
 11
194.1547
 21
219.807793164063
 31
0.0
 0
LINE
 5
148
100
AcDbEntity
 8
Layer8
100
AcDbLine
 39
0.25
 370
106
 10
194.1547
 20
219.807793164063
 30
0.0
 11
193.9497
 21
219.699793164063
 31
0.0
 0
LINE
 5
149
100
AcDbEntity
 8
Layer8
100
AcDbLine
 39
0.25
 370
106
 10
202.6947
 20
137.073793164063
 30
0.0
 11
202.6947
 21
136.971793164062
 31
0.0
 0
LINE
 5
14A
100
AcDbEntity
 8
Layer8
100
AcDbLine
 39
0.25
 370
106
 10
197.1397
 20
138.202793164062
 30
0.0
 11
197.0377
 21
138.099793164062
 31
0.0
 0
LINE
 5
14B
100
AcDbEntity
 8
Layer8
100
AcDbLine
 39
0.25
 370
106
 10
197.0377
 20
138.099793164062
 30
0.0
 11
197.0377
 21
137.792793164062
 31
0.0
 0
LINE
 5
14C
100
AcDbEntity
 8
Layer8
100
AcDbLine
 39
0.25
 370
106
 10
202.4897
 20
137.279793164062
 30
0.0
 11
202.4897
 21
137.176793164062
 31
0.0
 0
LINE
 5
14D
100
AcDbEntity
 8
Layer8
100
AcDbLine
 39
0.25
 370
106
 10
202.6947
 20
136.766793164063
 30
0.0
 11
202.6947
 21
136.971793164062
 31
0.0
 0
LINE
 5
14E
100
AcDbEntity
 8
Layer8
100
AcDbLine
 39
0.25
 370
106
 10
202.3867
 20
137.176793164062
 30
0.0
 11
202.5917
 21
137.176793164062
 31
0.0
 0
LINE
 5
14F
100
AcDbEntity
 8
Layer8
100
AcDbLine
 39
0.25
 370
106
 10
202.5917
 20
137.176793164062
 30
0.0
 11
202.5917
 21
137.073793164063
 31
0.0
 0
LINE
 5
150
100
AcDbEntity
 8
Layer8
100
AcDbLine
 39
0.25
 370
106
 10
202.6947
 20
136.971793164062
 30
0.0
 11
202.6947
 21
137.073793164063
 31
0.0
 0
LINE
 5
151
100
AcDbEntity
 8
Layer8
100
AcDbLine
 39
0.25
 370
106
 10
202.6947
 20
137.073793164063
 30
0.0
 11
202.5917
 21
137.073793164063
 31
0.0
 0
LINE
 5
152
100
AcDbEntity
 8
Layer8
100
AcDbLine
 39
0.25
 370
106
 10
200.9457
 20
137.176793164062
 30
0.0
 11
200.5357
 21
137.176793164062
 31
0.0
 0
LINE
 5
153
100
AcDbEntity
 8
Layer8
100
AcDbLine
 39
0.25
 370
106
 10
200.5357
 20
137.176793164062
 30
0.0
 11
200.0227
 21
137.381793164063
 31
0.0
 0
LINE
 5
154
100
AcDbEntity
 8
Layer8
100
AcDbLine
 39
0.25
 370
106
 10
200.0227
 20
137.381793164063
 30
0.0
 11
199.9197
 21
137.279793164062
 31
0.0
 0
LINE
 5
155
100
AcDbEntity
 8
Layer8
100
AcDbLine
 39
0.25
 370
106
 10
199.9197
 20
137.279793164062
 30
0.0
 11
199.9197
 21
137.073793164063
 31
0.0
 0
LINE
 5
156
100
AcDbEntity
 8
Layer8
100
AcDbLine
 39
0.25
 370
106
 10
199.9197
 20
137.073793164063
 30
0.0
 11
199.8177
 21
137.073793164063
 31
0.0
 0
LINE
 5
157
100
AcDbEntity
 8
Layer8
100
AcDbLine
 39
0.25
 370
106
 10
199.8177
 20
137.073793164063
 30
0.0
 11
199.8177
 21
136.766793164063
 31
0.0
 0
LINE
 5
158
100
AcDbEntity
 8
Layer8
100
AcDbLine
 39
0.25
 370
106
 10
200.9457
 20
136.355793164063
 30
0.0
 11
200.7407
 21
136.458793164063
 31
0.0
 0
LINE
 5
159
100
AcDbEntity
 8
Layer8
100
AcDbLine
 39
0.25
 370
106
 10
200.7407
 20
136.458793164063
 30
0.0
 11
200.4327
 21
136.458793164063
 31
0.0
 0
LINE
 5
15A
100
AcDbEntity
 8
Layer8
100
AcDbLine
 39
0.25
 370
106
 10
200.4327
 20
136.458793164063
 30
0.0
 11
199.8177
 21
136.766793164063
 31
0.0
 0
LINE
 5
15B
100
AcDbEntity
 8
Layer8
100
AcDbLine
 39
0.25
 370
106
 10
193.9497
 20
138.202793164062
 30
0.0
 11
193.9497
 21
137.894793164062
 31
0.0
 0
LINE
 5
15C
100
AcDbEntity
 8
Layer8
100
AcDbLine
 39
0.25
 370
106
 10
199.8177
 20
136.766793164063
 30
0.0
 11
198.4787
 21
137.073793164063
 31
0.0
 0
LINE
 5
15D
100
AcDbEntity
 8
Layer8
100
AcDbLine
 39
0.25
 370
106
 10
198.4787
 20
137.073793164063
 30
0.0
 11
197.1397
 21
137.586793164063
 31
0.0
 0
LINE
 5
15E
100
AcDbEntity
 8
Layer8
100
AcDbLine
 39
0.25
 370
106
 10
199.8177
 20
136.766793164063
 30
0.0
 11
197.0377
 21
137.792793164062
 31
0.0
 0
ARC
 5
15F
100
AcDbEntity
 8
Layer8
100
AcDbCircle
 39
0.25
 370
106
 10
194.670200000007
 20
131.993371136803
 30
0.0
 40
6.11431109978851
100
AcDbArc
 50
66.1785058033701
 51
92.9108749307223
 0
LINE
 5
160
100
AcDbEntity
 8
Layer8
100
AcDbLine
 39
0.25
 370
106
 10
194.3597
 20
138.099793164062
 30
0.0
 11
193.9497
 21
137.894793164062
 31
0.0
 0
LINE
 5
161
100
AcDbEntity
 8
Layer8
100
AcDbLine
 39
0.25
 370
106
 10
200.9457
 20
137.176793164062
 30
0.0
 11
200.9457
 21
136.355793164063
 31
0.0
 0
LINE
 5
162
100
AcDbEntity
 8
Layer8
100
AcDbLine
 39
0.25
 370
106
 10
202.3867
 20
137.176793164062
 30
0.0
 11
200.9457
 21
137.176793164062
 31
0.0
 0
LINE
 5
163
100
AcDbEntity
 8
Layer8
100
AcDbLine
 39
0.25
 370
106
 10
200.7407
 20
220.623793164062
 30
0.0
 11
201.0537
 21
220.936793164062
 31
0.0
 0
LINE
 5
164
100
AcDbEntity
 8
Layer8
100
AcDbLine
 39
0.25
 370
106
 10
201.0537
 20
220.936793164062
 30
0.0
 11
201.1507
 21
220.936793164062
 31
0.0
 0
LINE
 5
165
100
AcDbEntity
 8
Layer8
100
AcDbLine
 39
0.25
 370
106
 10
202.6947
 20
220.623793164062
 30
0.0
 11
202.6947
 21
220.730793164063
 31
0.0
 0
LINE
 5
166
100
AcDbEntity
 8
Layer8
100
AcDbLine
 39
0.25
 370
106
 10
201.3607
 20
220.936793164062
 30
0.0
 11
201.1507
 21
220.833793164062
 31
0.0
 0
LINE
 5
167
100
AcDbEntity
 8
Layer8
100
AcDbLine
 39
0.25
 370
106
 10
201.1507
 20
220.833793164062
 30
0.0
 11
201.0537
 21
220.833793164062
 31
0.0
 0
LINE
 5
168
100
AcDbEntity
 8
Layer8
100
AcDbLine
 39
0.25
 370
106
 10
201.0537
 20
220.833793164062
 30
0.0
 11
200.8427
 21
220.623793164062
 31
0.0
 0
LINE
 5
169
100
AcDbEntity
 8
Layer8
100
AcDbLine
 39
0.25
 370
106
 10
193.9497
 20
140.869793164062
 30
0.0
 11
193.9497
 21
140.459793164062
 31
0.0
 0
LINE
 5
16A
100
AcDbEntity
 8
Layer8
100
AcDbLine
 39
0.25
 370
106
 10
202.3867
 20
220.936793164062
 30
0.0
 11
202.3867
 21
220.520793164063
 31
0.0
 0
LINE
 5
16B
100
AcDbEntity
 8
Layer8
100
AcDbLine
 39
0.25
 370
106
 10
202.3867
 20
220.936793164062
 30
0.0
 11
201.1507
 21
220.936793164062
 31
0.0
 0
LINE
 5
16C
100
AcDbEntity
 8
Layer8
100
AcDbLine
 39
0.25
 370
106
 10
201.3607
 20
220.936793164062
 30
0.0
 11
201.1507
 21
220.936793164062
 31
0.0
 0
LINE
 5
16D
100
AcDbEntity
 8
Layer8
100
AcDbLine
 39
0.25
 370
106
 10
201.3607
 20
220.936793164062
 30
0.0
 11
201.5667
 21
220.520793164063
 31
0.0
 0
LINE
 5
16E
100
AcDbEntity
 8
Layer8
100
AcDbLine
 39
0.25
 370
106
 10
193.9497
 20
141.074793164063
 30
0.0
 11
193.9497
 21
140.869793164062
 31
0.0
 0
LINE
 5
16F
100
AcDbEntity
 8
Layer8
100
AcDbLine
 39
0.25
 370
106
 10
202.6947
 20
143.438793164062
 30
0.0
 11
202.6947
 21
141.689793164063
 31
0.0
 0
LINE
 5
170
100
AcDbEntity
 8
Layer8
100
AcDbLine
 39
0.25
 370
106
 10
202.6947
 20
215.699793164063
 30
0.0
 11
202.6947
 21
213.955793164063
 31
0.0
 0
LINE
 5
171
100
AcDbEntity
 8
Layer8
100
AcDbLine
 39
0.25
 370
106
 10
202.6947
 20
218.879793164063
 30
0.0
 11
202.6947
 21
219.084793164062
 31
0.0
 0
LINE
 5
172
100
AcDbEntity
 8
Layer8
100
AcDbLine
 39
0.25
 370
106
 10
202.6947
 20
220.007793164062
 30
0.0
 11
202.6947
 21
220.320793164062
 31
0.0
 0
LINE
 5
173
100
AcDbEntity
 8
Layer8
100
AcDbLine
 39
0.25
 370
106
 10
202.3867
 20
220.520793164063
 30
0.0
 11
202.3867
 21
219.084793164062
 31
0.0
 0
LINE
 5
174
100
AcDbEntity
 8
Layer8
100
AcDbLine
 39
0.25
 370
106
 10
201.5667
 20
220.520793164063
 30
0.0
 11
202.3867
 21
220.520793164063
 31
0.0
 0
LINE
 5
175
100
AcDbEntity
 8
Layer8
100
AcDbLine
 39
0.25
 370
106
 10
202.3867
 20
215.391793164063
 30
0.0
 11
202.3867
 21
214.160793164062
 31
0.0
 0
LINE
 5
176
100
AcDbEntity
 8
Layer8
100
AcDbLine
 39
0.25
 370
106
 10
202.3867
 20
143.233793164062
 30
0.0
 11
202.3867
 21
141.900793164063
 31
0.0
 0
LINE
 5
177
100
AcDbEntity
 8
Layer8
100
AcDbLine
 39
0.25
 370
106
 10
197.0377
 20
140.356793164062
 30
0.0
 11
197.0377
 21
140.561793164062
 31
0.0
 0
LINE
 5
178
100
AcDbEntity
 8
Layer8
100
AcDbLine
 39
0.25
 370
106
 10
201.5667
 20
219.084793164062
 30
0.0
 11
201.5667
 21
220.520793164063
 31
0.0
 0
LINE
 5
179
100
AcDbEntity
 8
Layer8
100
AcDbLine
 39
0.25
 370
106
 10
200.8427
 20
220.623793164062
 30
0.0
 11
201.2587
 21
220.623793164062
 31
0.0
 0
LINE
 5
17A
100
AcDbEntity
 8
Layer8
100
AcDbLine
 39
0.25
 370
106
 10
201.2587
 20
220.623793164062
 30
0.0
 11
201.5667
 21
220.520793164063
 31
0.0
 0
LINE
 5
17B
100
AcDbEntity
 8
Layer8
100
AcDbLine
 39
0.25
 370
106
 10
202.6947
 20
137.279793164062
 30
0.0
 11
202.6947
 21
137.073793164063
 31
0.0
 0
LINE
 5
17C
100
AcDbEntity
 8
Layer8
100
AcDbLine
 39
0.25
 370
106
 10
202.6947
 20
137.073793164063
 30
0.0
 11
202.5917
 21
137.073793164063
 31
0.0
 0
LINE
 5
17D
100
AcDbEntity
 8
Layer8
100
AcDbLine
 39
0.25
 370
106
 10
202.5917
 20
137.073793164063
 30
0.0
 11
202.5917
 21
137.176793164062
 31
0.0
 0
LINE
 5
17E
100
AcDbEntity
 8
Layer8
100
AcDbLine
 39
0.25
 370
106
 10
202.5917
 20
137.176793164062
 30
0.0
 11
202.4897
 21
137.176793164062
 31
0.0
 0
LINE
 5
17F
100
AcDbEntity
 8
Layer8
100
AcDbLine
 39
0.25
 370
106
 10
200.4327
 20
219.494793164062
 30
0.0
 11
200.2277
 21
219.392793164062
 31
0.0
 0
LINE
 5
180
100
AcDbEntity
 8
Layer8
100
AcDbLine
 39
0.25
 370
106
 10
200.2277
 20
219.392793164062
 30
0.0
 11
200.2277
 21
219.289793164062
 31
0.0
 0
LINE
 5
181
100
AcDbEntity
 8
Layer8
100
AcDbLine
 39
0.25
 370
106
 10
200.2277
 20
219.289793164062
 30
0.0
 11
200.1247
 21
219.187793164063
 31
0.0
 0
LINE
 5
182
100
AcDbEntity
 8
Layer8
100
AcDbLine
 39
0.25
 370
106
 10
202.6947
 20
139.330793164062
 30
0.0
 11
202.6947
 21
139.535793164063
 31
0.0
 0
LINE
 5
183
100
AcDbEntity
 8
Layer8
100
AcDbLine
 39
0.25
 370
106
 10
201.5667
 20
219.084793164062
 30
0.0
 11
201.2587
 21
218.879793164063
 31
0.0
 0
LINE
 5
184
100
AcDbEntity
 8
Layer8
100
AcDbLine
 39
0.25
 370
106
 10
201.2587
 20
218.879793164063
 30
0.0
 11
200.8427
 21
218.674793164062
 31
0.0
 0
LINE
 5
185
100
AcDbEntity
 8
Layer8
100
AcDbLine
 39
0.25
 370
106
 10
193.9497
 20
143.336793164063
 30
0.0
 11
193.9497
 21
143.028793164062
 31
0.0
 0
LINE
 5
186
100
AcDbEntity
 8
Layer8
100
AcDbLine
 39
0.25
 370
106
 10
197.6527
 20
141.997793164063
 30
0.0
 11
195.6987
 21
142.413793164063
 31
0.0
 0
LINE
 5
187
100
AcDbEntity
 8
Layer8
100
AcDbLine
 39
0.25
 370
106
 10
195.6987
 20
142.413793164063
 30
0.0
 11
194.4627
 21
143.028793164062
 31
0.0
 0
LINE
 5
188
100
AcDbEntity
 8
Layer8
100
AcDbLine
 39
0.25
 370
106
 10
194.4627
 20
143.028793164062
 30
0.0
 11
194.2577
 21
143.233793164062
 31
0.0
 0
LINE
 5
189
100
AcDbEntity
 8
Layer8
100
AcDbLine
 39
0.25
 370
106
 10
193.9497
 20
214.365793164063
 30
0.0
 11
193.9497
 21
214.058793164062
 31
0.0
 0
LINE
 5
18A
100
AcDbEntity
 8
Layer8
100
AcDbLine
 39
0.25
 370
106
 10
194.2577
 20
214.058793164062
 30
0.0
 11
194.4627
 21
214.365793164063
 31
0.0
 0
LINE
 5
18B
100
AcDbEntity
 8
Layer8
100
AcDbLine
 39
0.25
 370
106
 10
194.4627
 20
214.365793164063
 30
0.0
 11
194.8727
 21
214.571793164062
 31
0.0
 0
LINE
 5
18C
100
AcDbEntity
 8
Layer8
100
AcDbLine
 39
0.25
 370
106
 10
194.8727
 20
214.571793164062
 30
0.0
 11
196.6267
 21
215.186793164062
 31
0.0
 0
LINE
 5
18D
100
AcDbEntity
 8
Layer8
100
AcDbLine
 39
0.25
 370
106
 10
196.6267
 20
215.186793164062
 30
0.0
 11
197.6527
 21
215.391793164063
 31
0.0
 0
LINE
 5
18E
100
AcDbEntity
 8
Layer8
100
AcDbLine
 39
0.25
 370
106
 10
200.8427
 20
218.674793164062
 30
0.0
 11
200.9457
 21
218.674793164062
 31
0.0
 0
LINE
 5
18F
100
AcDbEntity
 8
Layer8
100
AcDbLine
 39
0.25
 370
106
 10
200.9457
 20
218.674793164062
 30
0.0
 11
201.1507
 21
218.469793164062
 31
0.0
 0
LINE
 5
190
100
AcDbEntity
 8
Layer8
100
AcDbLine
 39
0.25
 370
106
 10
201.1507
 20
218.469793164062
 30
0.0
 11
201.3607
 21
218.366793164062
 31
0.0
 0
LINE
 5
191
100
AcDbEntity
 8
Layer8
100
AcDbLine
 39
0.25
 370
106
 10
202.6947
 20
218.879793164063
 30
0.0
 11
202.6947
 21
218.058793164062
 31
0.0
 0
LINE
 5
192
100
AcDbEntity
 8
Layer8
100
AcDbLine
 39
0.25
 370
106
 10
202.6947
 20
218.879793164063
 30
0.0
 11
202.5917
 21
218.981793164062
 31
0.0
 0
LINE
 5
193
100
AcDbEntity
 8
Layer8
100
AcDbLine
 39
0.25
 370
106
 10
202.5917
 20
218.981793164062
 30
0.0
 11
202.4897
 21
218.981793164062
 31
0.0
 0
LINE
 5
194
100
AcDbEntity
 8
Layer8
100
AcDbLine
 39
0.25
 370
106
 10
202.4897
 20
218.981793164062
 30
0.0
 11
202.3867
 21
219.084793164062
 31
0.0
 0
LINE
 5
195
100
AcDbEntity
 8
Layer8
100
AcDbLine
 39
0.25
 370
106
 10
202.3867
 20
219.084793164062
 30
0.0
 11
202.3867
 21
218.058793164062
 31
0.0
 0
LINE
 5
196
100
AcDbEntity
 8
Layer8
100
AcDbLine
 39
0.25
 370
106
 10
202.3867
 20
219.084793164062
 30
0.0
 11
201.5667
 21
219.084793164062
 31
0.0
 0
LINE
 5
197
100
AcDbEntity
 8
Layer8
100
AcDbLine
 39
0.25
 370
106
 10
201.5667
 20
219.084793164062
 30
0.0
 11
201.3607
 21
218.366793164062
 31
0.0
 0
LINE
 5
198
100
AcDbEntity
 8
Layer8
100
AcDbLine
 39
0.25
 370
106
 10
201.1507
 20
218.058793164062
 30
0.0
 11
201.3607
 21
218.366793164062
 31
0.0
 0
LINE
 5
199
100
AcDbEntity
 8
Layer8
100
AcDbLine
 39
0.25
 370
106
 10
202.6947
 20
219.084793164062
 30
0.0
 11
202.6947
 21
220.007793164062
 31
0.0
 0
LINE
 5
19A
100
AcDbEntity
 8
Layer8
100
AcDbLine
 39
0.25
 370
106
 10
202.6947
 20
141.689793164063
 30
0.0
 11
202.6947
 21
139.535793164063
 31
0.0
 0
LINE
 5
19B
100
AcDbEntity
 8
Layer8
100
AcDbLine
 39
0.25
 370
106
 10
202.6947
 20
141.689793164063
 30
0.0
 11
202.6947
 21
141.792793164062
 31
0.0
 0
LINE
 5
19C
100
AcDbEntity
 8
Layer8
100
AcDbLine
 39
0.25
 370
106
 10
202.6947
 20
141.792793164062
 30
0.0
 11
202.5917
 21
141.792793164062
 31
0.0
 0
LINE
 5
19D
100
AcDbEntity
 8
Layer8
100
AcDbLine
 39
0.25
 370
106
 10
202.5917
 20
141.792793164062
 30
0.0
 11
202.4897
 21
141.900793164063
 31
0.0
 0
LINE
 5
19E
100
AcDbEntity
 8
Layer8
100
AcDbLine
 39
0.25
 370
106
 10
202.4897
 20
141.900793164063
 30
0.0
 11
202.3867
 21
141.900793164063
 31
0.0
 0
LINE
 5
19F
100
AcDbEntity
 8
Layer8
100
AcDbLine
 39
0.25
 370
106
 10
202.6947
 20
139.535793164063
 30
0.0
 11
202.3867
 21
139.535793164063
 31
0.0
 0
LINE
 5
1A0
100
AcDbEntity
 8
Layer8
100
AcDbLine
 39
0.25
 370
106
 10
202.6947
 20
218.058793164062
 30
0.0
 11
202.6947
 21
215.699793164063
 31
0.0
 0
LINE
 5
1A1
100
AcDbEntity
 8
Layer8
100
AcDbLine
 39
0.25
 370
106
 10
202.6947
 20
218.058793164062
 30
0.0
 11
202.3867
 21
218.058793164062
 31
0.0
 0
LINE
 5
1A2
100
AcDbEntity
 8
Layer8
100
AcDbLine
 39
0.25
 370
106
 10
202.6947
 20
215.699793164063
 30
0.0
 11
202.6947
 21
215.596793164062
 31
0.0
 0
LINE
 5
1A3
100
AcDbEntity
 8
Layer8
100
AcDbLine
 39
0.25
 370
106
 10
202.6947
 20
215.596793164062
 30
0.0
 11
202.5917
 21
215.494793164062
 31
0.0
 0
LINE
 5
1A4
100
AcDbEntity
 8
Layer8
100
AcDbLine
 39
0.25
 370
106
 10
202.5917
 20
215.494793164062
 30
0.0
 11
202.4897
 21
215.494793164062
 31
0.0
 0
LINE
 5
1A5
100
AcDbEntity
 8
Layer8
100
AcDbLine
 39
0.25
 370
106
 10
202.4897
 20
215.494793164062
 30
0.0
 11
202.3867
 21
215.391793164063
 31
0.0
 0
LINE
 5
1A6
100
AcDbEntity
 8
Layer8
100
AcDbLine
 39
0.25
 370
106
 10
200.9457
 20
139.535793164063
 30
0.0
 11
202.3867
 21
139.535793164063
 31
0.0
 0
LINE
 5
1A7
100
AcDbEntity
 8
Layer8
100
AcDbLine
 39
0.25
 370
106
 10
202.3867
 20
141.900793164063
 30
0.0
 11
202.3867
 21
139.535793164063
 31
0.0
 0
LINE
 5
1A8
100
AcDbEntity
 8
Layer8
100
AcDbLine
 39
0.25
 370
106
 10
202.3867
 20
141.900793164063
 30
0.0
 11
197.6527
 21
141.997793164063
 31
0.0
 0
LINE
 5
1A9
100
AcDbEntity
 8
Layer8
100
AcDbLine
 39
0.25
 370
106
 10
197.6527
 20
215.391793164063
 30
0.0
 11
202.3867
 21
215.391793164063
 31
0.0
 0
LINE
 5
1AA
100
AcDbEntity
 8
Layer8
100
AcDbLine
 39
0.25
 370
106
 10
202.3867
 20
218.058793164062
 30
0.0
 11
202.3867
 21
215.391793164063
 31
0.0
 0
LINE
 5
1AB
100
AcDbEntity
 8
Layer8
100
AcDbLine
 39
0.25
 370
106
 10
202.3867
 20
218.058793164062
 30
0.0
 11
201.1507
 21
218.058793164062
 31
0.0
 0
LINE
 5
1AC
100
AcDbEntity
 8
Layer8
100
AcDbLine
 39
0.25
 370
106
 10
199.8177
 20
139.433793164062
 30
0.0
 11
200.7407
 21
139.433793164062
 31
0.0
 0
LINE
 5
1AD
100
AcDbEntity
 8
Layer8
100
AcDbLine
 39
0.25
 370
106
 10
200.7407
 20
139.433793164062
 30
0.0
 11
200.9457
 21
139.535793164063
 31
0.0
 0
ARC
 5
1AE
100
AcDbEntity
 8
Layer8
100
AcDbCircle
 39
0.25
 370
106
 10
192.599064019248
 20
131.805157183307
 30
0.0
 40
11.3766895387954
100
AcDbArc
 50
42.805787921678
 51
63.6272125662585
 0
ARC
 5
1AF
100
AcDbEntity
 8
Layer8
100
AcDbCircle
 39
0.25
 370
106
 10
198.139950000037
 20
141.228793164045
 30
0.0
 40
0.910370014094529
100
AcDbArc
 50
122.358963713714
 51
-170.260901237184
 0
LINE
 5
1B0
100
AcDbEntity
 8
Layer8
100
AcDbLine
 39
0.25
 370
106
 10
197.2427
 20
141.074793164063
 30
0.0
 11
197.1397
 21
140.869793164062
 31
0.0
 0
LINE
 5
1B1
100
AcDbEntity
 8
Layer8
100
AcDbLine
 39
0.25
 370
106
 10
197.1397
 20
140.869793164062
 30
0.0
 11
197.1397
 21
140.766793164063
 31
0.0
 0
LINE
 5
1B2
100
AcDbEntity
 8
Layer8
100
AcDbLine
 39
0.25
 370
106
 10
193.9497
 20
143.028793164062
 30
0.0
 11
193.9497
 21
141.074793164063
 31
0.0
 0
LINE
 5
1B3
100
AcDbEntity
 8
Layer8
100
AcDbLine
 39
0.25
 370
106
 10
193.9497
 20
141.074793164063
 30
0.0
 11
195.3907
 21
141.074793164063
 31
0.0
 0
LINE
 5
1B4
100
AcDbEntity
 8
Layer8
100
AcDbLine
 39
0.25
 370
106
 10
195.3907
 20
141.074793164063
 30
0.0
 11
197.0377
 21
140.561793164062
 31
0.0
 0
LINE
 5
1B5
100
AcDbEntity
 8
Layer8
100
AcDbLine
 39
0.25
 370
106
 10
197.0377
 20
140.561793164062
 30
0.0
 11
199.8177
 21
139.433793164062
 31
0.0
 0
LINE
 5
1B6
100
AcDbEntity
 8
Layer8
100
AcDbLine
 39
0.25
 370
106
 10
197.1397
 20
140.766793164063
 30
0.0
 11
199.8177
 21
139.433793164062
 31
0.0
 0
LINE
 5
1B7
100
AcDbEntity
 8
Layer8
100
AcDbLine
 39
0.25
 370
106
 10
193.9497
 20
143.028793164062
 30
0.0
 11
194.0527
 21
142.715793164062
 31
0.0
 0
LINE
 5
1B8
100
AcDbEntity
 8
Layer8
100
AcDbLine
 39
0.25
 370
106
 10
194.0527
 20
142.715793164062
 30
0.0
 11
194.9807
 21
141.792793164062
 31
0.0
 0
LINE
 5
1B9
100
AcDbEntity
 8
Layer8
100
AcDbLine
 39
0.25
 370
106
 10
194.9807
 20
141.792793164062
 30
0.0
 11
197.1397
 21
140.766793164063
 31
0.0
 0
ARC
 5
1BA
100
AcDbEntity
 8
Layer8
100
AcDbCircle
 39
0.25
 370
106
 10
198.02513780488
 20
216.109793164069
 30
0.0
 40
0.80884727761365
100
AcDbArc
 50
165.318411768585
 51
-117.416474244633
 0
LINE
 5
1BB
100
AcDbEntity
 8
Layer8
100
AcDbLine
 39
0.25
 370
106
 10
197.2427
 20
216.314793164062
 30
0.0
 11
197.1397
 21
216.520793164063
 31
0.0
 0
LINE
 5
1BC
100
AcDbEntity
 8
Layer8
100
AcDbLine
 39
0.25
 370
106
 10
197.1397
 20
216.520793164063
 30
0.0
 11
197.1397
 21
216.622793164063
 31
0.0
 0
LINE
 5
1BD
100
AcDbEntity
 8
Layer8
100
AcDbLine
 39
0.25
 370
106
 10
201.1507
 20
218.058793164062
 30
0.0
 11
199.7097
 21
216.622793164063
 31
0.0
 0
LINE
 5
1BE
100
AcDbEntity
 8
Layer8
100
AcDbLine
 39
0.25
 370
106
 10
199.7097
 20
216.622793164063
 30
0.0
 11
197.6527
 21
215.391793164063
 31
0.0
 0
LINE
 5
1BF
100
AcDbEntity
 8
Layer8
100
AcDbLine
 39
0.25
 370
106
 10
201.1507
 20
218.058793164062
 30
0.0
 11
201.0537
 21
218.263793164062
 31
0.0
 0
LINE
 5
1C0
100
AcDbEntity
 8
Layer8
100
AcDbLine
 39
0.25
 370
106
 10
201.0537
 20
218.263793164062
 30
0.0
 11
200.7407
 21
218.571793164062
 31
0.0
 0
LINE
 5
1C1
100
AcDbEntity
 8
Layer8
100
AcDbLine
 39
0.25
 370
106
 10
193.9497
 20
216.827793164062
 30
0.0
 11
193.9497
 21
214.365793164063
 31
0.0
 0
LINE
 5
1C2
100
AcDbEntity
 8
Layer8
100
AcDbLine
 39
0.25
 370
106
 10
193.9497
 20
219.494793164062
 30
0.0
 11
193.9497
 21
219.187793164063
 31
0.0
 0
LINE
 5
1C3
100
AcDbEntity
 8
Layer8
100
AcDbLine
 39
0.25
 370
106
 10
200.7407
 20
218.571793164062
 30
0.0
 11
200.8427
 21
218.674793164062
 31
0.0
 0
LINE
 5
1C4
100
AcDbEntity
 8
Layer8
100
AcDbLine
 39
0.25
 370
106
 10
200.8427
 20
220.623793164062
 30
0.0
 11
200.8427
 21
218.674793164062
 31
0.0
 0
LINE
 5
1C5
100
AcDbEntity
 8
Layer8
100
AcDbLine
 39
0.25
 370
106
 10
200.7407
 20
220.623793164062
 30
0.0
 11
200.8427
 21
220.623793164062
 31
0.0
 0
LINE
 5
1C6
100
AcDbEntity
 8
Layer8
100
AcDbLine
 39
0.25
 370
106
 10
197.1397
 20
219.807793164063
 30
0.0
 11
198.9917
 21
220.423793164062
 31
0.0
 0
LINE
 5
1C7
100
AcDbEntity
 8
Layer8
100
AcDbLine
 39
0.25
 370
106
 10
198.9917
 20
220.423793164062
 30
0.0
 11
199.9197
 21
220.623793164062
 31
0.0
 0
LINE
 5
1C8
100
AcDbEntity
 8
Layer8
100
AcDbLine
 39
0.25
 370
106
 10
199.9197
 20
220.623793164062
 30
0.0
 11
200.7407
 21
220.623793164062
 31
0.0
 0
LINE
 5
1C9
100
AcDbEntity
 8
Layer8
100
AcDbLine
 39
0.25
 370
106
 10
193.9497
 20
219.494793164062
 30
0.0
 11
194.3597
 21
219.289793164062
 31
0.0
 0
LINE
 5
1CA
100
AcDbEntity
 8
Layer8
100
AcDbLine
 39
0.25
 370
106
 10
194.3597
 20
219.289793164062
 30
0.0
 11
194.9807
 21
219.187793164063
 31
0.0
 0
LINE
 5
1CB
100
AcDbEntity
 8
Layer8
100
AcDbLine
 39
0.25
 370
106
 10
194.9807
 20
219.187793164063
 30
0.0
 11
197.1397
 21
219.807793164063
 31
0.0
 0
ARC
 5
1CC
100
AcDbEntity
 8
Layer8
100
AcDbCircle
 39
0.25
 370
106
 10
199.529943728941
 20
209.41767905876
 30
0.0
 40
7.59124063339897
100
AcDbArc
 50
108.352884808096
 51
136.180245945697
 0
LINE
 5
1CD
100
AcDbEntity
 8
Layer8
100
AcDbLine
 39
0.25
 370
106
 10
194.0527
 20
214.673793164062
 30
0.0
 11
193.9497
 21
214.365793164063
 31
0.0
 0
LINE
 5
1CE
100
AcDbEntity
 8
Layer8
100
AcDbLine
 39
0.25
 370
106
 10
200.7407
 20
218.571793164062
 30
0.0
 11
199.6067
 21
217.751793164062
 31
0.0
 0
LINE
 5
1CF
100
AcDbEntity
 8
Layer8
100
AcDbLine
 39
0.25
 370
106
 10
199.6067
 20
217.751793164062
 30
0.0
 11
197.1397
 21
216.622793164063
 31
0.0
 0
LINE
 5
1D0
100
AcDbEntity
 8
Layer8
100
AcDbLine
 39
0.25
 370
106
 10
202.6947
 20
213.955793164063
 30
0.0
 11
202.6947
 21
143.438793164062
 31
0.0
 0
LINE
 5
1D1
100
AcDbEntity
 8
Layer8
100
AcDbLine
 39
0.25
 370
106
 10
202.6947
 20
213.955793164063
 30
0.0
 11
202.5917
 21
214.058793164062
 31
0.0
 0
LINE
 5
1D2
100
AcDbEntity
 8
Layer8
100
AcDbLine
 39
0.25
 370
106
 10
202.5917
 20
214.058793164062
 30
0.0
 11
202.4897
 21
214.058793164062
 31
0.0
 0
LINE
 5
1D3
100
AcDbEntity
 8
Layer8
100
AcDbLine
 39
0.25
 370
106
 10
202.4897
 20
214.058793164062
 30
0.0
 11
202.3867
 21
214.160793164062
 31
0.0
 0
LINE
 5
1D4
100
AcDbEntity
 8
Layer8
100
AcDbLine
 39
0.25
 370
106
 10
202.6947
 20
143.438793164062
 30
0.0
 11
202.6947
 21
143.336793164063
 31
0.0
 0
LINE
 5
1D5
100
AcDbEntity
 8
Layer8
100
AcDbLine
 39
0.25
 370
106
 10
202.6947
 20
143.336793164063
 30
0.0
 11
202.5917
 21
143.336793164063
 31
0.0
 0
LINE
 5
1D6
100
AcDbEntity
 8
Layer8
100
AcDbLine
 39
0.25
 370
106
 10
202.5917
 20
143.336793164063
 30
0.0
 11
202.4897
 21
143.233793164062
 31
0.0
 0
LINE
 5
1D7
100
AcDbEntity
 8
Layer8
100
AcDbLine
 39
0.25
 370
106
 10
202.4897
 20
143.233793164062
 30
0.0
 11
202.3867
 21
143.233793164062
 31
0.0
 0
LINE
 5
1D8
100
AcDbEntity
 8
Layer8
100
AcDbLine
 39
0.25
 370
106
 10
194.2577
 20
143.233793164062
 30
0.0
 11
202.3867
 21
143.233793164062
 31
0.0
 0
LINE
 5
1D9
100
AcDbEntity
 8
Layer8
100
AcDbLine
 39
0.25
 370
106
 10
202.3867
 20
214.160793164062
 30
0.0
 11
202.3867
 21
143.233793164062
 31
0.0
 0
LINE
 5
1DA
100
AcDbEntity
 8
Layer8
100
AcDbLine
 39
0.25
 370
106
 10
202.3867
 20
214.160793164062
 30
0.0
 11
194.2577
 21
214.058793164062
 31
0.0
 0
LINE
 5
1DB
100
AcDbEntity
 8
Layer8
100
AcDbLine
 39
0.25
 370
106
 10
193.9497
 20
214.058793164062
 30
0.0
 11
193.9497
 21
143.336793164063
 31
0.0
 0
LINE
 5
1DC
100
AcDbEntity
 8
Layer8
100
AcDbLine
 39
0.25
 370
106
 10
194.2577
 20
214.058793164062
 30
0.0
 11
193.9497
 21
214.058793164062
 31
0.0
 0
LINE
 5
1DD
100
AcDbEntity
 8
Layer8
100
AcDbLine
 39
0.25
 370
106
 10
194.2577
 20
143.233793164062
 30
0.0
 11
194.1547
 21
143.233793164062
 31
0.0
 0
LINE
 5
1DE
100
AcDbEntity
 8
Layer8
100
AcDbLine
 39
0.25
 370
106
 10
194.1547
 20
143.233793164062
 30
0.0
 11
193.9497
 21
143.336793164063
 31
0.0
 0
LINE
 5
1DF
100
AcDbEntity
 8
Layer8
100
AcDbLine
 39
0.25
 370
106
 10
194.2577
 20
214.058793164062
 30
0.0
 11
194.2577
 21
143.233793164062
 31
0.0
 0
LINE
 5
1E0
100
AcDbEntity
 8
Layer8
100
AcDbLine
 39
0.25
 370
106
 10
185.9177
 20
214.673793164062
 30
0.0
 11
185.9177
 21
212.617793164063
 31
0.0
 0
LINE
 5
1E1
100
AcDbEntity
 8
Layer8
100
AcDbLine
 39
0.25
 370
106
 10
186.0257
 20
212.109793164062
 30
0.0
 11
186.0257
 21
212.211793164063
 31
0.0
 0
LINE
 5
1E2
100
AcDbEntity
 8
Layer8
100
AcDbLine
 39
0.25
 370
106
 10
186.0257
 20
212.211793164063
 30
0.0
 11
185.9177
 21
212.314793164062
 31
0.0
 0
LINE
 5
1E3
100
AcDbEntity
 8
Layer8
100
AcDbLine
 39
0.25
 370
106
 10
192.5087
 20
216.109793164062
 30
0.0
 11
192.5087
 21
216.212793164062
 31
0.0
 0
LINE
 5
1E4
100
AcDbEntity
 8
Layer8
100
AcDbLine
 39
0.25
 370
106
 10
192.5087
 20
216.212793164062
 30
0.0
 11
192.4057
 21
216.314793164062
 31
0.0
 0
LINE
 5
1E5
100
AcDbEntity
 8
Layer8
100
AcDbLine
 39
0.25
 370
106
 10
192.4057
 20
216.314793164062
 30
0.0
 11
192.4057
 21
216.622793164063
 31
0.0
 0
LINE
 5
1E6
100
AcDbEntity
 8
Layer8
100
AcDbLine
 39
0.25
 370
106
 10
192.4057
 20
216.622793164063
 30
0.0
 11
192.3037
 21
216.622793164063
 31
0.0
 0
LINE
 5
1E7
100
AcDbEntity
 8
Layer8
100
AcDbLine
 39
0.25
 370
106
 10
192.3037
 20
216.314793164062
 30
0.0
 11
192.3037
 21
214.263793164062
 31
0.0
 0
LINE
 5
1E8
100
AcDbEntity
 8
Layer8
100
AcDbLine
 39
0.25
 370
106
 10
192.3037
 20
213.955793164063
 30
0.0
 11
192.4057
 21
213.955793164063
 31
0.0
 0
LINE
 5
1E9
100
AcDbEntity
 8
Layer8
100
AcDbLine
 39
0.25
 370
106
 10
192.4057
 20
213.955793164063
 30
0.0
 11
192.4057
 21
213.853793164062
 31
0.0
 0
LINE
 5
1EA
100
AcDbEntity
 8
Layer8
100
AcDbLine
 39
0.25
 370
106
 10
192.4057
 20
213.853793164062
 30
0.0
 11
192.5087
 21
213.955793164063
 31
0.0
 0
LINE
 5
1EB
100
AcDbEntity
 8
Layer8
100
AcDbLine
 39
0.25
 370
106
 10
192.5087
 20
213.955793164063
 30
0.0
 11
192.5087
 21
214.058793164062
 31
0.0
 0
LINE
 5
1EC
100
AcDbEntity
 8
Layer8
100
AcDbLine
 39
0.25
 370
106
 10
192.5087
 20
216.109793164062
 30
0.0
 11
192.5087
 21
214.058793164062
 31
0.0
 0
LINE
 5
1ED
100
AcDbEntity
 8
Layer8
100
AcDbLine
 39
0.25
 370
106
 10
192.3037
 20
216.622793164063
 30
0.0
 11
192.3037
 21
216.314793164062
 31
0.0
 0
LINE
 5
1EE
100
AcDbEntity
 8
Layer8
100
AcDbLine
 39
0.25
 370
106
 10
185.9177
 20
214.981793164062
 30
0.0
 11
187.6717
 21
219.699793164063
 31
0.0
 0
LINE
 5
1EF
100
AcDbEntity
 8
Layer8
100
AcDbLine
 39
0.25
 370
106
 10
185.9177
 20
214.981793164062
 30
0.0
 11
185.9177
 21
214.673793164062
 31
0.0
 0
ARC
 5
1F0
100
AcDbEntity
 8
Layer8
100
AcDbCircle
 39
0.25
 370
106
 10
189.933700000002
 20
217.742277310413
 30
0.0
 40
3.2589003165741
100
AcDbArc
 50
55.368941716179
 51
108.443200235219
 0
LINE
 5
1F1
100
AcDbEntity
 8
Layer8
100
AcDbLine
 39
0.25
 370
106
 10
187.6717
 20
219.699793164063
 30
0.0
 11
188.0827
 21
220.423793164062
 31
0.0
 0
LINE
 5
1F2
100
AcDbEntity
 8
Layer8
100
AcDbLine
 39
0.25
 370
106
 10
188.0827
 20
220.423793164062
 30
0.0
 11
188.9027
 21
220.833793164062
 31
0.0
 0
LINE
 5
1F3
100
AcDbEntity
 8
Layer8
100
AcDbLine
 39
0.25
 370
106
 10
191.7857
 20
220.423793164062
 30
0.0
 11
192.3037
 21
219.392793164062
 31
0.0
 0
LINE
 5
1F4
100
AcDbEntity
 8
Layer8
100
AcDbLine
 39
0.25
 370
106
 10
187.6717
 20
219.699793164063
 30
0.0
 11
187.6717
 21
219.392793164062
 31
0.0
 0
LINE
 5
1F5
100
AcDbEntity
 8
Layer8
100
AcDbLine
 39
0.25
 370
106
 10
192.3037
 20
216.622793164063
 30
0.0
 11
192.3037
 21
216.314793164062
 31
0.0
 0
ARC
 5
1F6
100
AcDbEntity
 8
Layer8
100
AcDbCircle
 39
0.25
 370
106
 10
189.933700000003
 20
217.42927731041
 30
0.0
 40
3.25890031657586
100
AcDbArc
 50
55.3689417162161
 51
108.443200235216
 0
LINE
 5
1F7
100
AcDbEntity
 8
Layer8
100
AcDbLine
 39
0.25
 370
106
 10
187.6717
 20
219.392793164062
 30
0.0
 11
188.0827
 21
220.110793164063
 31
0.0
 0
LINE
 5
1F8
100
AcDbEntity
 8
Layer8
100
AcDbLine
 39
0.25
 370
106
 10
188.0827
 20
220.110793164063
 30
0.0
 11
188.9027
 21
220.520793164063
 31
0.0
 0
LINE
 5
1F9
100
AcDbEntity
 8
Layer8
100
AcDbLine
 39
0.25
 370
106
 10
191.7857
 20
220.110793164063
 30
0.0
 11
192.1957
 21
219.494793164062
 31
0.0
 0
LINE
 5
1FA
100
AcDbEntity
 8
Layer8
100
AcDbLine
 39
0.25
 370
106
 10
185.9177
 20
214.673793164062
 30
0.0
 11
187.6717
 21
219.392793164062
 31
0.0
 0
LINE
 5
1FB
100
AcDbEntity
 8
Layer8
100
AcDbLine
 39
0.25
 370
106
 10
186.7437
 20
214.878793164062
 30
0.0
 11
185.9177
 21
214.673793164062
 31
0.0
 0
LINE
 5
1FC
100
AcDbEntity
 8
Layer8
100
AcDbLine
 39
0.25
 370
106
 10
192.3037
 20
214.263793164062
 30
0.0
 11
192.3037
 21
217.033793164063
 31
0.0
 0
LINE
 5
1FD
100
AcDbEntity
 8
Layer8
100
AcDbLine
 39
0.25
 370
106
 10
192.3037
 20
214.263793164062
 30
0.0
 11
192.3037
 21
213.955793164063
 31
0.0
 0
LINE
 5
1FE
100
AcDbEntity
 8
Layer8
100
AcDbLine
 39
0.25
 370
106
 10
187.6717
 20
217.340793164062
 30
0.0
 11
185.9177
 21
212.617793164063
 31
0.0
 0
LINE
 5
1FF
100
AcDbEntity
 8
Layer8
100
AcDbLine
 39
0.25
 370
106
 10
185.9177
 20
212.617793164063
 30
0.0
 11
185.9177
 21
212.314793164062
 31
0.0
 0
LINE
 5
200
100
AcDbEntity
 8
Layer8
100
AcDbLine
 39
0.25
 370
106
 10
185.9177
 20
212.314793164062
 30
0.0
 11
192.3037
 21
213.955793164063
 31
0.0
 0
LINE
 5
201
100
AcDbEntity
 8
Layer8
100
AcDbLine
 39
0.25
 370
106
 10
192.3037
 20
216.725793164062
 30
0.0
 11
192.3037
 21
213.955793164063
 31
0.0
 0
LINE
 5
202
100
AcDbEntity
 8
Layer8
100
AcDbLine
 39
0.25
 370
106
 10
185.9177
 20
212.314793164062
 30
0.0
 11
187.6717
 21
217.033793164063
 31
0.0
 0
LINE
 5
203
100
AcDbEntity
 8
Layer8
100
AcDbLine
 39
0.25
 370
106
 10
192.3037
 20
217.033793164063
 30
0.0
 11
191.7857
 21
218.058793164062
 31
0.0
 0
LINE
 5
204
100
AcDbEntity
 8
Layer8
100
AcDbLine
 39
0.25
 370
106
 10
191.7857
 20
218.058793164062
 30
0.0
 11
190.9647
 21
218.469793164062
 31
0.0
 0
LINE
 5
205
100
AcDbEntity
 8
Layer8
100
AcDbLine
 39
0.25
 370
106
 10
190.9647
 20
218.469793164062
 30
0.0
 11
189.4207
 21
218.571793164062
 31
0.0
 0
LINE
 5
206
100
AcDbEntity
 8
Layer8
100
AcDbLine
 39
0.25
 370
106
 10
189.4207
 20
218.571793164062
 30
0.0
 11
188.9027
 21
218.469793164062
 31
0.0
 0
LINE
 5
207
100
AcDbEntity
 8
Layer8
100
AcDbLine
 39
0.25
 370
106
 10
188.9027
 20
218.469793164062
 30
0.0
 11
188.0827
 21
218.058793164062
 31
0.0
 0
LINE
 5
208
100
AcDbEntity
 8
Layer8
100
AcDbLine
 39
0.25
 370
106
 10
188.0827
 20
218.058793164062
 30
0.0
 11
187.6717
 21
217.340793164062
 31
0.0
 0
LINE
 5
209
100
AcDbEntity
 8
Layer8
100
AcDbLine
 39
0.25
 370
106
 10
187.6717
 20
217.340793164062
 30
0.0
 11
187.6717
 21
217.033793164063
 31
0.0
 0
LINE
 5
20A
100
AcDbEntity
 8
Layer8
100
AcDbLine
 39
0.25
 370
106
 10
187.6717
 20
217.033793164063
 30
0.0
 11
188.0827
 21
217.751793164062
 31
0.0
 0
LINE
 5
20B
100
AcDbEntity
 8
Layer8
100
AcDbLine
 39
0.25
 370
106
 10
188.0827
 20
217.751793164062
 30
0.0
 11
188.9027
 21
218.161793164062
 31
0.0
 0
LINE
 5
20C
100
AcDbEntity
 8
Layer8
100
AcDbLine
 39
0.25
 370
106
 10
188.9027
 20
218.161793164062
 30
0.0
 11
190.4467
 21
218.263793164062
 31
0.0
 0
LINE
 5
20D
100
AcDbEntity
 8
Layer8
100
AcDbLine
 39
0.25
 370
106
 10
190.4467
 20
218.263793164062
 30
0.0
 11
190.9647
 21
218.161793164062
 31
0.0
 0
LINE
 5
20E
100
AcDbEntity
 8
Layer8
100
AcDbLine
 39
0.25
 370
106
 10
190.9647
 20
218.161793164062
 30
0.0
 11
191.7857
 21
217.751793164062
 31
0.0
 0
LINE
 5
20F
100
AcDbEntity
 8
Layer8
100
AcDbLine
 39
0.25
 370
106
 10
191.7857
 20
217.751793164062
 30
0.0
 11
192.3037
 21
216.725793164062
 31
0.0
 0
LINE
 5
210
100
AcDbEntity
 8
Layer8
100
AcDbLine
 39
0.25
 370
106
 10
192.3037
 20
217.033793164063
 30
0.0
 11
192.3037
 21
216.725793164062
 31
0.0
 0
LINE
 5
211
100
AcDbEntity
 8
Layer8
100
AcDbLine
 39
0.25
 370
106
 10
185.9177
 20
144.772793164062
 30
0.0
 11
185.9177
 21
142.715793164062
 31
0.0
 0
LINE
 5
212
100
AcDbEntity
 8
Layer8
100
AcDbLine
 39
0.25
 370
106
 10
185.9177
 20
145.080793164062
 30
0.0
 11
186.0257
 21
145.080793164062
 31
0.0
 0
LINE
 5
213
100
AcDbEntity
 8
Layer8
100
AcDbLine
 39
0.25
 370
106
 10
186.0257
 20
145.080793164062
 30
0.0
 11
186.0257
 21
145.182793164063
 31
0.0
 0
LINE
 5
214
100
AcDbEntity
 8
Layer8
100
AcDbLine
 39
0.25
 370
106
 10
192.5087
 20
143.336793164063
 30
0.0
 11
192.5087
 21
143.438793164062
 31
0.0
 0
LINE
 5
215
100
AcDbEntity
 8
Layer8
100
AcDbLine
 39
0.25
 370
106
 10
192.5087
 20
143.438793164062
 30
0.0
 11
192.4057
 21
143.438793164062
 31
0.0
 0
LINE
 5
216
100
AcDbEntity
 8
Layer8
100
AcDbLine
 39
0.25
 370
106
 10
192.4057
 20
143.438793164062
 30
0.0
 11
192.3037
 21
143.336793164063
 31
0.0
 0
LINE
 5
217
100
AcDbEntity
 8
Layer8
100
AcDbLine
 39
0.25
 370
106
 10
192.3037
 20
143.028793164062
 30
0.0
 11
192.3037
 21
140.971793164062
 31
0.0
 0
LINE
 5
218
100
AcDbEntity
 8
Layer8
100
AcDbLine
 39
0.25
 370
106
 10
192.3037
 20
140.664793164062
 30
0.0
 11
192.4057
 21
140.766793164063
 31
0.0
 0
LINE
 5
219
100
AcDbEntity
 8
Layer8
100
AcDbLine
 39
0.25
 370
106
 10
192.4057
 20
140.766793164063
 30
0.0
 11
192.4057
 21
141.074793164063
 31
0.0
 0
LINE
 5
21A
100
AcDbEntity
 8
Layer8
100
AcDbLine
 39
0.25
 370
106
 10
192.4057
 20
141.074793164063
 30
0.0
 11
192.5087
 21
141.177793164062
 31
0.0
 0
LINE
 5
21B
100
AcDbEntity
 8
Layer8
100
AcDbLine
 39
0.25
 370
106
 10
192.5087
 20
141.177793164062
 30
0.0
 11
192.5087
 21
141.279793164062
 31
0.0
 0
LINE
 5
21C
100
AcDbEntity
 8
Layer8
100
AcDbLine
 39
0.25
 370
106
 10
192.5087
 20
143.336793164063
 30
0.0
 11
192.5087
 21
141.279793164062
 31
0.0
 0
LINE
 5
21D
100
AcDbEntity
 8
Layer8
100
AcDbLine
 39
0.25
 370
106
 10
192.3037
 20
140.971793164062
 30
0.0
 11
192.3037
 21
140.664793164062
 31
0.0
 0
LINE
 5
21E
100
AcDbEntity
 8
Layer8
100
AcDbLine
 39
0.25
 370
106
 10
185.9177
 20
142.413793164063
 30
0.0
 11
187.6717
 21
137.586793164063
 31
0.0
 0
LINE
 5
21F
100
AcDbEntity
 8
Layer8
100
AcDbLine
 39
0.25
 370
106
 10
185.9177
 20
142.715793164062
 30
0.0
 11
185.9177
 21
142.413793164063
 31
0.0
 0
ARC
 5
220
100
AcDbEntity
 8
Layer8
100
AcDbCircle
 39
0.25
 370
106
 10
189.188825213448
 20
138.017342961174
 30
0.0
 40
1.52206680735528
100
AcDbArc
 50
-175.381809232756
 51
-117.216576510364
 0
LINE
 5
221
100
AcDbEntity
 8
Layer8
100
AcDbLine
 39
0.25
 370
106
 10
188.4927
 20
136.663793164063
 30
0.0
 11
189.4207
 21
136.355793164063
 31
0.0
 0
LINE
 5
222
100
AcDbEntity
 8
Layer8
100
AcDbLine
 39
0.25
 370
106
 10
189.4207
 20
136.355793164063
 30
0.0
 11
190.4467
 21
136.355793164063
 31
0.0
 0
LINE
 5
223
100
AcDbEntity
 8
Layer8
100
AcDbLine
 39
0.25
 370
106
 10
190.4467
 20
136.355793164063
 30
0.0
 11
191.7857
 21
136.971793164062
 31
0.0
 0
LINE
 5
224
100
AcDbEntity
 8
Layer8
100
AcDbLine
 39
0.25
 370
106
 10
191.7857
 20
136.971793164062
 30
0.0
 11
192.1957
 21
137.586793164063
 31
0.0
 0
LINE
 5
225
100
AcDbEntity
 8
Layer8
100
AcDbLine
 39
0.25
 370
106
 10
192.1957
 20
137.586793164063
 30
0.0
 11
192.3037
 21
137.997793164063
 31
0.0
 0
LINE
 5
226
100
AcDbEntity
 8
Layer8
100
AcDbLine
 39
0.25
 370
106
 10
192.3037
 20
140.971793164062
 30
0.0
 11
192.3037
 21
140.766793164063
 31
0.0
 0
LINE
 5
227
100
AcDbEntity
 8
Layer8
100
AcDbLine
 39
0.25
 370
106
 10
185.9177
 20
142.715793164062
 30
0.0
 11
186.7437
 21
142.510793164062
 31
0.0
 0
LINE
 5
228
100
AcDbEntity
 8
Layer8
100
AcDbLine
 39
0.25
 370
106
 10
187.6717
 20
137.894793164062
 30
0.0
 11
185.9177
 21
142.715793164062
 31
0.0
 0
ARC
 5
229
100
AcDbEntity
 8
Layer8
100
AcDbCircle
 39
0.25
 370
106
 10
189.822384331137
 20
139.16871711136
 30
0.0
 40
2.56798272008972
100
AcDbArc
 50
-132.64483158023
 51
-63.5875393761218
 0
LINE
 5
22A
100
AcDbEntity
 8
Layer8
100
AcDbLine
 39
0.25
 370
106
 10
192.1957
 20
137.792793164062
 30
0.0
 11
191.7857
 21
137.279793164062
 31
0.0
 0
LINE
 5
22B
100
AcDbEntity
 8
Layer8
100
AcDbLine
 39
0.25
 370
106
 10
191.7857
 20
137.279793164062
 30
0.0
 11
190.9647
 21
136.868793164062
 31
0.0
 0
LINE
 5
22C
100
AcDbEntity
 8
Layer8
100
AcDbLine
 39
0.25
 370
106
 10
188.0827
 20
137.279793164062
 30
0.0
 11
187.6717
 21
137.894793164062
 31
0.0
 0
LINE
 5
22D
100
AcDbEntity
 8
Layer8
100
AcDbLine
 39
0.25
 370
106
 10
192.3037
 20
140.356793164062
 30
0.0
 11
192.3037
 21
143.028793164062
 31
0.0
 0
LINE
 5
22E
100
AcDbEntity
 8
Layer8
100
AcDbLine
 39
0.25
 370
106
 10
192.3037
 20
143.336793164063
 30
0.0
 11
192.3037
 21
143.028793164062
 31
0.0
 0
LINE
 5
22F
100
AcDbEntity
 8
Layer8
100
AcDbLine
 39
0.25
 370
106
 10
185.9177
 20
144.772793164062
 30
0.0
 11
187.6717
 21
139.946793164062
 31
0.0
 0
LINE
 5
230
100
AcDbEntity
 8
Layer8
100
AcDbLine
 39
0.25
 370
106
 10
185.9177
 20
145.080793164062
 30
0.0
 11
185.9177
 21
144.772793164062
 31
0.0
 0
ARC
 5
231
100
AcDbEntity
 8
Layer8
100
AcDbCircle
 39
0.25
 370
106
 10
189.933699999999
 20
142.012309017718
 30
0.0
 40
3.25890031657918
100
AcDbArc
 50
-108.443200235128
 51
-55.368941716185
 0
LINE
 5
232
100
AcDbEntity
 8
Layer8
100
AcDbLine
 39
0.25
 370
106
 10
187.6717
 20
139.946793164062
 30
0.0
 11
188.0827
 21
139.330793164062
 31
0.0
 0
LINE
 5
233
100
AcDbEntity
 8
Layer8
100
AcDbLine
 39
0.25
 370
106
 10
188.0827
 20
139.330793164062
 30
0.0
 11
188.9027
 21
138.920793164063
 31
0.0
 0
LINE
 5
234
100
AcDbEntity
 8
Layer8
100
AcDbLine
 39
0.25
 370
106
 10
191.7857
 20
139.330793164062
 30
0.0
 11
192.1957
 21
139.946793164062
 31
0.0
 0
LINE
 5
235
100
AcDbEntity
 8
Layer8
100
AcDbLine
 39
0.25
 370
106
 10
192.1957
 20
139.946793164062
 30
0.0
 11
192.3037
 21
140.356793164062
 31
0.0
 0
LINE
 5
236
100
AcDbEntity
 8
Layer8
100
AcDbLine
 39
0.25
 370
106
 10
192.3037
 20
140.664793164062
 30
0.0
 11
192.3037
 21
140.356793164062
 31
0.0
 0
LINE
 5
237
100
AcDbEntity
 8
Layer8
100
AcDbLine
 39
0.25
 370
106
 10
187.6717
 20
140.253793164062
 30
0.0
 11
187.6717
 21
139.946793164062
 31
0.0
 0
ARC
 5
238
100
AcDbEntity
 8
Layer8
100
AcDbCircle
 39
0.25
 370
106
 10
190.670047198093
 20
140.845818652748
 30
0.0
 40
1.64365194147979
100
AcDbArc
 50
-79.6729236171787
 51
-6.32316379316897
 0
ARC
 5
239
100
AcDbEntity
 8
Layer8
100
AcDbCircle
 39
0.25
 370
106
 10
189.9337
 20
142.315793164056
 30
0.0
 40
3.25461672090063
100
AcDbArc
 50
-124.661751409445
 51
-71.5316490551885
 0
LINE
 5
23A
100
AcDbEntity
 8
Layer8
100
AcDbLine
 39
0.25
 370
106
 10
187.6717
 20
140.253793164062
 30
0.0
 11
188.0827
 21
139.638793164062
 31
0.0
 0
LINE
 5
23B
100
AcDbEntity
 8
Layer8
100
AcDbLine
 39
0.25
 370
106
 10
192.3037
 20
140.664793164062
 30
0.0
 11
192.3037
 21
143.336793164063
 31
0.0
 0
LINE
 5
23C
100
AcDbEntity
 8
Layer8
100
AcDbLine
 39
0.25
 370
106
 10
192.3037
 20
143.336793164063
 30
0.0
 11
185.9177
 21
145.080793164062
 31
0.0
 0
LINE
 5
23D
100
AcDbEntity
 8
Layer8
100
AcDbLine
 39
0.25
 370
106
 10
185.9177
 20
145.080793164062
 30
0.0
 11
187.6717
 21
140.253793164062
 31
0.0
 0
LINE
 5
23E
100
AcDbEntity
 8
Layer8
100
AcDbLine
 39
0.25
 370
106
 10
192.0987
 20
137.792793164062
 30
0.0
 11
192.1957
 21
137.894793164062
 31
0.0
 0
LINE
 5
23F
100
AcDbEntity
 8
Layer8
100
AcDbLine
 39
0.25
 370
106
 10
207.4337
 20
140.253793164062
 30
0.0
 11
207.4337
 21
138.510793164062
 31
0.0
 0
LINE
 5
240
100
AcDbEntity
 8
Layer8
100
AcDbLine
 39
0.25
 370
106
 10
207.1207
 20
138.202793164062
 30
0.0
 11
207.1207
 21
140.459793164062
 31
0.0
 0
LINE
 5
241
100
AcDbEntity
 8
Layer8
100
AcDbLine
 39
0.25
 370
106
 10
192.8167
 20
139.125793164062
 30
0.0
 11
192.7137
 21
139.125793164062
 31
0.0
 0
LINE
 5
242
100
AcDbEntity
 8
Layer8
100
AcDbLine
 39
0.25
 370
106
 10
192.7137
 20
139.125793164062
 30
0.0
 11
192.6117
 21
139.228793164062
 31
0.0
 0
LINE
 5
243
100
AcDbEntity
 8
Layer8
100
AcDbLine
 39
0.25
 370
106
 10
192.6117
 20
139.228793164062
 30
0.0
 11
192.4057
 21
139.228793164062
 31
0.0
 0
LINE
 5
244
100
AcDbEntity
 8
Layer8
100
AcDbLine
 39
0.25
 370
106
 10
192.4057
 20
139.228793164062
 30
0.0
 11
192.3037
 21
139.330793164062
 31
0.0
 0
LINE
 5
245
100
AcDbEntity
 8
Layer8
100
AcDbLine
 39
0.25
 370
106
 10
192.3037
 20
139.330793164062
 30
0.0
 11
192.1957
 21
139.330793164062
 31
0.0
 0
LINE
 5
246
100
AcDbEntity
 8
Layer8
100
AcDbLine
 39
0.25
 370
106
 10
192.1957
 20
139.330793164062
 30
0.0
 11
192.0987
 21
139.330793164062
 31
0.0
 0
LINE
 5
247
100
AcDbEntity
 8
Layer8
100
AcDbLine
 39
0.25
 370
106
 10
192.0987
 20
139.330793164062
 30
0.0
 11
191.7857
 21
139.125793164062
 31
0.0
 0
LINE
 5
248
100
AcDbEntity
 8
Layer8
100
AcDbLine
 39
0.25
 370
106
 10
191.7857
 20
137.689793164063
 30
0.0
 11
192.0987
 21
137.792793164062
 31
0.0
 0
LINE
 5
249
100
AcDbEntity
 8
Layer8
100
AcDbLine
 39
0.25
 370
106
 10
192.8167
 20
138.202793164062
 30
0.0
 11
192.6117
 21
138.202793164062
 31
0.0
 0
LINE
 5
24A
100
AcDbEntity
 8
Layer8
100
AcDbLine
 39
0.25
 370
106
 10
192.6117
 20
138.202793164062
 30
0.0
 11
192.5087
 21
138.099793164062
 31
0.0
 0
LINE
 5
24B
100
AcDbEntity
 8
Layer8
100
AcDbLine
 39
0.25
 370
106
 10
192.5087
 20
138.099793164062
 30
0.0
 11
192.4057
 21
138.099793164062
 31
0.0
 0
LINE
 5
24C
100
AcDbEntity
 8
Layer8
100
AcDbLine
 39
0.25
 370
106
 10
192.4057
 20
138.099793164062
 30
0.0
 11
192.3037
 21
137.997793164063
 31
0.0
 0
LINE
 5
24D
100
AcDbEntity
 8
Layer8
100
AcDbLine
 39
0.25
 370
106
 10
192.3037
 20
137.997793164063
 30
0.0
 11
192.1957
 21
137.997793164063
 31
0.0
 0
LINE
 5
24E
100
AcDbEntity
 8
Layer8
100
AcDbLine
 39
0.25
 370
106
 10
192.1957
 20
137.997793164063
 30
0.0
 11
192.1957
 21
137.894793164062
 31
0.0
 0
LINE
 5
24F
100
AcDbEntity
 8
Layer8
100
AcDbLine
 39
0.25
 370
106
 10
192.1957
 20
137.894793164062
 30
0.0
 11
192.0987
 21
137.792793164062
 31
0.0
 0
LINE
 5
250
100
AcDbEntity
 8
Layer8
100
AcDbLine
 39
0.25
 370
106
 10
192.8167
 20
139.125793164062
 30
0.0
 11
192.5087
 21
138.612793164063
 31
0.0
 0
LINE
 5
251
100
AcDbEntity
 8
Layer8
100
AcDbLine
 39
0.25
 370
106
 10
192.5087
 20
138.612793164063
 30
0.0
 11
192.5087
 21
138.407793164062
 31
0.0
 0
LINE
 5
252
100
AcDbEntity
 8
Layer8
100
AcDbLine
 39
0.25
 370
106
 10
192.5087
 20
138.407793164062
 30
0.0
 11
192.6117
 21
138.304793164063
 31
0.0
 0
LINE
 5
253
100
AcDbEntity
 8
Layer8
100
AcDbLine
 39
0.25
 370
106
 10
192.6117
 20
138.304793164063
 30
0.0
 11
192.7137
 21
138.304793164063
 31
0.0
 0
LINE
 5
254
100
AcDbEntity
 8
Layer8
100
AcDbLine
 39
0.25
 370
106
 10
192.7137
 20
138.304793164063
 30
0.0
 11
192.8167
 21
138.202793164062
 31
0.0
 0
LINE
 5
255
100
AcDbEntity
 8
Layer8
100
AcDbLine
 39
0.25
 370
106
 10
191.7857
 20
137.689793164063
 30
0.0
 11
191.6827
 21
138.099793164062
 31
0.0
 0
LINE
 5
256
100
AcDbEntity
 8
Layer8
100
AcDbLine
 39
0.25
 370
106
 10
191.6827
 20
138.099793164062
 30
0.0
 11
191.6827
 21
138.304793164063
 31
0.0
 0
LINE
 5
257
100
AcDbEntity
 8
Layer8
100
AcDbLine
 39
0.25
 370
106
 10
191.6827
 20
138.304793164063
 30
0.0
 11
191.6827
 21
138.817793164062
 31
0.0
 0
LINE
 5
258
100
AcDbEntity
 8
Layer8
100
AcDbLine
 39
0.25
 370
106
 10
191.6827
 20
138.817793164062
 30
0.0
 11
191.7857
 21
139.125793164062
 31
0.0
 0
LINE
 5
259
100
AcDbEntity
 8
Layer8
100
AcDbLine
 39
0.25
 370
106
 10
192.1957
 20
219.494793164062
 30
0.0
 11
192.0987
 21
219.494793164062
 31
0.0
 0
LINE
 5
25A
100
AcDbEntity
 8
Layer8
100
AcDbLine
 39
0.25
 370
106
 10
207.4337
 20
218.879793164063
 30
0.0
 11
207.4337
 21
217.135793164062
 31
0.0
 0
LINE
 5
25B
100
AcDbEntity
 8
Layer8
100
AcDbLine
 39
0.25
 370
106
 10
207.1207
 20
216.827793164062
 30
0.0
 11
207.1207
 21
219.187793164063
 31
0.0
 0
ARC
 5
25C
100
AcDbEntity
 8
Layer8
100
AcDbCircle
 39
0.25
 370
106
 10
169.076366668896
 20
184.685069590207
 30
0.0
 40
41.734214827845
100
AcDbArc
 50
56.0134843249604
 51
57.0339590828232
 0
LINE
 5
25D
100
AcDbEntity
 8
Layer8
100
AcDbLine
 39
0.25
 370
106
 10
192.8167
 20
219.187793164063
 30
0.0
 11
192.5087
 21
219.187793164063
 31
0.0
 0
LINE
 5
25E
100
AcDbEntity
 8
Layer8
100
AcDbLine
 39
0.25
 370
106
 10
192.5087
 20
219.187793164063
 30
0.0
 11
192.4057
 21
219.289793164062
 31
0.0
 0
LINE
 5
25F
100
AcDbEntity
 8
Layer8
100
AcDbLine
 39
0.25
 370
106
 10
192.1957
 20
219.494793164062
 30
0.0
 11
192.0987
 21
219.494793164062
 31
0.0
 0
LINE
 5
260
100
AcDbEntity
 8
Layer8
100
AcDbLine
 39
0.25
 370
106
 10
191.7857
 20
218.263793164062
 30
0.0
 11
192.0987
 21
217.956793164063
 31
0.0
 0
LINE
 5
261
100
AcDbEntity
 8
Layer8
100
AcDbLine
 39
0.25
 370
106
 10
192.8167
 20
218.263793164062
 30
0.0
 11
192.7137
 21
218.161793164062
 31
0.0
 0
LINE
 5
262
100
AcDbEntity
 8
Layer8
100
AcDbLine
 39
0.25
 370
106
 10
192.7137
 20
218.161793164062
 30
0.0
 11
192.5087
 21
218.161793164062
 31
0.0
 0
LINE
 5
263
100
AcDbEntity
 8
Layer8
100
AcDbLine
 39
0.25
 370
106
 10
192.5087
 20
218.161793164062
 30
0.0
 11
192.4057
 21
218.058793164062
 31
0.0
 0
LINE
 5
264
100
AcDbEntity
 8
Layer8
100
AcDbLine
 39
0.25
 370
106
 10
192.4057
 20
218.058793164062
 30
0.0
 11
192.1957
 21
218.058793164062
 31
0.0
 0
LINE
 5
265
100
AcDbEntity
 8
Layer8
100
AcDbLine
 39
0.25
 370
106
 10
192.1957
 20
218.058793164062
 30
0.0
 11
192.0987
 21
217.956793164063
 31
0.0
 0
LINE
 5
266
100
AcDbEntity
 8
Layer8
100
AcDbLine
 39
0.25
 370
106
 10
192.8167
 20
219.187793164063
 30
0.0
 11
192.6117
 21
219.084793164062
 31
0.0
 0
LINE
 5
267
100
AcDbEntity
 8
Layer8
100
AcDbLine
 39
0.25
 370
106
 10
192.6117
 20
219.084793164062
 30
0.0
 11
192.5087
 21
218.879793164063
 31
0.0
 0
LINE
 5
268
100
AcDbEntity
 8
Layer8
100
AcDbLine
 39
0.25
 370
106
 10
192.5087
 20
218.879793164063
 30
0.0
 11
192.5087
 21
218.776793164063
 31
0.0
 0
LINE
 5
269
100
AcDbEntity
 8
Layer8
100
AcDbLine
 39
0.25
 370
106
 10
192.5087
 20
218.776793164063
 30
0.0
 11
192.6117
 21
218.571793164062
 31
0.0
 0
LINE
 5
26A
100
AcDbEntity
 8
Layer8
100
AcDbLine
 39
0.25
 370
106
 10
192.6117
 20
218.571793164062
 30
0.0
 11
192.7137
 21
218.469793164062
 31
0.0
 0
LINE
 5
26B
100
AcDbEntity
 8
Layer8
100
AcDbLine
 39
0.25
 370
106
 10
192.7137
 20
218.469793164062
 30
0.0
 11
192.8167
 21
218.263793164062
 31
0.0
 0
LINE
 5
26C
100
AcDbEntity
 8
Layer8
100
AcDbLine
 39
0.25
 370
106
 10
191.7857
 20
218.263793164062
 30
0.0
 11
191.6827
 21
218.981793164062
 31
0.0
 0
LINE
 5
26D
100
AcDbEntity
 8
Layer8
100
AcDbLine
 39
0.25
 370
106
 10
191.6827
 20
218.981793164062
 30
0.0
 11
191.6827
 21
219.597793164062
 31
0.0
 0
LINE
 5
26E
100
AcDbEntity
 8
Layer8
100
AcDbLine
 39
0.25
 370
106
 10
191.6827
 20
219.597793164062
 30
0.0
 11
191.7857
 21
219.699793164063
 31
0.0
 0
LINE
 5
26F
100
AcDbEntity
 8
Layer8
100
AcDbLine
 39
0.25
 370
106
 10
187.5697
 20
218.776793164063
 30
0.0
 11
187.5697
 21
218.674793164062
 31
0.0
 0
ARC
 5
270
100
AcDbEntity
 8
Layer8
100
AcDbCircle
 39
0.25
 370
106
 10
189.889362436547
 20
140.811130727504
 30
0.0
 40
1.10718957537715
100
AcDbArc
 50
13.7765910682372
 51
142.522948346764
 0
LINE
 5
271
100
AcDbEntity
 8
Layer8
100
AcDbLine
 39
0.25
 370
106
 10
191.0677
 20
140.971793164062
 30
0.0
 11
190.9647
 21
141.074793164063
 31
0.0
 0
LINE
 5
272
100
AcDbEntity
 8
Layer8
100
AcDbLine
 39
0.25
 370
106
 10
190.9647
 20
141.074793164063
 30
0.0
 11
188.9027
 21
141.484793164062
 31
0.0
 0
LINE
 5
273
100
AcDbEntity
 8
Layer8
100
AcDbLine
 39
0.25
 370
106
 10
191.0677
 20
140.869793164062
 30
0.0
 11
188.9027
 21
141.279793164062
 31
0.0
 0
LINE
 5
274
100
AcDbEntity
 8
Layer8
100
AcDbLine
 39
0.25
 370
106
 10
188.8007
 20
141.074793164063
 30
0.0
 11
190.8627
 21
140.664793164062
 31
0.0
 0
LINE
 5
275
100
AcDbEntity
 8
Layer8
100
AcDbLine
 39
0.25
 370
106
 10
188.9027
 20
141.279793164062
 30
0.0
 11
188.9027
 21
141.177793164062
 31
0.0
 0
LINE
 5
276
100
AcDbEntity
 8
Layer8
100
AcDbLine
 39
0.25
 370
106
 10
188.9027
 20
141.177793164062
 30
0.0
 11
188.8007
 21
141.177793164062
 31
0.0
 0
LINE
 5
277
100
AcDbEntity
 8
Layer8
100
AcDbLine
 39
0.25
 370
106
 10
188.8007
 20
141.177793164062
 30
0.0
 11
188.8007
 21
141.074793164063
 31
0.0
 0
ARC
 5
278
100
AcDbEntity
 8
Layer8
100
AcDbCircle
 39
0.25
 370
106
 10
189.936200000001
 20
140.556534627471
 30
0.0
 40
1.34290549211376
100
AcDbArc
 50
32.5868481175504
 51
122.447272596702
 0
LINE
 5
279
100
AcDbEntity
 8
Layer8
100
AcDbLine
 39
0.25
 370
106
 10
188.9027
 20
141.279793164062
 30
0.0
 11
188.9027
 21
141.484793164062
 31
0.0
 0
LINE
 5
27A
100
AcDbEntity
 8
Layer8
100
AcDbLine
 39
0.25
 370
106
 10
188.9027
 20
141.484793164062
 30
0.0
 11
189.2157
 21
141.689793164063
 31
0.0
 0
LINE
 5
27B
100
AcDbEntity
 8
Layer8
100
AcDbLine
 39
0.25
 370
106
 10
191.0677
 20
141.279793164062
 30
0.0
 11
191.0677
 21
140.971793164062
 31
0.0
 0
LINE
 5
27C
100
AcDbEntity
 8
Layer8
100
AcDbLine
 39
0.25
 370
106
 10
191.0677
 20
140.869793164062
 30
0.0
 11
191.0677
 21
140.971793164062
 31
0.0
 0
LINE
 5
27D
100
AcDbEntity
 8
Layer8
100
AcDbLine
 39
0.25
 370
106
 10
190.9647
 20
140.459793164062
 30
0.0
 11
190.9647
 21
140.561793164062
 31
0.0
 0
LINE
 5
27E
100
AcDbEntity
 8
Layer8
100
AcDbLine
 39
0.25
 370
106
 10
190.9647
 20
140.561793164062
 30
0.0
 11
191.0677
 21
140.561793164062
 31
0.0
 0
LINE
 5
27F
100
AcDbEntity
 8
Layer8
100
AcDbLine
 39
0.25
 370
106
 10
191.0677
 20
140.561793164062
 30
0.0
 11
191.0677
 21
140.869793164062
 31
0.0
 0
LINE
 5
280
100
AcDbEntity
 8
Layer8
100
AcDbLine
 39
0.25
 370
106
 10
190.9647
 20
140.459793164062
 30
0.0
 11
190.9647
 21
140.561793164062
 31
0.0
 0
ARC
 5
281
100
AcDbEntity
 8
Layer8
100
AcDbCircle
 39
0.25
 370
106
 10
189.590123952229
 20
140.790466711772
 30
0.0
 40
0.7897788381653
100
AcDbArc
 50
-178.282307013777
 51
-110.100679655176
 0
ARC
 5
282
100
AcDbEntity
 8
Layer8
100
AcDbCircle
 39
0.25
 370
106
 10
189.926124967126
 20
141.390824143359
 30
0.0
 40
1.47309614081392
100
AcDbArc
 50
-114.352278028334
 51
-39.1995509304491
 0
LINE
 5
283
100
AcDbEntity
 8
Layer8
100
AcDbLine
 39
0.25
 370
106
 10
191.0677
 20
140.459793164062
 30
0.0
 11
191.0677
 21
140.766793164063
 31
0.0
 0
ARC
 5
284
100
AcDbEntity
 8
Layer8
100
AcDbCircle
 39
0.25
 370
106
 10
189.889313149679
 20
142.173200974854
 30
0.0
 40
1.93728986228852
100
AcDbArc
 50
-110.347252100421
 51
-56.2824950509409
 0
LINE
 5
285
100
AcDbEntity
 8
Layer8
100
AcDbLine
 39
0.25
 370
106
 10
189.2157
 20
140.356793164062
 30
0.0
 11
188.8007
 21
140.766793164063
 31
0.0
 0
LINE
 5
286
100
AcDbEntity
 8
Layer8
100
AcDbLine
 39
0.25
 370
106
 10
188.8007
 20
140.766793164063
 30
0.0
 11
188.8007
 21
141.074793164063
 31
0.0
 0
LINE
 5
287
100
AcDbEntity
 8
Layer8
100
AcDbLine
 39
0.25
 370
106
 10
190.8627
 20
140.664793164062
 30
0.0
 11
190.9647
 21
140.561793164062
 31
0.0
 0
ARC
 5
288
100
AcDbEntity
 8
Layer8
100
AcDbCircle
 39
0.25
 370
106
 10
189.971671916608
 20
141.573749486122
 30
0.0
 40
1.27284431129973
100
AcDbArc
 50
-156.920931233758
 51
-45.5706596346783
 0
LINE
 5
289
100
AcDbEntity
 8
Layer8
100
AcDbLine
 39
0.25
 370
106
 10
188.9027
 20
216.109793164062
 30
0.0
 11
189.0107
 21
215.802793164062
 31
0.0
 0
LINE
 5
28A
100
AcDbEntity
 8
Layer8
100
AcDbLine
 39
0.25
 370
106
 10
189.0107
 20
215.802793164062
 30
0.0
 11
189.5237
 21
215.494793164062
 31
0.0
 0
LINE
 5
28B
100
AcDbEntity
 8
Layer8
100
AcDbLine
 39
0.25
 370
106
 10
189.5237
 20
215.494793164062
 30
0.0
 11
190.5497
 21
215.596793164062
 31
0.0
 0
LINE
 5
28C
100
AcDbEntity
 8
Layer8
100
AcDbLine
 39
0.25
 370
106
 10
190.5497
 20
215.596793164062
 30
0.0
 11
190.9647
 21
216.007793164062
 31
0.0
 0
LINE
 5
28D
100
AcDbEntity
 8
Layer8
100
AcDbLine
 39
0.25
 370
106
 10
188.8007
 20
216.109793164062
 30
0.0
 11
190.9647
 21
216.007793164062
 31
0.0
 0
LINE
 5
28E
100
AcDbEntity
 8
Layer8
100
AcDbLine
 39
0.25
 370
106
 10
190.9647
 20
216.007793164062
 30
0.0
 11
191.0677
 21
216.109793164062
 31
0.0
 0
LINE
 5
28F
100
AcDbEntity
 8
Layer8
100
AcDbLine
 39
0.25
 370
106
 10
188.8007
 20
216.314793164062
 30
0.0
 11
191.0677
 21
216.212793164062
 31
0.0
 0
LINE
 5
290
100
AcDbEntity
 8
Layer8
100
AcDbLine
 39
0.25
 370
106
 10
190.9647
 20
216.417793164062
 30
0.0
 11
188.9027
 21
216.520793164063
 31
0.0
 0
LINE
 5
291
100
AcDbEntity
 8
Layer8
100
AcDbLine
 39
0.25
 370
106
 10
188.8007
 20
216.725793164062
 30
0.0
 11
188.8007
 21
216.314793164062
 31
0.0
 0
LINE
 5
292
100
AcDbEntity
 8
Layer8
100
AcDbLine
 39
0.25
 370
106
 10
188.8007
 20
216.725793164062
 30
0.0
 11
188.8007
 21
216.520793164063
 31
0.0
 0
LINE
 5
293
100
AcDbEntity
 8
Layer8
100
AcDbLine
 39
0.25
 370
106
 10
191.0677
 20
216.622793164063
 30
0.0
 11
191.0677
 21
216.520793164063
 31
0.0
 0
LINE
 5
294
100
AcDbEntity
 8
Layer8
100
AcDbLine
 39
0.25
 370
106
 10
191.0677
 20
216.212793164062
 30
0.0
 11
191.0677
 21
216.622793164063
 31
0.0
 0
ARC
 5
295
100
AcDbEntity
 8
Layer8
100
AcDbCircle
 39
0.25
 370
106
 10
189.890360191968
 20
216.725443113361
 30
0.0
 40
1.28411019545912
100
AcDbArc
 50
-140.276701689836
 51
-23.5297898388932
 0
LINE
 5
296
100
AcDbEntity
 8
Layer8
100
AcDbLine
 39
0.25
 370
106
 10
188.9027
 20
215.904793164062
 30
0.0
 11
188.8007
 21
216.109793164062
 31
0.0
 0
LINE
 5
297
100
AcDbEntity
 8
Layer8
100
AcDbLine
 39
0.25
 370
106
 10
188.8007
 20
216.314793164062
 30
0.0
 11
188.8007
 21
216.109793164062
 31
0.0
 0
ARC
 5
298
100
AcDbEntity
 8
Layer8
100
AcDbCircle
 39
0.25
 370
106
 10
190.19507512055
 20
216.571480724335
 30
0.0
 40
0.874132224955758
100
AcDbArc
 50
3.3652543750203
 51
93.6977241170774
 0
ARC
 5
299
100
AcDbEntity
 8
Layer8
100
AcDbCircle
 39
0.25
 370
106
 10
189.83802186732
 20
216.282183827449
 30
0.0
 40
1.19989315790205
100
AcDbArc
 50
75.4877245153749
 51
141.215211287686
 0
LINE
 5
29A
100
AcDbEntity
 8
Layer8
100
AcDbLine
 39
0.25
 370
106
 10
188.9027
 20
217.033793164063
 30
0.0
 11
188.8007
 21
216.622793164063
 31
0.0
 0
LINE
 5
29B
100
AcDbEntity
 8
Layer8
100
AcDbLine
 39
0.25
 370
106
 10
191.0677
 20
216.520793164063
 30
0.0
 11
190.9647
 21
216.417793164062
 31
0.0
 0
ARC
 5
29C
100
AcDbEntity
 8
Layer8
100
AcDbCircle
 39
0.25
 370
106
 10
189.934200000003
 20
215.920722432348
 30
0.0
 40
1.28253933002764
100
AcDbArc
 50
71.3329532030237
 51
152.103420046791
 0
LINE
 5
29D
100
AcDbEntity
 8
Layer8
100
AcDbLine
 39
0.25
 370
106
 10
190.3447
 20
217.135793164062
 30
0.0
 11
191.0677
 21
216.520793164063
 31
0.0
 0
LINE
 5
29E
100
AcDbEntity
 8
Layer8
100
AcDbLine
 39
0.25
 370
106
 10
188.9027
 20
216.520793164063
 30
0.0
 11
188.8007
 21
216.520793164063
 31
0.0
 0
LINE
 5
29F
100
AcDbEntity
 8
Layer8
100
AcDbLine
 39
0.25
 370
106
 10
190.9647
 20
216.417793164062
 30
0.0
 11
190.8627
 21
216.725793164062
 31
0.0
 0
LINE
 5
2A0
100
AcDbEntity
 8
Layer8
100
AcDbLine
 39
0.25
 370
106
 10
190.8627
 20
216.725793164062
 30
0.0
 11
189.9337
 21
217.033793164063
 31
0.0
 0
LINE
 5
2A1
100
AcDbEntity
 8
Layer8
100
AcDbLine
 39
0.25
 370
106
 10
189.9337
 20
217.033793164063
 30
0.0
 11
189.0107
 21
216.725793164062
 31
0.0
 0
LINE
 5
2A2
100
AcDbEntity
 8
Layer8
100
AcDbLine
 39
0.25
 370
106
 10
189.0107
 20
216.725793164062
 30
0.0
 11
188.9027
 21
216.520793164063
 31
0.0
 0
LINE
 5
2A3
100
AcDbEntity
 8
Layer8
100
AcDbLine
 39
0.25
 370
106
 10
99.3637
 20
177.309793164063
 30
0.0
 11
99.3637
 21
177.207793164062
 31
0.0
 0
LINE
 5
2A4
100
AcDbEntity
 8
Layer8
100
AcDbLine
 39
0.25
 370
106
 10
99.0557
 20
177.720793164062
 30
0.0
 11
99.1577
 21
177.515793164063
 31
0.0
 0
LINE
 5
2A5
100
AcDbEntity
 8
Layer8
100
AcDbLine
 39
0.25
 370
106
 10
99.1577
 20
177.515793164063
 30
0.0
 11
99.3637
 21
177.309793164063
 31
0.0
 0
LINE
 5
2A6
100
AcDbEntity
 8
Layer8
100
AcDbLine
 39
0.25
 370
106
 10
99.5687
 20
177.309793164063
 30
0.0
 11
99.3637
 21
177.309793164063
 31
0.0
 0
LINE
 5
2A7
100
AcDbEntity
 8
Layer8
100
AcDbLine
 39
0.25
 370
106
 10
99.5687
 20
178.746793164063
 30
0.0
 11
99.3637
 21
178.746793164063
 31
0.0
 0
LINE
 5
2A8
100
AcDbEntity
 8
Layer8
100
AcDbLine
 39
0.25
 370
106
 10
99.3637
 20
178.746793164063
 30
0.0
 11
99.1577
 21
178.335793164062
 31
0.0
 0
LINE
 5
2A9
100
AcDbEntity
 8
Layer8
100
AcDbLine
 39
0.25
 370
106
 10
99.1577
 20
178.335793164062
 30
0.0
 11
99.0557
 21
178.233793164062
 31
0.0
 0
LINE
 5
2AA
100
AcDbEntity
 8
Layer8
100
AcDbLine
 39
0.25
 370
106
 10
99.3637
 20
180.079793164062
 30
0.0
 11
99.3637
 21
178.746793164063
 31
0.0
 0
LINE
 5
2AB
100
AcDbEntity
 8
Layer8
100
AcDbLine
 39
0.25
 370
106
 10
99.5687
 20
180.592793164063
 30
0.0
 11
99.5687
 21
180.489793164062
 31
0.0
 0
LINE
 5
2AC
100
AcDbEntity
 8
Layer8
100
AcDbLine
 39
0.25
 370
106
 10
99.9787
 20
176.591793164062
 30
0.0
 11
100.1887
 21
176.591793164062
 31
0.0
 0
LINE
 5
2AD
100
AcDbEntity
 8
Layer8
100
AcDbLine
 39
0.25
 370
106
 10
100.1887
 20
176.591793164062
 30
0.0
 11
100.2917
 21
176.694793164063
 31
0.0
 0
LINE
 5
2AE
100
AcDbEntity
 8
Layer8
100
AcDbLine
 39
0.25
 370
106
 10
100.2917
 20
176.694793164063
 30
0.0
 11
100.2917
 21
176.797793164062
 31
0.0
 0
LINE
 5
2AF
100
AcDbEntity
 8
Layer8
100
AcDbLine
 39
0.25
 370
106
 10
99.5687
 20
177.309793164063
 30
0.0
 11
99.5687
 21
176.797793164062
 31
0.0
 0
LINE
 5
2B0
100
AcDbEntity
 8
Layer8
100
AcDbLine
 39
0.25
 370
106
 10
100.2917
 20
180.700793164062
 30
0.0
 11
100.2917
 21
180.489793164062
 31
0.0
 0
LINE
 5
2B1
100
AcDbEntity
 8
Layer8
100
AcDbLine
 39
0.25
 370
106
 10
99.5687
 20
180.489793164062
 30
0.0
 11
99.5687
 21
179.258793164062
 31
0.0
 0
LINE
 5
2B2
100
AcDbEntity
 8
Layer8
100
AcDbLine
 39
0.25
 370
106
 10
99.8757
 20
180.284793164062
 30
0.0
 11
99.5687
 21
180.284793164062
 31
0.0
 0
LINE
 5
2B3
100
AcDbEntity
 8
Layer8
100
AcDbLine
 39
0.25
 370
106
 10
99.5687
 20
180.284793164062
 30
0.0
 11
99.5687
 21
180.489793164062
 31
0.0
 0
LINE
 5
2B4
100
AcDbEntity
 8
Layer8
100
AcDbLine
 39
0.25
 370
106
 10
100.2917
 20
180.489793164062
 30
0.0
 11
100.2917
 21
180.387793164062
 31
0.0
 0
LINE
 5
2B5
100
AcDbEntity
 8
Layer8
100
AcDbLine
 39
0.25
 370
106
 10
100.2917
 20
180.387793164062
 30
0.0
 11
100.1887
 21
180.284793164062
 31
0.0
 0
LINE
 5
2B6
100
AcDbEntity
 8
Layer8
100
AcDbLine
 39
0.25
 370
106
 10
100.1887
 20
180.284793164062
 30
0.0
 11
99.9787
 21
180.284793164062
 31
0.0
 0
LINE
 5
2B7
100
AcDbEntity
 8
Layer8
100
AcDbLine
 39
0.25
 370
106
 10
99.5687
 20
177.309793164063
 30
0.0
 11
99.5687
 21
177.412793164062
 31
0.0
 0
LINE
 5
2B8
100
AcDbEntity
 8
Layer8
100
AcDbLine
 39
0.25
 370
106
 10
99.8757
 20
176.591793164062
 30
0.0
 11
99.7737
 21
176.591793164062
 31
0.0
 0
LINE
 5
2B9
100
AcDbEntity
 8
Layer8
100
AcDbLine
 39
0.25
 370
106
 10
99.7737
 20
176.591793164062
 30
0.0
 11
99.6707
 21
176.694793164063
 31
0.0
 0
LINE
 5
2BA
100
AcDbEntity
 8
Layer8
100
AcDbLine
 39
0.25
 370
106
 10
99.6707
 20
176.694793164063
 30
0.0
 11
99.5687
 21
177.002793164063
 31
0.0
 0
LINE
 5
2BB
100
AcDbEntity
 8
Layer8
100
AcDbLine
 39
0.25
 370
106
 10
99.5687
 20
177.002793164063
 30
0.0
 11
99.5687
 21
177.309793164063
 31
0.0
 0
LINE
 5
2BC
100
AcDbEntity
 8
Layer8
100
AcDbLine
 39
0.25
 370
106
 10
99.8757
 20
176.591793164062
 30
0.0
 11
99.9787
 21
176.591793164062
 31
0.0
 0
LINE
 5
2BD
100
AcDbEntity
 8
Layer8
100
AcDbLine
 39
0.25
 370
106
 10
100.2917
 20
177.309793164063
 30
0.0
 11
100.2917
 21
176.899793164062
 31
0.0
 0
LINE
 5
2BE
100
AcDbEntity
 8
Layer8
100
AcDbLine
 39
0.25
 370
106
 10
100.2917
 20
176.899793164062
 30
0.0
 11
100.1887
 21
176.694793164063
 31
0.0
 0
LINE
 5
2BF
100
AcDbEntity
 8
Layer8
100
AcDbLine
 39
0.25
 370
106
 10
100.1887
 20
176.694793164063
 30
0.0
 11
100.0867
 21
176.591793164062
 31
0.0
 0
LINE
 5
2C0
100
AcDbEntity
 8
Layer8
100
AcDbLine
 39
0.25
 370
106
 10
100.0867
 20
176.591793164062
 30
0.0
 11
99.9787
 21
176.591793164062
 31
0.0
 0
LINE
 5
2C1
100
AcDbEntity
 8
Layer8
100
AcDbLine
 39
0.25
 370
106
 10
99.9787
 20
178.130793164062
 30
0.0
 11
100.1887
 21
178.130793164062
 31
0.0
 0
LINE
 5
2C2
100
AcDbEntity
 8
Layer8
100
AcDbLine
 39
0.25
 370
106
 10
100.1887
 20
178.130793164062
 30
0.0
 11
100.1887
 21
178.027793164062
 31
0.0
 0
LINE
 5
2C3
100
AcDbEntity
 8
Layer8
100
AcDbLine
 39
0.25
 370
106
 10
100.1887
 20
178.027793164062
 30
0.0
 11
100.2917
 21
177.720793164062
 31
0.0
 0
LINE
 5
2C4
100
AcDbEntity
 8
Layer8
100
AcDbLine
 39
0.25
 370
106
 10
100.2917
 20
177.720793164062
 30
0.0
 11
100.2917
 21
177.412793164062
 31
0.0
 0
LINE
 5
2C5
100
AcDbEntity
 8
Layer8
100
AcDbLine
 39
0.25
 370
106
 10
99.5687
 20
177.412793164062
 30
0.0
 11
99.5687
 21
177.822793164062
 31
0.0
 0
LINE
 5
2C6
100
AcDbEntity
 8
Layer8
100
AcDbLine
 39
0.25
 370
106
 10
99.5687
 20
177.822793164062
 30
0.0
 11
99.6707
 21
178.027793164062
 31
0.0
 0
LINE
 5
2C7
100
AcDbEntity
 8
Layer8
100
AcDbLine
 39
0.25
 370
106
 10
99.6707
 20
178.027793164062
 30
0.0
 11
99.7737
 21
178.130793164062
 31
0.0
 0
LINE
 5
2C8
100
AcDbEntity
 8
Layer8
100
AcDbLine
 39
0.25
 370
106
 10
99.7737
 20
178.130793164062
 30
0.0
 11
99.8757
 21
178.130793164062
 31
0.0
 0
LINE
 5
2C9
100
AcDbEntity
 8
Layer8
100
AcDbLine
 39
0.25
 370
106
 10
99.5687
 20
179.156793164062
 30
0.0
 11
99.5687
 21
177.412793164062
 31
0.0
 0
LINE
 5
2CA
100
AcDbEntity
 8
Layer8
100
AcDbLine
 39
0.25
 370
106
 10
99.9787
 20
180.284793164062
 30
0.0
 11
100.0867
 21
180.284793164062
 31
0.0
 0
LINE
 5
2CB
100
AcDbEntity
 8
Layer8
100
AcDbLine
 39
0.25
 370
106
 10
100.0867
 20
180.284793164062
 30
0.0
 11
100.0867
 21
180.182793164063
 31
0.0
 0
LINE
 5
2CC
100
AcDbEntity
 8
Layer8
100
AcDbLine
 39
0.25
 370
106
 10
100.0867
 20
180.182793164063
 30
0.0
 11
100.1887
 21
180.182793164063
 31
0.0
 0
LINE
 5
2CD
100
AcDbEntity
 8
Layer8
100
AcDbLine
 39
0.25
 370
106
 10
100.1887
 20
180.182793164063
 30
0.0
 11
100.1887
 21
180.079793164062
 31
0.0
 0
LINE
 5
2CE
100
AcDbEntity
 8
Layer8
100
AcDbLine
 39
0.25
 370
106
 10
100.1887
 20
180.079793164062
 30
0.0
 11
100.2917
 21
179.669793164063
 31
0.0
 0
LINE
 5
2CF
100
AcDbEntity
 8
Layer8
100
AcDbLine
 39
0.25
 370
106
 10
100.2917
 20
179.669793164063
 30
0.0
 11
100.2917
 21
179.258793164062
 31
0.0
 0
LINE
 5
2D0
100
AcDbEntity
 8
Layer8
100
AcDbLine
 39
0.25
 370
106
 10
99.8757
 20
180.284793164062
 30
0.0
 11
99.9787
 21
180.284793164062
 31
0.0
 0
LINE
 5
2D1
100
AcDbEntity
 8
Layer8
100
AcDbLine
 39
0.25
 370
106
 10
99.5687
 20
179.258793164062
 30
0.0
 11
99.5687
 21
179.771793164063
 31
0.0
 0
LINE
 5
2D2
100
AcDbEntity
 8
Layer8
100
AcDbLine
 39
0.25
 370
106
 10
99.5687
 20
179.771793164063
 30
0.0
 11
99.6707
 21
180.079793164062
 31
0.0
 0
LINE
 5
2D3
100
AcDbEntity
 8
Layer8
100
AcDbLine
 39
0.25
 370
106
 10
99.6707
 20
180.079793164062
 30
0.0
 11
99.6707
 21
180.182793164063
 31
0.0
 0
LINE
 5
2D4
100
AcDbEntity
 8
Layer8
100
AcDbLine
 39
0.25
 370
106
 10
99.6707
 20
180.182793164063
 30
0.0
 11
99.7737
 21
180.182793164063
 31
0.0
 0
LINE
 5
2D5
100
AcDbEntity
 8
Layer8
100
AcDbLine
 39
0.25
 370
106
 10
99.7737
 20
180.182793164063
 30
0.0
 11
99.7737
 21
180.284793164062
 31
0.0
 0
LINE
 5
2D6
100
AcDbEntity
 8
Layer8
100
AcDbLine
 39
0.25
 370
106
 10
99.7737
 20
180.284793164062
 30
0.0
 11
99.8757
 21
180.284793164062
 31
0.0
 0
LINE
 5
2D7
100
AcDbEntity
 8
Layer8
100
AcDbLine
 39
0.25
 370
106
 10
99.5687
 20
179.156793164062
 30
0.0
 11
99.5687
 21
179.258793164062
 31
0.0
 0
LINE
 5
2D8
100
AcDbEntity
 8
Layer8
100
AcDbLine
 39
0.25
 370
106
 10
99.8757
 20
178.130793164062
 30
0.0
 11
99.7737
 21
178.130793164062
 31
0.0
 0
LINE
 5
2D9
100
AcDbEntity
 8
Layer8
100
AcDbLine
 39
0.25
 370
106
 10
99.7737
 20
178.130793164062
 30
0.0
 11
99.6707
 21
178.233793164062
 31
0.0
 0
LINE
 5
2DA
100
AcDbEntity
 8
Layer8
100
AcDbLine
 39
0.25
 370
106
 10
99.6707
 20
178.233793164062
 30
0.0
 11
99.6707
 21
178.335793164062
 31
0.0
 0
LINE
 5
2DB
100
AcDbEntity
 8
Layer8
100
AcDbLine
 39
0.25
 370
106
 10
99.6707
 20
178.335793164062
 30
0.0
 11
99.5687
 21
178.746793164063
 31
0.0
 0
LINE
 5
2DC
100
AcDbEntity
 8
Layer8
100
AcDbLine
 39
0.25
 370
106
 10
99.5687
 20
178.746793164063
 30
0.0
 11
99.5687
 21
179.156793164062
 31
0.0
 0
LINE
 5
2DD
100
AcDbEntity
 8
Layer8
100
AcDbLine
 39
0.25
 370
106
 10
99.8757
 20
178.130793164062
 30
0.0
 11
99.9787
 21
178.130793164062
 31
0.0
 0
LINE
 5
2DE
100
AcDbEntity
 8
Layer8
100
AcDbLine
 39
0.25
 370
106
 10
100.2917
 20
179.156793164062
 30
0.0
 11
100.2917
 21
178.643793164062
 31
0.0
 0
LINE
 5
2DF
100
AcDbEntity
 8
Layer8
100
AcDbLine
 39
0.25
 370
106
 10
100.2917
 20
178.643793164062
 30
0.0
 11
100.1887
 21
178.335793164062
 31
0.0
 0
LINE
 5
2E0
100
AcDbEntity
 8
Layer8
100
AcDbLine
 39
0.25
 370
106
 10
100.1887
 20
178.335793164062
 30
0.0
 11
100.1887
 21
178.233793164062
 31
0.0
 0
LINE
 5
2E1
100
AcDbEntity
 8
Layer8
100
AcDbLine
 39
0.25
 370
106
 10
100.1887
 20
178.233793164062
 30
0.0
 11
100.0867
 21
178.233793164062
 31
0.0
 0
LINE
 5
2E2
100
AcDbEntity
 8
Layer8
100
AcDbLine
 39
0.25
 370
106
 10
100.0867
 20
178.233793164062
 30
0.0
 11
100.0867
 21
178.130793164062
 31
0.0
 0
LINE
 5
2E3
100
AcDbEntity
 8
Layer8
100
AcDbLine
 39
0.25
 370
106
 10
100.0867
 20
178.130793164062
 30
0.0
 11
99.9787
 21
178.130793164062
 31
0.0
 0
LINE
 5
2E4
100
AcDbEntity
 8
Layer8
100
AcDbLine
 39
0.25
 370
106
 10
100.2917
 20
181.315793164062
 30
0.0
 11
100.5997
 21
181.315793164062
 31
0.0
 0
LINE
 5
2E5
100
AcDbEntity
 8
Layer8
100
AcDbLine
 39
0.25
 370
106
 10
100.2917
 20
176.181793164062
 30
0.0
 11
100.2917
 21
176.078793164063
 31
0.0
 0
LINE
 5
2E6
100
AcDbEntity
 8
Layer8
100
AcDbLine
 39
0.25
 370
106
 10
100.2917
 20
176.284793164062
 30
0.0
 11
100.2917
 21
176.181793164062
 31
0.0
 0
LINE
 5
2E7
100
AcDbEntity
 8
Layer8
100
AcDbLine
 39
0.25
 370
106
 10
100.2917
 20
176.181793164062
 30
0.0
 11
100.5997
 21
176.181793164062
 31
0.0
 0
LINE
 5
2E8
100
AcDbEntity
 8
Layer8
100
AcDbLine
 39
0.25
 370
106
 10
100.2917
 20
181.002793164063
 30
0.0
 11
100.2917
 21
180.900793164063
 31
0.0
 0
LINE
 5
2E9
100
AcDbEntity
 8
Layer8
100
AcDbLine
 39
0.25
 370
106
 10
100.2917
 20
181.315793164062
 30
0.0
 11
100.2917
 21
181.002793164063
 31
0.0
 0
LINE
 5
2EA
100
AcDbEntity
 8
Layer8
100
AcDbLine
 39
0.25
 370
106
 10
100.2917
 20
181.315793164062
 30
0.0
 11
100.5997
 21
181.315793164062
 31
0.0
 0
LINE
 5
2EB
100
AcDbEntity
 8
Layer8
100
AcDbLine
 39
0.25
 370
106
 10
100.2917
 20
181.002793164063
 30
0.0
 11
100.5997
 21
181.002793164063
 31
0.0
 0
LINE
 5
2EC
100
AcDbEntity
 8
Layer8
100
AcDbLine
 39
0.25
 370
106
 10
100.2917
 20
176.899793164062
 30
0.0
 11
100.2917
 21
176.284793164062
 31
0.0
 0
LINE
 5
2ED
100
AcDbEntity
 8
Layer8
100
AcDbLine
 39
0.25
 370
106
 10
100.2917
 20
176.284793164062
 30
0.0
 11
100.5997
 21
176.284793164062
 31
0.0
 0
LINE
 5
2EE
100
AcDbEntity
 8
Layer8
100
AcDbLine
 39
0.25
 370
106
 10
100.2917
 20
176.899793164062
 30
0.0
 11
100.5997
 21
176.899793164062
 31
0.0
 0
LINE
 5
2EF
100
AcDbEntity
 8
Layer8
100
AcDbLine
 39
0.25
 370
106
 10
100.2917
 20
180.182793164063
 30
0.0
 11
100.2917
 21
180.079793164062
 31
0.0
 0
LINE
 5
2F0
100
AcDbEntity
 8
Layer8
100
AcDbLine
 39
0.25
 370
106
 10
100.2917
 20
180.900793164063
 30
0.0
 11
100.2917
 21
180.182793164063
 31
0.0
 0
LINE
 5
2F1
100
AcDbEntity
 8
Layer8
100
AcDbLine
 39
0.25
 370
106
 10
100.2917
 20
180.900793164063
 30
0.0
 11
100.5997
 21
180.900793164063
 31
0.0
 0
LINE
 5
2F2
100
AcDbEntity
 8
Layer8
100
AcDbLine
 39
0.25
 370
106
 10
100.2917
 20
180.182793164063
 30
0.0
 11
100.5997
 21
180.182793164063
 31
0.0
 0
LINE
 5
2F3
100
AcDbEntity
 8
Layer8
100
AcDbLine
 39
0.25
 370
106
 10
100.2917
 20
177.822793164062
 30
0.0
 11
100.2917
 21
176.899793164062
 31
0.0
 0
LINE
 5
2F4
100
AcDbEntity
 8
Layer8
100
AcDbLine
 39
0.25
 370
106
 10
100.2917
 20
176.899793164062
 30
0.0
 11
100.5997
 21
176.899793164062
 31
0.0
 0
LINE
 5
2F5
100
AcDbEntity
 8
Layer8
100
AcDbLine
 39
0.25
 370
106
 10
100.2917
 20
177.925793164063
 30
0.0
 11
100.2917
 21
177.822793164062
 31
0.0
 0
LINE
 5
2F6
100
AcDbEntity
 8
Layer8
100
AcDbLine
 39
0.25
 370
106
 10
100.2917
 20
177.822793164062
 30
0.0
 11
100.5997
 21
177.822793164062
 31
0.0
 0
LINE
 5
2F7
100
AcDbEntity
 8
Layer8
100
AcDbLine
 39
0.25
 370
106
 10
100.2917
 20
179.156793164062
 30
0.0
 11
100.2917
 21
179.053793164062
 31
0.0
 0
LINE
 5
2F8
100
AcDbEntity
 8
Layer8
100
AcDbLine
 39
0.25
 370
106
 10
100.2917
 20
180.079793164062
 30
0.0
 11
100.2917
 21
179.156793164062
 31
0.0
 0
LINE
 5
2F9
100
AcDbEntity
 8
Layer8
100
AcDbLine
 39
0.25
 370
106
 10
100.2917
 20
180.079793164062
 30
0.0
 11
100.5997
 21
180.079793164062
 31
0.0
 0
LINE
 5
2FA
100
AcDbEntity
 8
Layer8
100
AcDbLine
 39
0.25
 370
106
 10
100.2917
 20
179.156793164062
 30
0.0
 11
100.5997
 21
179.156793164062
 31
0.0
 0
LINE
 5
2FB
100
AcDbEntity
 8
Layer8
100
AcDbLine
 39
0.25
 370
106
 10
100.2917
 20
179.053793164062
 30
0.0
 11
100.2917
 21
177.925793164063
 31
0.0
 0
LINE
 5
2FC
100
AcDbEntity
 8
Layer8
100
AcDbLine
 39
0.25
 370
106
 10
100.2917
 20
179.053793164062
 30
0.0
 11
100.5997
 21
179.053793164062
 31
0.0
 0
LINE
 5
2FD
100
AcDbEntity
 8
Layer8
100
AcDbLine
 39
0.25
 370
106
 10
100.2917
 20
177.925793164063
 30
0.0
 11
100.5997
 21
177.925793164063
 31
0.0
 0
LINE
 5
2FE
100
AcDbEntity
 8
Layer8
100
AcDbLine
 39
0.25
 370
106
 10
207.4337
 20
218.674793164062
 30
0.0
 11
208.3567
 21
218.674793164062
 31
0.0
 0
LINE
 5
2FF
100
AcDbEntity
 8
Layer8
100
AcDbLine
 39
0.25
 370
106
 10
207.4337
 20
217.545793164063
 30
0.0
 11
208.3567
 21
217.545793164063
 31
0.0
 0
LINE
 5
300
100
AcDbEntity
 8
Layer8
100
AcDbLine
 39
0.25
 370
106
 10
208.3567
 20
217.545793164063
 30
0.0
 11
208.3567
 21
217.443793164063
 31
0.0
 0
LINE
 5
301
100
AcDbEntity
 8
Layer8
100
AcDbLine
 39
0.25
 370
106
 10
208.3567
 20
217.443793164063
 30
0.0
 11
207.4337
 21
217.443793164063
 31
0.0
 0
ARC
 5
302
100
AcDbEntity
 8
Layer8
100
AcDbCircle
 39
0.25
 370
106
 10
206.499979055586
 20
142.858990300063
 30
0.0
 40
1.88908811624689
100
AcDbArc
 50
-70.8172497088579
 51
-10.6215022949747
 0
LINE
 5
303
100
AcDbEntity
 8
Layer8
100
AcDbLine
 39
0.25
 370
106
 10
207.1207
 20
141.074793164063
 30
0.0
 11
207.1207
 21
141.689793164063
 31
0.0
 0
LINE
 5
304
100
AcDbEntity
 8
Layer8
100
AcDbLine
 39
0.25
 370
106
 10
205.0637
 20
140.459793164062
 30
0.0
 11
207.1207
 21
141.074793164063
 31
0.0
 0
LINE
 5
305
100
AcDbEntity
 8
Layer8
100
AcDbLine
 39
0.25
 370
106
 10
204.8587
 20
141.074793164063
 30
0.0
 11
207.1207
 21
141.689793164063
 31
0.0
 0
LINE
 5
306
100
AcDbEntity
 8
Layer8
100
AcDbLine
 39
0.25
 370
106
 10
205.2697
 20
144.054793164063
 30
0.0
 11
205.5767
 21
144.362793164063
 31
0.0
 0
LINE
 5
307
100
AcDbEntity
 8
Layer8
100
AcDbLine
 39
0.25
 370
106
 10
205.5767
 20
144.362793164063
 30
0.0
 11
206.8127
 21
144.567793164062
 31
0.0
 0
LINE
 5
308
100
AcDbEntity
 8
Layer8
100
AcDbLine
 39
0.25
 370
106
 10
206.8127
 20
144.567793164062
 30
0.0
 11
207.6387
 21
144.362793164063
 31
0.0
 0
LINE
 5
309
100
AcDbEntity
 8
Layer8
100
AcDbLine
 39
0.25
 370
106
 10
207.6387
 20
144.362793164063
 30
0.0
 11
208.1517
 21
143.849793164062
 31
0.0
 0
LINE
 5
30A
100
AcDbEntity
 8
Layer8
100
AcDbLine
 39
0.25
 370
106
 10
208.1517
 20
143.849793164062
 30
0.0
 11
208.3567
 21
143.438793164062
 31
0.0
 0
LINE
 5
30B
100
AcDbEntity
 8
Layer8
100
AcDbLine
 39
0.25
 370
106
 10
208.3567
 20
143.438793164062
 30
0.0
 11
208.1517
 21
142.413793164063
 31
0.0
 0
LINE
 5
30C
100
AcDbEntity
 8
Layer8
100
AcDbLine
 39
0.25
 370
106
 10
208.1517
 20
142.413793164063
 30
0.0
 11
207.8437
 21
142.105793164063
 31
0.0
 0
LINE
 5
30D
100
AcDbEntity
 8
Layer8
100
AcDbLine
 39
0.25
 370
106
 10
207.8437
 20
142.105793164063
 30
0.0
 11
207.1207
 21
141.689793164063
 31
0.0
 0
LINE
 5
30E
100
AcDbEntity
 8
Layer8
100
AcDbLine
 39
0.25
 370
106
 10
202.5917
 20
141.382793164062
 30
0.0
 11
205.2697
 21
144.054793164063
 31
0.0
 0
LINE
 5
30F
100
AcDbEntity
 8
Layer8
100
AcDbLine
 39
0.25
 370
106
 10
202.4897
 20
137.279793164062
 30
0.0
 11
202.4897
 21
139.125793164062
 31
0.0
 0
LINE
 5
310
100
AcDbEntity
 8
Layer8
100
AcDbLine
 39
0.25
 370
106
 10
204.8587
 20
138.202793164062
 30
0.0
 11
204.8587
 21
141.074793164063
 31
0.0
 0
LINE
 5
311
100
AcDbEntity
 8
Layer8
100
AcDbLine
 39
0.25
 370
106
 10
202.4897
 20
137.997793164063
 30
0.0
 11
202.5917
 21
137.689793164063
 31
0.0
 0
LINE
 5
312
100
AcDbEntity
 8
Layer8
100
AcDbLine
 39
0.25
 370
106
 10
202.5917
 20
137.689793164063
 30
0.0
 11
202.4897
 21
137.381793164063
 31
0.0
 0
LINE
 5
313
100
AcDbEntity
 8
Layer8
100
AcDbLine
 39
0.25
 370
106
 10
202.4897
 20
137.381793164063
 30
0.0
 11
205.2697
 21
134.612793164063
 31
0.0
 0
LINE
 5
314
100
AcDbEntity
 8
Layer8
100
AcDbLine
 39
0.25
 370
106
 10
205.2697
 20
134.612793164063
 30
0.0
 11
205.2697
 21
135.227793164063
 31
0.0
 0
LINE
 5
315
100
AcDbEntity
 8
Layer8
100
AcDbLine
 39
0.25
 370
106
 10
208.3567
 20
135.535793164063
 30
0.0
 11
208.3567
 21
135.227793164063
 31
0.0
 0
LINE
 5
316
100
AcDbEntity
 8
Layer8
100
AcDbLine
 39
0.25
 370
106
 10
208.3567
 20
135.227793164063
 30
0.0
 11
207.6387
 21
134.299793164063
 31
0.0
 0
LINE
 5
317
100
AcDbEntity
 8
Layer8
100
AcDbLine
 39
0.25
 370
106
 10
207.6387
 20
134.299793164063
 30
0.0
 11
206.4027
 21
134.094793164062
 31
0.0
 0
LINE
 5
318
100
AcDbEntity
 8
Layer8
100
AcDbLine
 39
0.25
 370
106
 10
206.4027
 20
134.094793164062
 30
0.0
 11
205.2697
 21
134.612793164063
 31
0.0
 0
LINE
 5
319
100
AcDbEntity
 8
Layer8
100
AcDbLine
 39
0.25
 370
106
 10
202.4897
 20
137.997793164063
 30
0.0
 11
204.8587
 21
138.202793164062
 31
0.0
 0
LINE
 5
31A
100
AcDbEntity
 8
Layer8
100
AcDbLine
 39
0.25
 370
106
 10
202.4897
 20
137.997793164063
 30
0.0
 11
205.2697
 21
135.227793164063
 31
0.0
 0
ARC
 5
31B
100
AcDbEntity
 8
Layer8
100
AcDbCircle
 39
0.25
 370
106
 10
206.714949390249
 20
136.048793164064
 30
0.0
 40
1.65449994397623
100
AcDbArc
 50
-7.11749685627603
 51
60.2196636773782
 0
LINE
 5
31C
100
AcDbEntity
 8
Layer8
100
AcDbLine
 39
0.25
 370
106
 10
207.1207
 20
137.586793164063
 30
0.0
 11
207.5367
 21
137.484793164062
 31
0.0
 0
LINE
 5
31D
100
AcDbEntity
 8
Layer8
100
AcDbLine
 39
0.25
 370
106
 10
208.3567
 20
135.843793164063
 30
0.0
 11
207.9467
 21
135.227793164063
 31
0.0
 0
LINE
 5
31E
100
AcDbEntity
 8
Layer8
100
AcDbLine
 39
0.25
 370
106
 10
207.9467
 20
135.227793164063
 30
0.0
 11
207.6387
 21
134.919793164063
 31
0.0
 0
LINE
 5
31F
100
AcDbEntity
 8
Layer8
100
AcDbLine
 39
0.25
 370
106
 10
207.6387
 20
134.919793164063
 30
0.0
 11
206.4027
 21
134.714793164062
 31
0.0
 0
LINE
 5
320
100
AcDbEntity
 8
Layer8
100
AcDbLine
 39
0.25
 370
106
 10
206.4027
 20
134.714793164062
 30
0.0
 11
205.9927
 21
134.817793164062
 31
0.0
 0
LINE
 5
321
100
AcDbEntity
 8
Layer8
100
AcDbLine
 39
0.25
 370
106
 10
205.9927
 20
134.817793164062
 30
0.0
 11
205.2697
 21
135.227793164063
 31
0.0
 0
LINE
 5
322
100
AcDbEntity
 8
Layer8
100
AcDbLine
 39
0.25
 370
106
 10
204.8587
 20
138.202793164062
 30
0.0
 11
207.1207
 21
137.586793164063
 31
0.0
 0
ARC
 5
323
100
AcDbEntity
 8
Layer8
100
AcDbCircle
 39
0.25
 370
106
 10
206.52595021394
 20
213.968298476233
 30
0.0
 40
1.83079249561287
100
AcDbArc
 50
-0.391364495033979
 51
71.0429550968656
 0
LINE
 5
324
100
AcDbEntity
 8
Layer8
100
AcDbLine
 39
0.25
 370
106
 10
207.1207
 20
215.596793164062
 30
0.0
 11
207.1207
 21
215.699793164063
 31
0.0
 0
LINE
 5
325
100
AcDbEntity
 8
Layer8
100
AcDbLine
 39
0.25
 370
106
 10
204.8587
 20
216.417793164062
 30
0.0
 11
207.1207
 21
215.699793164063
 31
0.0
 0
LINE
 5
326
100
AcDbEntity
 8
Layer8
100
AcDbLine
 39
0.25
 370
106
 10
202.6947
 20
215.802793164062
 30
0.0
 11
205.5767
 21
212.519793164062
 31
0.0
 0
LINE
 5
327
100
AcDbEntity
 8
Layer8
100
AcDbLine
 39
0.25
 370
106
 10
205.5767
 20
212.519793164062
 30
0.0
 11
206.4027
 21
212.211793164063
 31
0.0
 0
LINE
 5
328
100
AcDbEntity
 8
Layer8
100
AcDbLine
 39
0.25
 370
106
 10
206.4027
 20
212.211793164063
 30
0.0
 11
207.6387
 21
212.417793164062
 31
0.0
 0
LINE
 5
329
100
AcDbEntity
 8
Layer8
100
AcDbLine
 39
0.25
 370
106
 10
207.6387
 20
212.417793164062
 30
0.0
 11
207.9467
 21
212.719793164062
 31
0.0
 0
LINE
 5
32A
100
AcDbEntity
 8
Layer8
100
AcDbLine
 39
0.25
 370
106
 10
207.9467
 20
212.719793164062
 30
0.0
 11
208.3567
 21
213.545793164063
 31
0.0
 0
LINE
 5
32B
100
AcDbEntity
 8
Layer8
100
AcDbLine
 39
0.25
 370
106
 10
208.3567
 20
213.545793164063
 30
0.0
 11
208.1517
 21
214.776793164063
 31
0.0
 0
LINE
 5
32C
100
AcDbEntity
 8
Layer8
100
AcDbLine
 39
0.25
 370
106
 10
208.1517
 20
214.776793164063
 30
0.0
 11
207.5367
 21
215.391793164063
 31
0.0
 0
LINE
 5
32D
100
AcDbEntity
 8
Layer8
100
AcDbLine
 39
0.25
 370
106
 10
207.5367
 20
215.391793164063
 30
0.0
 11
207.1207
 21
215.596793164062
 31
0.0
 0
LINE
 5
32E
100
AcDbEntity
 8
Layer8
100
AcDbLine
 39
0.25
 370
106
 10
204.8587
 20
216.314793164062
 30
0.0
 11
207.1207
 21
215.596793164062
 31
0.0
 0
LINE
 5
32F
100
AcDbEntity
 8
Layer8
100
AcDbLine
 39
0.25
 370
106
 10
202.5917
 20
220.007793164062
 30
0.0
 11
205.2697
 21
223.192793164062
 31
0.0
 0
ARC
 5
330
100
AcDbEntity
 8
Layer8
100
AcDbCircle
 39
0.25
 370
106
 10
206.609305246177
 20
222.070793957459
 30
0.0
 40
1.74740505756681
100
AcDbArc
 50
-0.196760796615215
 51
140.051819738907
 0
LINE
 5
331
100
AcDbEntity
 8
Layer8
100
AcDbLine
 39
0.25
 370
106
 10
205.2697
 20
223.090793164062
 30
0.0
 11
205.2697
 21
223.192793164062
 31
0.0
 0
LINE
 5
332
100
AcDbEntity
 8
Layer8
100
AcDbLine
 39
0.25
 370
106
 10
202.5917
 20
220.007793164062
 30
0.0
 11
205.2697
 21
223.090793164062
 31
0.0
 0
ARC
 5
333
100
AcDbEntity
 8
Layer8
100
AcDbCircle
 39
0.25
 370
106
 10
206.638313974782
 20
222.026100151464
 30
0.0
 40
1.75301071777309
100
AcDbArc
 50
-59.170719344931
 51
41.7235146798924
 0
ARC
 5
334
100
AcDbEntity
 8
Layer8
100
AcDbCircle
 39
0.25
 370
106
 10
206.65536756813
 20
221.90387571424
 30
0.0
 40
1.82451298763648
100
AcDbArc
 50
44.9463740936534
 51
139.417722883375
 0
LINE
 5
335
100
AcDbEntity
 8
Layer8
100
AcDbLine
 39
0.25
 370
106
 10
204.8587
 20
219.597793164062
 30
0.0
 11
207.5367
 21
220.520793164063
 31
0.0
 0
LINE
 5
336
100
AcDbEntity
 8
Layer8
100
AcDbLine
 39
0.25
 370
106
 10
204.8587
 20
216.314793164062
 30
0.0
 11
202.6947
 21
216.007793164062
 31
0.0
 0
LINE
 5
337
100
AcDbEntity
 8
Layer8
100
AcDbLine
 39
0.25
 370
106
 10
204.8587
 20
216.314793164062
 30
0.0
 11
204.8587
 21
219.597793164062
 31
0.0
 0
LINE
 5
338
100
AcDbEntity
 8
Layer8
100
AcDbLine
 39
0.25
 370
106
 10
202.6947
 20
219.910793164062
 30
0.0
 11
204.8587
 21
219.597793164062
 31
0.0
 0
LINE
 5
339
100
AcDbEntity
 8
Layer8
100
AcDbLine
 39
0.25
 370
106
 10
208.3567
 20
135.330793164062
 30
0.0
 11
208.3567
 21
135.432793164063
 31
0.0
 0
ARC
 5
33A
100
AcDbEntity
 8
Layer8
100
AcDbCircle
 39
0.25
 370
106
 10
206.55811488163
 20
135.299256677426
 30
0.0
 40
1.83817871437574
100
AcDbArc
 50
-82.0390258827264
 51
-11.9134865188129
 0
LINE
 5
33B
100
AcDbEntity
 8
Layer8
100
AcDbLine
 39
0.25
 370
106
 10
202.6947
 20
137.279793164062
 30
0.0
 11
205.2697
 21
134.094793164062
 31
0.0
 0
LINE
 5
33C
100
AcDbEntity
 8
Layer8
100
AcDbLine
 39
0.25
 370
106
 10
205.2697
 20
134.094793164062
 30
0.0
 11
205.9927
 21
133.683793164062
 31
0.0
 0
LINE
 5
33D
100
AcDbEntity
 8
Layer8
100
AcDbLine
 39
0.25
 370
106
 10
205.9927
 20
133.683793164062
 30
0.0
 11
206.8127
 21
133.478793164062
 31
0.0
 0
LINE
 5
33E
100
AcDbEntity
 8
Layer8
100
AcDbLine
 39
0.25
 370
106
 10
208.3567
 20
134.919793164063
 30
0.0
 11
208.3567
 21
135.432793164063
 31
0.0
 0
LINE
 5
33F
100
AcDbEntity
 8
Layer8
100
AcDbLine
 39
0.25
 370
106
 10
202.6947
 20
141.484793164062
 30
0.0
 11
205.2697
 21
144.567793164062
 31
0.0
 0
ARC
 5
340
100
AcDbEntity
 8
Layer8
100
AcDbCircle
 39
0.25
 370
106
 10
206.60930663578
 20
143.445791999008
 30
0.0
 40
1.74740738038167
100
AcDbArc
 50
-0.229485568471248
 51
140.051799765724
 0
LINE
 5
341
100
AcDbEntity
 8
Layer8
100
AcDbLine
 39
0.25
 370
106
 10
202.6947
 20
141.484793164062
 30
0.0
 11
205.2697
 21
144.567793164062
 31
0.0
 0
ARC
 5
342
100
AcDbEntity
 8
Layer8
100
AcDbCircle
 39
0.25
 370
106
 10
206.613825840765
 20
143.439422827065
 30
0.0
 40
1.75496264724791
100
AcDbArc
 50
-6.72882588110912
 51
139.987124004968
 0
LINE
 5
343
100
AcDbEntity
 8
Layer8
100
AcDbLine
 39
0.25
 370
106
 10
140.0197
 20
178.130793164062
 30
0.0
 11
140.0197
 21
177.822793164062
 31
0.0
 0
LINE
 5
344
100
AcDbEntity
 8
Layer8
100
AcDbLine
 39
0.25
 370
106
 10
140.0197
 20
177.822793164062
 30
0.0
 11
140.2247
 21
177.207793164062
 31
0.0
 0
ARC
 5
345
100
AcDbEntity
 8
Layer8
100
AcDbCircle
 39
0.25
 370
106
 10
144.523467418008
 20
178.234376229215
 30
0.0
 40
4.83690940051746
100
AcDbArc
 50
86.0495525507652
 51
126.215580770346
 0
LINE
 5
346
100
AcDbEntity
 8
Layer8
100
AcDbLine
 39
0.25
 370
106
 10
148.4567
 20
180.182793164063
 30
0.0
 11
148.1487
 21
180.797793164062
 31
0.0
 0
LINE
 5
347
100
AcDbEntity
 8
Layer8
100
AcDbLine
 39
0.25
 370
106
 10
148.1487
 20
180.797793164062
 30
0.0
 11
146.8107
 21
182.341793164062
 31
0.0
 0
LINE
 5
348
100
AcDbEntity
 8
Layer8
100
AcDbLine
 39
0.25
 370
106
 10
146.8107
 20
182.341793164062
 30
0.0
 11
144.8567
 21
183.059793164063
 31
0.0
 0
LINE
 5
349
100
AcDbEntity
 8
Layer8
100
AcDbLine
 39
0.25
 370
106
 10
141.6657
 20
182.136793164063
 30
0.0
 11
141.1477
 21
181.623793164062
 31
0.0
 0
LINE
 5
34A
100
AcDbEntity
 8
Layer8
100
AcDbLine
 39
0.25
 370
106
 10
141.1477
 20
181.623793164062
 30
0.0
 11
140.3277
 21
180.489793164062
 31
0.0
 0
LINE
 5
34B
100
AcDbEntity
 8
Layer8
100
AcDbLine
 39
0.25
 370
106
 10
140.3277
 20
180.489793164062
 30
0.0
 11
140.0197
 21
179.258793164062
 31
0.0
 0
LINE
 5
34C
100
AcDbEntity
 8
Layer8
100
AcDbLine
 39
0.25
 370
106
 10
148.7647
 20
179.258793164062
 30
0.0
 11
148.4567
 21
180.182793164063
 31
0.0
 0
LINE
 5
34D
100
AcDbEntity
 8
Layer8
100
AcDbLine
 39
0.25
 370
106
 10
150.7237
 20
174.027793164062
 30
0.0
 11
149.1797
 21
178.130793164062
 31
0.0
 0
LINE
 5
34E
100
AcDbEntity
 8
Layer8
100
AcDbLine
 39
0.25
 370
106
 10
140.2247
 20
177.207793164062
 30
0.0
 11
141.3537
 21
174.027793164062
 31
0.0
 0
LINE
 5
34F
100
AcDbEntity
 8
Layer8
100
AcDbLine
 39
0.25
 370
106
 10
150.8267
 20
173.617793164063
 30
0.0
 11
150.7237
 21
174.027793164062
 31
0.0
 0
LINE
 5
350
100
AcDbEntity
 8
Layer8
100
AcDbLine
 39
0.25
 370
106
 10
150.7237
 20
174.027793164062
 30
0.0
 11
141.3537
 21
174.027793164062
 31
0.0
 0
LINE
 5
351
100
AcDbEntity
 8
Layer8
100
AcDbLine
 39
0.25
 370
106
 10
141.3537
 20
174.027793164062
 30
0.0
 11
141.5637
 21
173.406793164062
 31
0.0
 0
LINE
 5
352
100
AcDbEntity
 8
Layer8
100
AcDbLine
 39
0.25
 370
106
 10
141.3537
 20
174.027793164062
 30
0.0
 11
141.4607
 21
173.822793164062
 31
0.0
 0
LINE
 5
353
100
AcDbEntity
 8
Layer8
100
AcDbLine
 39
0.25
 370
106
 10
141.4607
 20
173.822793164062
 30
0.0
 11
141.4607
 21
173.719793164062
 31
0.0
 0
LINE
 5
354
100
AcDbEntity
 8
Layer8
100
AcDbLine
 39
0.25
 370
106
 10
141.4607
 20
173.719793164062
 30
0.0
 11
141.5637
 21
173.617793164063
 31
0.0
 0
LINE
 5
355
100
AcDbEntity
 8
Layer8
100
AcDbLine
 39
0.25
 370
106
 10
171.8187
 20
116.132793164062
 30
0.0
 11
150.8267
 21
173.617793164063
 31
0.0
 0
LINE
 5
356
100
AcDbEntity
 8
Layer8
100
AcDbLine
 39
0.25
 370
106
 10
150.8267
 20
173.617793164063
 30
0.0
 11
141.5637
 21
173.617793164063
 31
0.0
 0
LINE
 5
357
100
AcDbEntity
 8
Layer8
100
AcDbLine
 39
0.25
 370
106
 10
141.5637
 20
173.406793164062
 30
0.0
 11
162.5557
 21
115.927793164062
 31
0.0
 0
LINE
 5
358
100
AcDbEntity
 8
Layer8
100
AcDbLine
 39
0.25
 370
106
 10
141.5637
 20
173.617793164063
 30
0.0
 11
162.5557
 21
116.132793164062
 31
0.0
 0
LINE
 5
359
100
AcDbEntity
 8
Layer8
100
AcDbLine
 39
0.25
 370
106
 10
141.5637
 20
173.406793164062
 30
0.0
 11
141.5637
 21
173.617793164063
 31
0.0
 0
LINE
 5
35A
100
AcDbEntity
 8
Layer8
100
AcDbLine
 39
0.25
 370
106
 10
173.0547
 20
112.645793164063
 30
0.0
 11
173.0547
 21
111.721793164062
 31
0.0
 0
LINE
 5
35B
100
AcDbEntity
 8
Layer8
100
AcDbLine
 39
0.25
 370
106
 10
173.0547
 20
112.645793164063
 30
0.0
 11
172.0237
 21
115.517793164062
 31
0.0
 0
LINE
 5
35C
100
AcDbEntity
 8
Layer8
100
AcDbLine
 39
0.25
 370
106
 10
162.5557
 20
115.927793164062
 30
0.0
 11
162.5557
 21
116.132793164062
 31
0.0
 0
LINE
 5
35D
100
AcDbEntity
 8
Layer8
100
AcDbLine
 39
0.25
 370
106
 10
162.5557
 20
115.927793164062
 30
0.0
 11
162.5557
 21
115.825793164062
 31
0.0
 0
LINE
 5
35E
100
AcDbEntity
 8
Layer8
100
AcDbLine
 39
0.25
 370
106
 10
162.5557
 20
115.825793164062
 30
0.0
 11
162.6587
 21
115.722793164063
 31
0.0
 0
LINE
 5
35F
100
AcDbEntity
 8
Layer8
100
AcDbLine
 39
0.25
 370
106
 10
162.6587
 20
115.722793164063
 30
0.0
 11
162.6587
 21
115.517793164062
 31
0.0
 0
LINE
 5
360
100
AcDbEntity
 8
Layer8
100
AcDbLine
 39
0.25
 370
106
 10
162.5557
 20
116.132793164062
 30
0.0
 11
162.6587
 21
115.517793164062
 31
0.0
 0
LINE
 5
361
100
AcDbEntity
 8
Layer8
100
AcDbLine
 39
0.25
 370
106
 10
162.6587
 20
115.517793164062
 30
0.0
 11
164.0997
 21
111.721793164062
 31
0.0
 0
LINE
 5
362
100
AcDbEntity
 8
Layer8
100
AcDbLine
 39
0.25
 370
106
 10
173.0547
 20
111.721793164062
 30
0.0
 11
173.0547
 21
112.029793164062
 31
0.0
 0
LINE
 5
363
100
AcDbEntity
 8
Layer8
100
AcDbLine
 39
0.25
 370
106
 10
173.0547
 20
112.029793164062
 30
0.0
 11
171.8187
 21
116.132793164062
 31
0.0
 0
LINE
 5
364
100
AcDbEntity
 8
Layer8
100
AcDbLine
 39
0.25
 370
106
 10
171.8187
 20
116.132793164062
 30
0.0
 11
162.5557
 21
116.132793164062
 31
0.0
 0
LINE
 5
365
100
AcDbEntity
 8
Layer8
100
AcDbLine
 39
0.25
 370
106
 10
130.6497
 20
108.536793164062
 30
0.0
 11
206.5057
 21
108.536793164062
 31
0.0
 0
LINE
 5
366
100
AcDbEntity
 8
Layer8
100
AcDbLine
 39
0.25
 370
106
 10
127.7667
 20
111.721793164062
 30
0.0
 11
209.3877
 21
111.721793164062
 31
0.0
 0
LINE
 5
367
100
AcDbEntity
 8
Layer8
100
AcDbLine
 39
0.25
 370
106
 10
127.7667
 20
110.896793164063
 30
0.0
 11
209.3877
 21
110.896793164063
 31
0.0
 0
LINE
 5
368
100
AcDbEntity
 8
Layer8
100
AcDbLine
 39
0.25
 370
106
 10
98.6397
 20
177.412793164062
 30
0.0
 11
99.0557
 21
177.412793164062
 31
0.0
 0
LINE
 5
369
100
AcDbEntity
 8
Layer8
100
AcDbLine
 39
0.25
 370
106
 10
99.0557
 20
179.976793164062
 30
0.0
 11
98.6397
 21
179.976793164062
 31
0.0
 0
LINE
 5
36A
100
AcDbEntity
 8
Layer8
100
AcDbLine
 39
0.25
 370
106
 10
150.1027
 20
178.130793164062
 30
0.0
 11
150.1027
 21
179.258793164062
 31
0.0
 0
LINE
 5
36B
100
AcDbEntity
 8
Layer8
100
AcDbLine
 39
0.25
 370
106
 10
138.4707
 20
179.258793164062
 30
0.0
 11
138.4707
 21
178.130793164062
 31
0.0
 0
ARC
 5
36C
100
AcDbEntity
 8
Layer8
100
AcDbCircle
 39
0.25
 370
106
 10
102.183012272175
 20
193.989293164062
 30
0.0
 40
1.59073567924441
100
AcDbArc
 50
87.7415025096997
 51
-174.462556683828
 0
LINE
 5
36D
100
AcDbEntity
 8
Layer8
100
AcDbLine
 39
0.25
 370
106
 10
100.5997
 20
163.554793164063
 30
0.0
 11
100.5997
 21
163.143793164062
 31
0.0
 0
LINE
 5
36E
100
AcDbEntity
 8
Layer8
100
AcDbLine
 39
0.25
 370
106
 10
100.5997
 20
163.143793164062
 30
0.0
 11
100.8047
 21
162.528793164062
 31
0.0
 0
LINE
 5
36F
100
AcDbEntity
 8
Layer8
100
AcDbLine
 39
0.25
 370
106
 10
100.8047
 20
162.528793164062
 30
0.0
 11
101.1127
 21
162.323793164063
 31
0.0
 0
LINE
 5
370
100
AcDbEntity
 8
Layer8
100
AcDbLine
 39
0.25
 370
106
 10
101.1127
 20
162.323793164063
 30
0.0
 11
101.3177
 21
162.015793164063
 31
0.0
 0
LINE
 5
371
100
AcDbEntity
 8
Layer8
100
AcDbLine
 39
0.25
 370
106
 10
101.3177
 20
162.015793164063
 30
0.0
 11
101.9377
 21
161.810793164062
 31
0.0
 0
LINE
 5
372
100
AcDbEntity
 8
Layer8
100
AcDbLine
 39
0.25
 370
106
 10
101.9377
 20
161.810793164062
 30
0.0
 11
102.2457
 21
161.810793164062
 31
0.0
 0
LINE
 5
373
100
AcDbEntity
 8
Layer8
100
AcDbLine
 39
0.25
 370
106
 10
155.3497
 20
161.297793164062
 30
0.0
 11
155.6627
 21
161.297793164062
 31
0.0
 0
LINE
 5
374
100
AcDbEntity
 8
Layer8
100
AcDbLine
 39
0.25
 370
106
 10
102.2457
 20
161.810793164062
 30
0.0
 11
145.9847
 21
161.400793164063
 31
0.0
 0
LINE
 5
375
100
AcDbEntity
 8
Layer8
100
AcDbLine
 39
0.25
 370
106
 10
155.6627
 20
196.096793164062
 30
0.0
 11
102.2457
 21
195.578793164063
 31
0.0
 0
ARC
 5
376
100
AcDbEntity
 8
Layer8
100
AcDbCircle
 39
0.25
 370
106
 10
155.714199999991
 20
196.467936021259
 30
0.0
 40
0.374698906386321
100
AcDbArc
 50
-97.8999504299715
 51
-46.7998011322619
 0
LINE
 5
377
100
AcDbEntity
 8
Layer8
100
AcDbLine
 39
0.25
 370
106
 10
156.3807
 20
196.712793164062
 30
0.0
 11
156.3807
 21
196.604793164062
 31
0.0
 0
LINE
 5
378
100
AcDbEntity
 8
Layer8
100
AcDbLine
 39
0.25
 370
106
 10
156.3807
 20
196.604793164062
 30
0.0
 11
155.9707
 21
196.194793164063
 31
0.0
 0
LINE
 5
379
100
AcDbEntity
 8
Layer8
100
AcDbLine
 39
0.25
 370
106
 10
155.6627
 20
161.297793164062
 30
0.0
 11
155.7657
 21
161.297793164062
 31
0.0
 0
LINE
 5
37A
100
AcDbEntity
 8
Layer8
100
AcDbLine
 39
0.25
 370
106
 10
155.7657
 20
161.297793164062
 30
0.0
 11
155.9707
 21
161.092793164063
 31
0.0
 0
LINE
 5
37B
100
AcDbEntity
 8
Layer8
100
AcDbLine
 39
0.25
 370
106
 10
155.9707
 20
161.092793164063
 30
0.0
 11
156.3807
 21
160.682793164063
 31
0.0
 0
LINE
 5
37C
100
AcDbEntity
 8
Layer8
100
AcDbLine
 39
0.25
 370
106
 10
156.3807
 20
160.682793164063
 30
0.0
 11
156.3807
 21
160.579793164062
 31
0.0
 0
ARC
 5
37D
100
AcDbEntity
 8
Layer8
100
AcDbCircle
 39
0.25
 370
106
 10
206.885262983147
 20
177.451818039301
 30
0.0
 40
54.2361721485221
100
AcDbArc
 50
104.026834335773
 51
141.545659277775
 0
ARC
 5
37E
100
AcDbEntity
 8
Layer8
100
AcDbCircle
 39
0.25
 370
106
 10
204.204288234184
 20
179.626738650864
 30
0.0
 40
50.7841397526899
100
AcDbArc
 50
141.586179993649
 51
160.339586809289
 0
ARC
 5
37F
100
AcDbEntity
 8
Layer8
100
AcDbCircle
 39
0.25
 370
106
 10
205.753296526059
 20
178.275257853703
 30
0.0
 40
52.4479051851199
100
AcDbArc
 50
-160.281985140745
 51
-103.241600958769
 0
LINE
 5
380
100
AcDbEntity
 8
Layer8
100
AcDbLine
 39
0.25
 370
106
 10
193.9497
 20
230.378793164062
 30
0.0
 11
193.9497
 21
230.275793164062
 31
0.0
 0
LINE
 5
381
100
AcDbEntity
 8
Layer8
100
AcDbLine
 39
0.25
 370
106
 10
193.9497
 20
230.275793164062
 30
0.0
 11
193.8477
 21
230.275793164062
 31
0.0
 0
LINE
 5
382
100
AcDbEntity
 8
Layer8
100
AcDbLine
 39
0.25
 370
106
 10
193.8477
 20
230.275793164062
 30
0.0
 11
193.8477
 21
230.173793164062
 31
0.0
 0
LINE
 5
383
100
AcDbEntity
 8
Layer8
100
AcDbLine
 39
0.25
 370
106
 10
193.8477
 20
230.173793164062
 30
0.0
 11
193.7397
 21
230.173793164062
 31
0.0
 0
LINE
 5
384
100
AcDbEntity
 8
Layer8
100
AcDbLine
 39
0.25
 370
106
 10
193.7397
 20
230.173793164062
 30
0.0
 11
193.7397
 21
230.070793164062
 31
0.0
 0
LINE
 5
385
100
AcDbEntity
 8
Layer8
100
AcDbLine
 39
0.25
 370
106
 10
193.7397
 20
127.221793164062
 30
0.0
 11
193.9497
 21
127.011793164063
 31
0.0
 0
LINE
 5
386
100
AcDbEntity
 8
Layer8
100
AcDbLine
 39
0.25
 370
106
 10
193.9497
 20
127.011793164063
 30
0.0
 11
193.9497
 21
126.913793164063
 31
0.0
 0
LINE
 5
387
100
AcDbEntity
 8
Layer8
100
AcDbLine
 39
0.25
 370
106
 10
194.2577
 20
124.446793164062
 30
0.0
 11
202.3867
 21
124.857793164063
 31
0.0
 0
LINE
 5
388
100
AcDbEntity
 8
Layer8
100
AcDbLine
 39
0.25
 370
106
 10
202.3867
 20
232.532793164062
 30
0.0
 11
194.2577
 21
232.942793164062
 31
0.0
 0
LINE
 5
389
100
AcDbEntity
 8
Layer8
100
AcDbLine
 39
0.25
 370
106
 10
193.9497
 20
124.446793164062
 30
0.0
 11
194.2577
 21
124.446793164062
 31
0.0
 0
LINE
 5
38A
100
AcDbEntity
 8
Layer8
100
AcDbLine
 39
0.25
 370
106
 10
194.2577
 20
232.942793164062
 30
0.0
 11
194.0527
 21
232.942793164062
 31
0.0
 0
LINE
 5
38B
100
AcDbEntity
 8
Layer8
100
AcDbLine
 39
0.25
 370
106
 10
194.0527
 20
232.942793164062
 30
0.0
 11
193.9497
 21
232.840793164062
 31
0.0
 0
LINE
 5
38C
100
AcDbEntity
 8
Layer8
100
AcDbLine
 39
0.25
 370
106
 10
202.3867
 20
124.857793164063
 30
0.0
 11
202.5917
 21
124.857793164063
 31
0.0
 0
LINE
 5
38D
100
AcDbEntity
 8
Layer8
100
AcDbLine
 39
0.25
 370
106
 10
202.5917
 20
124.857793164063
 30
0.0
 11
202.5917
 21
124.959793164062
 31
0.0
 0
LINE
 5
38E
100
AcDbEntity
 8
Layer8
100
AcDbLine
 39
0.25
 370
106
 10
202.5917
 20
124.959793164062
 30
0.0
 11
202.6947
 21
125.062793164063
 31
0.0
 0
LINE
 5
38F
100
AcDbEntity
 8
Layer8
100
AcDbLine
 39
0.25
 370
106
 10
202.6947
 20
125.062793164063
 30
0.0
 11
202.6947
 21
125.164793164062
 31
0.0
 0
LINE
 5
390
100
AcDbEntity
 8
Layer8
100
AcDbLine
 39
0.25
 370
106
 10
202.6947
 20
232.224793164062
 30
0.0
 11
202.6947
 21
232.327793164062
 31
0.0
 0
LINE
 5
391
100
AcDbEntity
 8
Layer8
100
AcDbLine
 39
0.25
 370
106
 10
202.6947
 20
232.327793164062
 30
0.0
 11
202.4897
 21
232.532793164062
 31
0.0
 0
LINE
 5
392
100
AcDbEntity
 8
Layer8
100
AcDbLine
 39
0.25
 370
106
 10
202.4897
 20
232.532793164062
 30
0.0
 11
202.3867
 21
232.532793164062
 31
0.0
 0
LINE
 5
393
100
AcDbEntity
 8
Layer8
100
AcDbLine
 39
0.25
 370
106
 10
195.0837
 20
137.792793164062
 30
0.0
 11
196.6267
 21
137.586793164063
 31
0.0
 0
LINE
 5
394
100
AcDbEntity
 8
Layer8
100
AcDbLine
 39
0.25
 370
106
 10
196.6267
 20
137.586793164063
 30
0.0
 11
197.2427
 21
137.279793164062
 31
0.0
 0
LINE
 5
395
100
AcDbEntity
 8
Layer8
100
AcDbLine
 39
0.25
 370
106
 10
197.2427
 20
220.007793164062
 30
0.0
 11
196.0067
 21
219.597793164062
 31
0.0
 0
LINE
 5
396
100
AcDbEntity
 8
Layer8
100
AcDbLine
 39
0.25
 370
106
 10
196.0067
 20
219.597793164062
 30
0.0
 11
195.0837
 21
219.494793164062
 31
0.0
 0
LINE
 5
397
100
AcDbEntity
 8
Layer8
100
AcDbLine
 39
0.25
 370
106
 10
202.3867
 20
220.936793164062
 30
0.0
 11
201.0537
 21
220.936793164062
 31
0.0
 0
LINE
 5
398
100
AcDbEntity
 8
Layer8
100
AcDbLine
 39
0.25
 370
106
 10
202.6947
 20
220.623793164062
 30
0.0
 11
202.6947
 21
220.730793164063
 31
0.0
 0
LINE
 5
399
100
AcDbEntity
 8
Layer8
100
AcDbLine
 39
0.25
 370
106
 10
202.6947
 20
220.730793164063
 30
0.0
 11
202.5917
 21
220.730793164063
 31
0.0
 0
LINE
 5
39A
100
AcDbEntity
 8
Layer8
100
AcDbLine
 39
0.25
 370
106
 10
202.5917
 20
220.730793164063
 30
0.0
 11
202.5917
 21
220.833793164062
 31
0.0
 0
LINE
 5
39B
100
AcDbEntity
 8
Layer8
100
AcDbLine
 39
0.25
 370
106
 10
202.5917
 20
220.833793164062
 30
0.0
 11
202.4897
 21
220.833793164062
 31
0.0
 0
LINE
 5
39C
100
AcDbEntity
 8
Layer8
100
AcDbLine
 39
0.25
 370
106
 10
202.4897
 20
220.833793164062
 30
0.0
 11
202.4897
 21
220.936793164062
 31
0.0
 0
LINE
 5
39D
100
AcDbEntity
 8
Layer8
100
AcDbLine
 39
0.25
 370
106
 10
202.4897
 20
220.936793164062
 30
0.0
 11
202.3867
 21
220.936793164062
 31
0.0
 0
LINE
 5
39E
100
AcDbEntity
 8
Layer8
100
AcDbLine
 39
0.25
 370
106
 10
202.3867
 20
136.458793164063
 30
0.0
 11
202.4897
 21
136.458793164063
 31
0.0
 0
LINE
 5
39F
100
AcDbEntity
 8
Layer8
100
AcDbLine
 39
0.25
 370
106
 10
202.4897
 20
136.458793164063
 30
0.0
 11
202.6947
 21
136.663793164063
 31
0.0
 0
LINE
 5
3A0
100
AcDbEntity
 8
Layer8
100
AcDbLine
 39
0.25
 370
106
 10
200.7407
 20
136.458793164063
 30
0.0
 11
200.9457
 21
136.355793164063
 31
0.0
 0
LINE
 5
3A1
100
AcDbEntity
 8
Layer8
100
AcDbLine
 39
0.25
 370
106
 10
197.2427
 20
137.279793164062
 30
0.0
 11
199.0937
 21
136.663793164063
 31
0.0
 0
LINE
 5
3A2
100
AcDbEntity
 8
Layer8
100
AcDbLine
 39
0.25
 370
106
 10
199.0937
 20
136.663793164063
 30
0.0
 11
200.0227
 21
136.458793164063
 31
0.0
 0
LINE
 5
3A3
100
AcDbEntity
 8
Layer8
100
AcDbLine
 39
0.25
 370
106
 10
200.0227
 20
136.458793164063
 30
0.0
 11
200.7407
 21
136.458793164063
 31
0.0
 0
LINE
 5
3A4
100
AcDbEntity
 8
Layer8
100
AcDbLine
 39
0.25
 370
106
 10
200.9457
 20
136.355793164063
 30
0.0
 11
202.3867
 21
136.458793164063
 31
0.0
 0
ARC
 5
3A5
100
AcDbEntity
 8
Layer8
100
AcDbCircle
 39
0.25
 370
106
 10
201.214859737096
 20
211.994316567645
 30
0.0
 40
8.94392867471241
100
AcDbArc
 50
91.0324626730794
 51
116.366922617734
 0
LINE
 5
3A6
100
AcDbEntity
 8
Layer8
100
AcDbLine
 39
0.25
 370
106
 10
202.6947
 20
220.320793164062
 30
0.0
 11
202.6947
 21
220.730793164063
 31
0.0
 0
LINE
 5
3A7
100
AcDbEntity
 8
Layer8
100
AcDbLine
 39
0.25
 370
106
 10
199.6067
 20
219.289793164062
 30
0.0
 11
200.0227
 21
219.289793164062
 31
0.0
 0
LINE
 5
3A8
100
AcDbEntity
 8
Layer8
100
AcDbLine
 39
0.25
 370
106
 10
200.0227
 20
219.289793164062
 30
0.0
 11
200.1247
 21
219.187793164063
 31
0.0
 0
LINE
 5
3A9
100
AcDbEntity
 8
Layer8
100
AcDbLine
 39
0.25
 370
106
 10
194.6677
 20
140.971793164062
 30
0.0
 11
195.9037
 21
140.766793164063
 31
0.0
 0
LINE
 5
3AA
100
AcDbEntity
 8
Layer8
100
AcDbLine
 39
0.25
 370
106
 10
195.9037
 20
140.766793164063
 30
0.0
 11
197.1397
 21
140.356793164062
 31
0.0
 0
LINE
 5
3AB
100
AcDbEntity
 8
Layer8
100
AcDbLine
 39
0.25
 370
106
 10
197.0377
 20
140.356793164062
 30
0.0
 11
199.8177
 21
139.330793164062
 31
0.0
 0
LINE
 5
3AC
100
AcDbEntity
 8
Layer8
100
AcDbLine
 39
0.25
 370
106
 10
200.1247
 20
219.187793164063
 30
0.0
 11
199.8177
 21
218.674793164062
 31
0.0
 0
LINE
 5
3AD
100
AcDbEntity
 8
Layer8
100
AcDbLine
 39
0.25
 370
106
 10
199.8177
 20
218.674793164062
 30
0.0
 11
198.7867
 21
217.853793164062
 31
0.0
 0
LINE
 5
3AE
100
AcDbEntity
 8
Layer8
100
AcDbLine
 39
0.25
 370
106
 10
198.7867
 20
217.853793164062
 30
0.0
 11
196.6267
 21
216.930793164062
 31
0.0
 0
LINE
 5
3AF
100
AcDbEntity
 8
Layer8
100
AcDbLine
 39
0.25
 370
106
 10
196.6267
 20
216.930793164062
 30
0.0
 11
195.0837
 21
216.622793164063
 31
0.0
 0
LINE
 5
3B0
100
AcDbEntity
 8
Layer8
100
AcDbLine
 39
0.25
 370
106
 10
202.3867
 20
139.022793164062
 30
0.0
 11
202.4897
 21
139.022793164062
 31
0.0
 0
LINE
 5
3B1
100
AcDbEntity
 8
Layer8
100
AcDbLine
 39
0.25
 370
106
 10
202.4897
 20
139.022793164062
 30
0.0
 11
202.4897
 21
139.125793164062
 31
0.0
 0
LINE
 5
3B2
100
AcDbEntity
 8
Layer8
100
AcDbLine
 39
0.25
 370
106
 10
202.4897
 20
139.125793164062
 30
0.0
 11
202.5917
 21
139.125793164062
 31
0.0
 0
LINE
 5
3B3
100
AcDbEntity
 8
Layer8
100
AcDbLine
 39
0.25
 370
106
 10
202.5917
 20
139.125793164062
 30
0.0
 11
202.5917
 21
139.228793164062
 31
0.0
 0
LINE
 5
3B4
100
AcDbEntity
 8
Layer8
100
AcDbLine
 39
0.25
 370
106
 10
202.5917
 20
139.228793164062
 30
0.0
 11
202.6947
 21
139.228793164062
 31
0.0
 0
LINE
 5
3B5
100
AcDbEntity
 8
Layer8
100
AcDbLine
 39
0.25
 370
106
 10
202.6947
 20
139.228793164062
 30
0.0
 11
202.6947
 21
139.330793164062
 31
0.0
 0
LINE
 5
3B6
100
AcDbEntity
 8
Layer8
100
AcDbLine
 39
0.25
 370
106
 10
200.9457
 20
139.022793164062
 30
0.0
 11
202.3867
 21
139.022793164062
 31
0.0
 0
LINE
 5
3B7
100
AcDbEntity
 8
Layer8
100
AcDbLine
 39
0.25
 370
106
 10
199.8177
 20
139.330793164062
 30
0.0
 11
200.3297
 21
139.125793164062
 31
0.0
 0
LINE
 5
3B8
100
AcDbEntity
 8
Layer8
100
AcDbLine
 39
0.25
 370
106
 10
200.3297
 20
139.125793164062
 30
0.0
 11
200.6377
 21
139.125793164062
 31
0.0
 0
LINE
 5
3B9
100
AcDbEntity
 8
Layer8
100
AcDbLine
 39
0.25
 370
106
 10
200.6377
 20
139.125793164062
 30
0.0
 11
200.9457
 21
139.022793164062
 31
0.0
 0
ARC
 5
3BA
100
AcDbEntity
 8
Layer8
100
AcDbCircle
 39
0.25
 370
106
 10
-117.329175918626
 20
175.206774779856
 30
0.0
 40
321.693237250391
100
AcDbArc
 50
-6.01717155996309
 51
0.61216827547572
 0
ARC
 5
3BB
100
AcDbEntity
 8
Layer8
100
AcDbCircle
 39
0.25
 370
106
 10
-137.922972928966
 20
181.203844321643
 30
0.0
 40
342.278246943163
100
AcDbArc
 50
-0.428544599635407
 51
5.81877382141642
 0
LINE
 5
3BC
100
AcDbEntity
 8
Layer8
100
AcDbLine
 39
0.25
 370
106
 10
186.0257
 20
212.109793164062
 30
0.0
 11
192.4057
 21
213.853793164062
 31
0.0
 0
LINE
 5
3BD
100
AcDbEntity
 8
Layer8
100
AcDbLine
 39
0.25
 370
106
 10
192.4057
 20
143.438793164062
 30
0.0
 11
186.0257
 21
145.182793164063
 31
0.0
 0
LINE
 5
3BE
100
AcDbEntity
 8
Layer8
100
AcDbLine
 39
0.25
 370
106
 10
191.7857
 20
137.586793164063
 30
0.0
 11
192.0987
 21
137.792793164062
 31
0.0
 0
LINE
 5
3BF
100
AcDbEntity
 8
Layer8
100
AcDbLine
 39
0.25
 370
106
 10
192.1957
 20
137.894793164062
 30
0.0
 11
192.3037
 21
137.894793164062
 31
0.0
 0
LINE
 5
3C0
100
AcDbEntity
 8
Layer8
100
AcDbLine
 39
0.25
 370
106
 10
192.3037
 20
137.894793164062
 30
0.0
 11
192.5087
 21
138.099793164062
 31
0.0
 0
LINE
 5
3C1
100
AcDbEntity
 8
Layer8
100
AcDbLine
 39
0.25
 370
106
 10
192.5087
 20
138.099793164062
 30
0.0
 11
192.8167
 21
138.202793164062
 31
0.0
 0
LINE
 5
3C2
100
AcDbEntity
 8
Layer8
100
AcDbLine
 39
0.25
 370
106
 10
192.8167
 20
138.202793164062
 30
0.0
 11
192.9187
 21
138.202793164062
 31
0.0
 0
ARC
 5
3C3
100
AcDbEntity
 8
Layer8
100
AcDbCircle
 39
0.25
 370
106
 10
189.880808695653
 20
139.721901859697
 30
0.0
 40
2.86134584130413
100
AcDbArc
 50
-121.407506293126
 51
-48.2614443356718
 0
LINE
 5
3C4
100
AcDbEntity
 8
Layer8
100
AcDbLine
 39
0.25
 370
106
 10
187.5697
 20
138.612793164063
 30
0.0
 11
187.6717
 21
138.202793164062
 31
0.0
 0
LINE
 5
3C5
100
AcDbEntity
 8
Layer8
100
AcDbLine
 39
0.25
 370
106
 10
187.6717
 20
138.202793164062
 30
0.0
 11
188.3897
 21
137.279793164062
 31
0.0
 0
LINE
 5
3C6
100
AcDbEntity
 8
Layer8
100
AcDbLine
 39
0.25
 370
106
 10
207.4337
 20
140.253793164062
 30
0.0
 11
207.1207
 21
140.459793164062
 31
0.0
 0
LINE
 5
3C7
100
AcDbEntity
 8
Layer8
100
AcDbLine
 39
0.25
 370
106
 10
207.1207
 20
138.202793164062
 30
0.0
 11
207.4337
 21
138.510793164062
 31
0.0
 0
LINE
 5
3C8
100
AcDbEntity
 8
Layer8
100
AcDbLine
 39
0.25
 370
106
 10
205.0637
 20
138.202793164062
 30
0.0
 11
207.1207
 21
138.202793164062
 31
0.0
 0
LINE
 5
3C9
100
AcDbEntity
 8
Layer8
100
AcDbLine
 39
0.25
 370
106
 10
192.9187
 20
138.202793164062
 30
0.0
 11
202.4897
 21
138.202793164062
 31
0.0
 0
LINE
 5
3CA
100
AcDbEntity
 8
Layer8
100
AcDbLine
 39
0.25
 370
106
 10
196.7297
 20
140.459793164062
 30
0.0
 11
192.9187
 21
140.459793164062
 31
0.0
 0
LINE
 5
3CB
100
AcDbEntity
 8
Layer8
100
AcDbLine
 39
0.25
 370
106
 10
207.1207
 20
140.459793164062
 30
0.0
 11
204.8587
 21
140.459793164062
 31
0.0
 0
LINE
 5
3CC
100
AcDbEntity
 8
Layer8
100
AcDbLine
 39
0.25
 370
106
 10
192.9187
 20
140.459793164062
 30
0.0
 11
192.7137
 21
140.561793164062
 31
0.0
 0
LINE
 5
3CD
100
AcDbEntity
 8
Layer8
100
AcDbLine
 39
0.25
 370
106
 10
192.7137
 20
140.561793164062
 30
0.0
 11
192.4057
 21
140.664793164062
 31
0.0
 0
LINE
 5
3CE
100
AcDbEntity
 8
Layer8
100
AcDbLine
 39
0.25
 370
106
 10
192.4057
 20
140.664793164062
 30
0.0
 11
192.3037
 21
140.766793164063
 31
0.0
 0
LINE
 5
3CF
100
AcDbEntity
 8
Layer8
100
AcDbLine
 39
0.25
 370
106
 10
187.5697
 20
140.048793164062
 30
0.0
 11
187.5697
 21
138.612793164063
 31
0.0
 0
LINE
 5
3D0
100
AcDbEntity
 8
Layer8
100
AcDbLine
 39
0.25
 370
106
 10
187.5697
 20
140.151793164063
 30
0.0
 11
187.5697
 21
140.048793164062
 31
0.0
 0
LINE
 5
3D1
100
AcDbEntity
 8
Layer8
100
AcDbLine
 39
0.25
 370
106
 10
192.1957
 20
219.494793164062
 30
0.0
 11
191.9957
 21
219.597793164062
 31
0.0
 0
LINE
 5
3D2
100
AcDbEntity
 8
Layer8
100
AcDbLine
 39
0.25
 370
106
 10
192.0987
 20
219.597793164062
 30
0.0
 11
191.8877
 21
219.699793164063
 31
0.0
 0
LINE
 5
3D3
100
AcDbEntity
 8
Layer8
100
AcDbLine
 39
0.25
 370
106
 10
191.8877
 20
219.699793164063
 30
0.0
 11
191.7857
 21
219.807793164063
 31
0.0
 0
LINE
 5
3D4
100
AcDbEntity
 8
Layer8
100
AcDbLine
 39
0.25
 370
106
 10
192.9187
 20
219.187793164063
 30
0.0
 11
192.7137
 21
219.187793164063
 31
0.0
 0
LINE
 5
3D5
100
AcDbEntity
 8
Layer8
100
AcDbLine
 39
0.25
 370
106
 10
192.7137
 20
219.187793164063
 30
0.0
 11
192.4057
 21
219.289793164062
 31
0.0
 0
LINE
 5
3D6
100
AcDbEntity
 8
Layer8
100
AcDbLine
 39
0.25
 370
106
 10
192.4057
 20
219.289793164062
 30
0.0
 11
192.1957
 21
219.494793164062
 31
0.0
 0
ARC
 5
3D7
100
AcDbEntity
 8
Layer8
100
AcDbCircle
 39
0.25
 370
106
 10
189.85461234218
 20
217.957805476562
 30
0.0
 40
2.50387204058044
100
AcDbArc
 50
99.9795420411566
 51
155.860374883327
 0
LINE
 5
3D8
100
AcDbEntity
 8
Layer8
100
AcDbLine
 39
0.25
 370
106
 10
191.7857
 20
219.807793164063
 30
0.0
 11
190.8627
 21
220.320793164062
 31
0.0
 0
LINE
 5
3D9
100
AcDbEntity
 8
Layer8
100
AcDbLine
 39
0.25
 370
106
 10
190.8627
 20
220.320793164062
 30
0.0
 11
189.4207
 21
220.423793164062
 31
0.0
 0
LINE
 5
3DA
100
AcDbEntity
 8
Layer8
100
AcDbLine
 39
0.25
 370
106
 10
187.5697
 20
218.981793164062
 30
0.0
 11
187.5697
 21
218.776793164063
 31
0.0
 0
LINE
 5
3DB
100
AcDbEntity
 8
Layer8
100
AcDbLine
 39
0.25
 370
106
 10
207.4337
 20
218.879793164063
 30
0.0
 11
207.1207
 21
219.187793164063
 31
0.0
 0
LINE
 5
3DC
100
AcDbEntity
 8
Layer8
100
AcDbLine
 39
0.25
 370
106
 10
207.1207
 20
216.827793164062
 30
0.0
 11
207.4337
 21
217.135793164062
 31
0.0
 0
LINE
 5
3DD
100
AcDbEntity
 8
Layer8
100
AcDbLine
 39
0.25
 370
106
 10
204.8587
 20
216.827793164062
 30
0.0
 11
207.1207
 21
216.827793164062
 31
0.0
 0
LINE
 5
3DE
100
AcDbEntity
 8
Layer8
100
AcDbLine
 39
0.25
 370
106
 10
192.9187
 20
216.827793164062
 30
0.0
 11
196.3147
 21
216.827793164062
 31
0.0
 0
LINE
 5
3DF
100
AcDbEntity
 8
Layer8
100
AcDbLine
 39
0.25
 370
106
 10
200.1247
 20
219.187793164063
 30
0.0
 11
192.9187
 21
219.187793164063
 31
0.0
 0
LINE
 5
3E0
100
AcDbEntity
 8
Layer8
100
AcDbLine
 39
0.25
 370
106
 10
207.1207
 20
219.187793164063
 30
0.0
 11
204.8587
 21
219.187793164063
 31
0.0
 0
LINE
 5
3E1
100
AcDbEntity
 8
Layer8
100
AcDbLine
 39
0.25
 370
106
 10
192.3037
 20
216.622793164063
 30
0.0
 11
192.5087
 21
216.725793164062
 31
0.0
 0
LINE
 5
3E2
100
AcDbEntity
 8
Layer8
100
AcDbLine
 39
0.25
 370
106
 10
192.5087
 20
216.725793164062
 30
0.0
 11
192.8167
 21
216.827793164062
 31
0.0
 0
LINE
 5
3E3
100
AcDbEntity
 8
Layer8
100
AcDbLine
 39
0.25
 370
106
 10
192.8167
 20
216.827793164062
 30
0.0
 11
192.9187
 21
216.827793164062
 31
0.0
 0
LINE
 5
3E4
100
AcDbEntity
 8
Layer8
100
AcDbLine
 39
0.25
 370
106
 10
187.5697
 20
218.674793164062
 30
0.0
 11
187.5697
 21
217.238793164062
 31
0.0
 0
LINE
 5
3E5
100
AcDbEntity
 8
Layer8
100
AcDbLine
 39
0.25
 370
106
 10
191.0677
 20
140.766793164063
 30
0.0
 11
191.0677
 21
141.074793164063
 31
0.0
 0
LINE
 5
3E6
100
AcDbEntity
 8
Layer8
100
AcDbLine
 39
0.25
 370
106
 10
188.8007
 20
141.074793164063
 30
0.0
 11
188.8007
 21
140.766793164063
 31
0.0
 0
LINE
 5
3E7
100
AcDbEntity
 8
Layer8
100
AcDbLine
 39
0.25
 370
106
 10
188.8007
 20
216.622793164063
 30
0.0
 11
188.8007
 21
216.417793164062
 31
0.0
 0
LINE
 5
3E8
100
AcDbEntity
 8
Layer8
100
AcDbLine
 39
0.25
 370
106
 10
191.0677
 20
216.417793164062
 30
0.0
 11
191.0677
 21
216.622793164063
 31
0.0
 0
LINE
 5
3E9
100
AcDbEntity
 8
Layer8
100
AcDbLine
 39
0.25
 370
106
 10
99.3637
 20
177.207793164062
 30
0.0
 11
99.5687
 21
177.207793164062
 31
0.0
 0
LINE
 5
3EA
100
AcDbEntity
 8
Layer8
100
AcDbLine
 39
0.25
 370
106
 10
99.0557
 20
177.515793164063
 30
0.0
 11
99.3637
 21
177.207793164062
 31
0.0
 0
LINE
 5
3EB
100
AcDbEntity
 8
Layer8
100
AcDbLine
 39
0.25
 370
106
 10
99.5687
 20
180.079793164062
 30
0.0
 11
99.3637
 21
180.079793164062
 31
0.0
 0
LINE
 5
3EC
100
AcDbEntity
 8
Layer8
100
AcDbLine
 39
0.25
 370
106
 10
99.3637
 20
180.079793164062
 30
0.0
 11
99.0557
 21
179.874793164062
 31
0.0
 0
LINE
 5
3ED
100
AcDbEntity
 8
Layer8
100
AcDbLine
 39
0.25
 370
106
 10
100.5997
 20
181.315793164062
 30
0.0
 11
100.2917
 21
181.315793164062
 31
0.0
 0
LINE
 5
3EE
100
AcDbEntity
 8
Layer8
100
AcDbLine
 39
0.25
 370
106
 10
100.2917
 20
176.078793164063
 30
0.0
 11
100.5997
 21
176.078793164063
 31
0.0
 0
LINE
 5
3EF
100
AcDbEntity
 8
Layer8
100
AcDbLine
 39
0.25
 370
106
 10
208.3567
 20
217.340793164062
 30
0.0
 11
208.3567
 21
218.674793164062
 31
0.0
 0
LINE
 5
3F0
100
AcDbEntity
 8
Layer8
100
AcDbLine
 39
0.25
 370
106
 10
208.3567
 20
142.510793164062
 30
0.0
 11
208.3567
 21
143.131793164063
 31
0.0
 0
LINE
 5
3F1
100
AcDbEntity
 8
Layer8
100
AcDbLine
 39
0.25
 370
106
 10
204.8587
 20
141.074793164063
 30
0.0
 11
202.4897
 21
141.382793164062
 31
0.0
 0
LINE
 5
3F2
100
AcDbEntity
 8
Layer8
100
AcDbLine
 39
0.25
 370
106
 10
202.4897
 20
137.279793164062
 30
0.0
 11
202.5917
 21
137.279793164062
 31
0.0
 0
LINE
 5
3F3
100
AcDbEntity
 8
Layer8
100
AcDbLine
 39
0.25
 370
106
 10
208.3567
 20
135.535793164063
 30
0.0
 11
208.3567
 21
136.150793164063
 31
0.0
 0
LINE
 5
3F4
100
AcDbEntity
 8
Layer8
100
AcDbLine
 39
0.25
 370
106
 10
208.3567
 20
213.853793164062
 30
0.0
 11
208.3567
 21
213.955793164063
 31
0.0
 0
LINE
 5
3F5
100
AcDbEntity
 8
Layer8
100
AcDbLine
 39
0.25
 370
106
 10
208.3567
 20
221.961793164063
 30
0.0
 11
208.3567
 21
222.064793164062
 31
0.0
 0
LINE
 5
3F6
100
AcDbEntity
 8
Layer8
100
AcDbLine
 39
0.25
 370
106
 10
208.3567
 20
135.227793164063
 30
0.0
 11
208.3567
 21
135.330793164062
 31
0.0
 0
LINE
 5
3F7
100
AcDbEntity
 8
Layer8
100
AcDbLine
 39
0.25
 370
106
 10
130.6497
 20
110.896793164063
 30
0.0
 11
130.6497
 21
108.536793164062
 31
0.0
 0
LINE
 5
3F8
100
AcDbEntity
 8
Layer8
100
AcDbLine
 39
0.25
 370
106
 10
206.5057
 20
108.536793164062
 30
0.0
 11
206.5057
 21
110.896793164063
 31
0.0
 0
LINE
 5
3F9
100
AcDbEntity
 8
Layer8
100
AcDbLine
 39
0.25
 370
106
 10
127.7667
 20
111.721793164062
 30
0.0
 11
127.7667
 21
110.896793164063
 31
0.0
 0
ARC
 5
3FA
100
AcDbEntity
 8
Layer8
100
AcDbCircle
 39
0.25
 370
106
 10
103.499098770048
 20
168.530117418193
 30
0.0
 40
11.1294858181802
100
AcDbArc
 50
118.841296627188
 51
-152.289140360276
 0
ARC
 5
3FB
100
AcDbEntity
 8
Layer8
100
AcDbCircle
 39
0.25
 370
106
 10
-116.492065059896
 20
133.710370004248
 30
0.0
 40
212.218854052569
100
AcDbArc
 50
0.0535521662069677
 51
8.0297924454497
 0
ARC
 5
3FC
100
AcDbEntity
 8
Layer8
100
AcDbCircle
 39
0.25
 370
106
 10
70.813980380456
 20
132.202137973116
 30
0.0
 40
24.9711002171146
100
AcDbArc
 50
-59.226318944644
 51
3.91878546909325
 0
ARC
 5
3FD
100
AcDbEntity
 8
Layer8
100
AcDbCircle
 39
0.25
 370
106
 10
77.8215362323938
 20
179.005375605584
 30
0.0
 40
21.8042939664852
100
AcDbArc
 50
90.3787537423145
 51
-120.527197755684
 0
ARC
 5
3FE
100
AcDbEntity
 8
Layer8
100
AcDbCircle
 39
0.25
 370
106
 10
77.6468143093969
 20
178.719258888974
 30
0.0
 40
21.4690875117008
100
AcDbArc
 50
-120.513397145951
 51
-89.9183741937414
 0
LWPOLYLINE
 5
3FF
100
AcDbEntity
 8
Layer8
100
AcDbPolyline
 39
0.25
 370
106
 90
4              
 70
 1
 43
0.0
 10
77.4892
 20
152.691193164063
 10
77.4532
 20
162.513193164063
 10
82.8182
 20
157.435193164063
 10
77.4892
 20
152.691193164063
 0
HATCH
 5
400
100
AcDbEntity
 8
Layer8
100
AcDbHatch
 10
 0.0
 20
 0.0
 30
 0.0
 210
 0.0
 220
 0.0
 230
 1.0
 2
SOLID
 70
 1
 71
 1
 91
1              
 92
 0
 93
3              
 72
 1
 10
77.4892
 20
152.691193164063
 11
77.4532
 21
162.513193164063
 72
 1
 10
77.4532
 20
162.513193164063
 11
82.8182
 21
157.435193164063
 72
 1
 10
82.8182
 20
157.435193164063
 11
77.4892
 21
152.691193164063
 97
 1
 330
401
 75
 0
 76
 1
 98
 1
 10
 0.0
 20
 0.0
 0
LWPOLYLINE
 5
402
100
AcDbEntity
 8
Layer8
100
AcDbPolyline
 39
0.25
 370
106
 90
4              
 70
 1
 43
0.0
 10
77.4892
 20
152.691193164063
 10
77.4532
 20
162.513193164063
 10
82.8182
 20
157.435193164063
 10
77.4892
 20
152.691193164063
 0
LWPOLYLINE
 5
403
100
AcDbEntity
 8
Layer8
100
AcDbPolyline
 39
0.25
 370
106
 90
4              
 70
 1
 43
0.0
 10
77.4892
 20
195.059693164063
 10
77.4532
 20
204.881693164063
 10
82.8182
 20
199.803693164063
 10
77.4892
 20
195.059693164063
 0
HATCH
 5
404
100
AcDbEntity
 8
Layer8
100
AcDbHatch
 10
 0.0
 20
 0.0
 30
 0.0
 210
 0.0
 220
 0.0
 230
 1.0
 2
SOLID
 70
 1
 71
 1
 91
1              
 92
 0
 93
3              
 72
 1
 10
77.4892
 20
195.059693164063
 11
77.4532
 21
204.881693164063
 72
 1
 10
77.4532
 20
204.881693164063
 11
82.8182
 21
199.803693164063
 72
 1
 10
82.8182
 20
199.803693164063
 11
77.4892
 21
195.059693164063
 97
 1
 330
405
 75
 0
 76
 1
 98
 1
 10
 0.0
 20
 0.0
 0
LWPOLYLINE
 5
406
100
AcDbEntity
 8
Layer8
100
AcDbPolyline
 39
0.25
 370
106
 90
4              
 70
 1
 43
0.0
 10
77.4892
 20
195.059693164063
 10
77.4532
 20
204.881693164063
 10
82.8182
 20
199.803693164063
 10
77.4892
 20
195.059693164063
 0
LINE
 5
407
100
AcDbEntity
 8
Layer8
100
AcDbLine
 39
0.25
 370
106
 10
209.3877
 20
110.896793164063
 30
0.0
 11
209.3877
 21
111.721793164062
 31
0.0
 0
LINE
 5
408
100
AcDbEntity
 8
Layer8
100
AcDbLine
 39
0.25
 370
106
 10
88.3159
 20
341.794493164062
 30
0.0
 11
88.3159
 21
359.006493164062
 31
0.0
 0
LINE
 5
409
100
AcDbEntity
 8
Layer8
100
AcDbLine
 39
0.25
 370
106
 10
88.3159
 20
324.477493164062
 30
0.0
 11
88.3159
 21
341.794493164062
 31
0.0
 0
LINE
 5
40A
100
AcDbEntity
 8
Layer8
100
AcDbLine
 39
0.25
 370
106
 10
182.1519
 20
397.215493164062
 30
0.0
 11
182.1519
 21
383.779493164063
 31
0.0
 0
LINE
 5
40B
100
AcDbEntity
 8
Layer8
100
AcDbLine
 39
0.25
 370
106
 10
182.1519
 20
299.703493164062
 30
0.0
 11
182.1519
 21
286.271493164062
 31
0.0
 0
LINE
 5
40C
100
AcDbEntity
 8
Layer8
100
AcDbLine
 39
0.25
 370
106
 10
190.4439
 20
396.793493164063
 30
0.0
 11
190.4439
 21
384.934493164062
 31
0.0
 0
LINE
 5
40D
100
AcDbEntity
 8
Layer8
100
AcDbLine
 39
0.25
 370
106
 10
190.4439
 20
298.549493164062
 30
0.0
 11
190.4439
 21
286.690493164063
 31
0.0
 0
LINE
 5
40E
100
AcDbEntity
 8
Layer8
100
AcDbLine
 39
0.25
 370
106
 10
184.0399
 20
299.809493164062
 30
0.0
 11
182.1519
 21
299.703493164062
 31
0.0
 0
LINE
 5
40F
100
AcDbEntity
 8
Layer8
100
AcDbLine
 39
0.25
 370
106
 10
182.1519
 20
383.779493164063
 30
0.0
 11
184.0399
 21
383.674493164062
 31
0.0
 0
LINE
 5
410
100
AcDbEntity
 8
Layer8
100
AcDbLine
 39
0.25
 370
106
 10
182.9909
 20
383.568493164062
 30
0.0
 11
182.7819
 21
383.568493164062
 31
0.0
 0
LINE
 5
411
100
AcDbEntity
 8
Layer8
100
AcDbLine
 39
0.25
 370
106
 10
182.7819
 20
383.568493164062
 30
0.0
 11
182.3599
 21
383.674493164062
 31
0.0
 0
LINE
 5
412
100
AcDbEntity
 8
Layer8
100
AcDbLine
 39
0.25
 370
106
 10
182.3599
 20
383.674493164062
 30
0.0
 11
182.2559
 21
383.674493164062
 31
0.0
 0
LINE
 5
413
100
AcDbEntity
 8
Layer8
100
AcDbLine
 39
0.25
 370
106
 10
182.2559
 20
383.674493164062
 30
0.0
 11
182.2559
 21
383.779493164063
 31
0.0
 0
LINE
 5
414
100
AcDbEntity
 8
Layer8
100
AcDbLine
 39
0.25
 370
106
 10
182.2559
 20
383.779493164063
 30
0.0
 11
182.1519
 21
383.779493164063
 31
0.0
 0
LINE
 5
415
100
AcDbEntity
 8
Layer8
100
AcDbLine
 39
0.25
 370
106
 10
182.1519
 20
299.703493164062
 30
0.0
 11
182.3599
 21
299.914493164062
 31
0.0
 0
LINE
 5
416
100
AcDbEntity
 8
Layer8
100
AcDbLine
 39
0.25
 370
106
 10
182.3599
 20
299.914493164062
 30
0.0
 11
182.7819
 21
299.914493164062
 31
0.0
 0
LINE
 5
417
100
AcDbEntity
 8
Layer8
100
AcDbLine
 39
0.25
 370
106
 10
182.7819
 20
299.914493164062
 30
0.0
 11
182.9909
 21
300.017493164063
 31
0.0
 0
LINE
 5
418
100
AcDbEntity
 8
Layer8
100
AcDbLine
 39
0.25
 370
106
 10
185.7199
 20
383.149493164063
 30
0.0
 11
188.0299
 21
383.987493164062
 31
0.0
 0
LINE
 5
419
100
AcDbEntity
 8
Layer8
100
AcDbLine
 39
0.25
 370
106
 10
190.4439
 20
384.198493164062
 30
0.0
 11
190.4439
 21
383.149493164063
 31
0.0
 0
LINE
 5
41A
100
AcDbEntity
 8
Layer8
100
AcDbLine
 39
0.25
 370
106
 10
185.0909
 20
383.779493164063
 30
0.0
 11
185.0909
 21
383.885493164063
 31
0.0
 0
LINE
 5
41B
100
AcDbEntity
 8
Layer8
100
AcDbLine
 39
0.25
 370
106
 10
185.0909
 20
383.885493164063
 30
0.0
 11
185.1949
 21
383.987493164062
 31
0.0
 0
LINE
 5
41C
100
AcDbEntity
 8
Layer8
100
AcDbLine
 39
0.25
 370
106
 10
185.1949
 20
383.987493164062
 30
0.0
 11
185.1949
 21
384.093493164062
 31
0.0
 0
LINE
 5
41D
100
AcDbEntity
 8
Layer8
100
AcDbLine
 39
0.25
 370
106
 10
184.1449
 20
383.149493164063
 30
0.0
 11
184.2519
 21
383.255493164063
 31
0.0
 0
LINE
 5
41E
100
AcDbEntity
 8
Layer8
100
AcDbLine
 39
0.25
 370
106
 10
184.2519
 20
383.255493164063
 30
0.0
 11
184.9859
 21
383.568493164062
 31
0.0
 0
LINE
 5
41F
100
AcDbEntity
 8
Layer8
100
AcDbLine
 39
0.25
 370
106
 10
190.4439
 20
384.198493164062
 30
0.0
 11
190.4439
 21
384.934493164062
 31
0.0
 0
LINE
 5
420
100
AcDbEntity
 8
Layer8
100
AcDbLine
 39
0.25
 370
106
 10
185.0909
 20
299.703493164062
 30
0.0
 11
185.0909
 21
299.598493164062
 31
0.0
 0
LINE
 5
421
100
AcDbEntity
 8
Layer8
100
AcDbLine
 39
0.25
 370
106
 10
185.0909
 20
299.598493164062
 30
0.0
 11
185.1949
 21
299.495493164063
 31
0.0
 0
LINE
 5
422
100
AcDbEntity
 8
Layer8
100
AcDbLine
 39
0.25
 370
106
 10
189.1839
 20
298.549493164062
 30
0.0
 11
189.0799
 21
298.549493164062
 31
0.0
 0
LINE
 5
423
100
AcDbEntity
 8
Layer8
100
AcDbLine
 39
0.25
 370
106
 10
190.4439
 20
298.549493164062
 30
0.0
 11
190.5489
 21
298.654493164063
 31
0.0
 0
LINE
 5
424
100
AcDbEntity
 8
Layer8
100
AcDbLine
 39
0.25
 370
106
 10
190.5489
 20
298.654493164063
 30
0.0
 11
190.6549
 21
298.654493164063
 31
0.0
 0
LINE
 5
425
100
AcDbEntity
 8
Layer8
100
AcDbLine
 39
0.25
 370
106
 10
190.6549
 20
298.654493164063
 30
0.0
 11
190.7579
 21
298.760493164063
 31
0.0
 0
LINE
 5
426
100
AcDbEntity
 8
Layer8
100
AcDbLine
 39
0.25
 370
106
 10
182.6759
 20
380.316493164062
 30
0.0
 11
182.1519
 21
380.316493164062
 31
0.0
 0
LINE
 5
427
100
AcDbEntity
 8
Layer8
100
AcDbLine
 39
0.25
 370
106
 10
182.1519
 20
380.316493164062
 30
0.0
 11
181.8369
 21
380.419493164062
 31
0.0
 0
LINE
 5
428
100
AcDbEntity
 8
Layer8
100
AcDbLine
 39
0.25
 370
106
 10
187.7149
 20
300.230493164062
 30
0.0
 11
187.2949
 21
300.230493164062
 31
0.0
 0
LINE
 5
429
100
AcDbEntity
 8
Layer8
100
AcDbLine
 39
0.25
 370
106
 10
187.2949
 20
300.230493164062
 30
0.0
 11
186.8759
 21
300.333493164062
 31
0.0
 0
LINE
 5
42A
100
AcDbEntity
 8
Layer8
100
AcDbLine
 39
0.25
 370
106
 10
186.8759
 20
300.333493164062
 30
0.0
 11
186.5599
 21
300.333493164062
 31
0.0
 0
LINE
 5
42B
100
AcDbEntity
 8
Layer8
100
AcDbLine
 39
0.25
 370
106
 10
190.7579
 20
299.179493164062
 30
0.0
 11
190.6549
 21
299.073493164062
 31
0.0
 0
LINE
 5
42C
100
AcDbEntity
 8
Layer8
100
AcDbLine
 39
0.25
 370
106
 10
190.6549
 20
299.073493164062
 30
0.0
 11
190.5489
 21
299.073493164062
 31
0.0
 0
LINE
 5
42D
100
AcDbEntity
 8
Layer8
100
AcDbLine
 39
0.25
 370
106
 10
190.5489
 20
299.073493164062
 30
0.0
 11
190.4439
 21
298.968493164062
 31
0.0
 0
LINE
 5
42E
100
AcDbEntity
 8
Layer8
100
AcDbLine
 39
0.25
 370
106
 10
182.1519
 20
302.747493164062
 30
0.0
 11
182.2559
 21
302.853493164062
 31
0.0
 0
LINE
 5
42F
100
AcDbEntity
 8
Layer8
100
AcDbLine
 39
0.25
 370
106
 10
182.2559
 20
302.853493164062
 30
0.0
 11
182.5709
 21
302.853493164062
 31
0.0
 0
LINE
 5
430
100
AcDbEntity
 8
Layer8
100
AcDbLine
 39
0.25
 370
106
 10
182.5709
 20
302.853493164062
 30
0.0
 11
182.9909
 21
302.958493164062
 31
0.0
 0
LINE
 5
431
100
AcDbEntity
 8
Layer8
100
AcDbLine
 39
0.25
 370
106
 10
182.9909
 20
302.958493164062
 30
0.0
 11
183.0959
 21
302.958493164062
 31
0.0
 0
LINE
 5
432
100
AcDbEntity
 8
Layer8
100
AcDbLine
 39
0.25
 370
106
 10
190.4439
 20
381.784493164063
 30
0.0
 11
190.4439
 21
382.309493164062
 31
0.0
 0
LINE
 5
433
100
AcDbEntity
 8
Layer8
100
AcDbLine
 39
0.25
 370
106
 10
187.8189
 20
381.995493164063
 30
0.0
 11
187.8189
 21
381.890493164062
 31
0.0
 0
LINE
 5
434
100
AcDbEntity
 8
Layer8
100
AcDbLine
 39
0.25
 370
106
 10
188.9729
 20
382.309493164062
 30
0.0
 11
188.9729
 21
381.784493164063
 31
0.0
 0
ARC
 5
435
100
AcDbEntity
 8
Layer8
100
AcDbCircle
 39
0.25
 370
106
 10
183.994513541601
 20
297.601940825982
 30
0.0
 40
5.06895190000928
100
AcDbArc
 50
28.4595895691455
 51
68.8202585610646
 0
LINE
 5
436
100
AcDbEntity
 8
Layer8
100
AcDbLine
 39
0.25
 370
106
 10
184.3549
 20
300.333493164062
 30
0.0
 11
186.3499
 21
299.598493164062
 31
0.0
 0
LINE
 5
437
100
AcDbEntity
 8
Layer8
100
AcDbLine
 39
0.25
 370
106
 10
186.3499
 20
299.598493164062
 30
0.0
 11
187.8189
 21
299.495493164063
 31
0.0
 0
LINE
 5
438
100
AcDbEntity
 8
Layer8
100
AcDbLine
 39
0.25
 370
106
 10
187.8189
 20
299.495493164063
 30
0.0
 11
188.1329
 21
299.598493164062
 31
0.0
 0
LINE
 5
439
100
AcDbEntity
 8
Layer8
100
AcDbLine
 39
0.25
 370
106
 10
188.1329
 20
299.598493164062
 30
0.0
 11
188.4509
 21
300.017493164063
 31
0.0
 0
LINE
 5
43A
100
AcDbEntity
 8
Layer8
100
AcDbLine
 39
0.25
 370
106
 10
185.8259
 20
302.328493164062
 30
0.0
 11
184.0399
 21
302.958493164062
 31
0.0
 0
LINE
 5
43B
100
AcDbEntity
 8
Layer8
100
AcDbLine
 39
0.25
 370
106
 10
184.0399
 20
302.958493164062
 30
0.0
 11
182.3599
 21
303.064493164062
 31
0.0
 0
LINE
 5
43C
100
AcDbEntity
 8
Layer8
100
AcDbLine
 39
0.25
 370
106
 10
182.3599
 20
303.064493164062
 30
0.0
 11
181.8369
 21
302.747493164062
 31
0.0
 0
LINE
 5
43D
100
AcDbEntity
 8
Layer8
100
AcDbLine
 39
0.25
 370
106
 10
179.6339
 20
383.779493164063
 30
0.0
 11
179.6339
 21
383.674493164062
 31
0.0
 0
LINE
 5
43E
100
AcDbEntity
 8
Layer8
100
AcDbLine
 39
0.25
 370
106
 10
180.7869
 20
383.149493164063
 30
0.0
 11
180.6819
 21
383.149493164063
 31
0.0
 0
LINE
 5
43F
100
AcDbEntity
 8
Layer8
100
AcDbLine
 39
0.25
 370
106
 10
179.9479
 20
381.995493164063
 30
0.0
 11
179.9479
 21
381.890493164062
 31
0.0
 0
LINE
 5
440
100
AcDbEntity
 8
Layer8
100
AcDbLine
 39
0.25
 370
106
 10
179.9479
 20
381.890493164062
 30
0.0
 11
180.0529
 21
381.679493164062
 31
0.0
 0
LINE
 5
441
100
AcDbEntity
 8
Layer8
100
AcDbLine
 39
0.25
 370
106
 10
180.0529
 20
381.679493164062
 30
0.0
 11
180.1579
 21
381.365493164063
 31
0.0
 0
LINE
 5
442
100
AcDbEntity
 8
Layer8
100
AcDbLine
 39
0.25
 370
106
 10
180.1579
 20
381.365493164063
 30
0.0
 11
180.1579
 21
380.733493164063
 31
0.0
 0
LINE
 5
443
100
AcDbEntity
 8
Layer8
100
AcDbLine
 39
0.25
 370
106
 10
180.6819
 20
382.203493164062
 30
0.0
 11
180.7869
 21
382.101493164063
 31
0.0
 0
LINE
 5
444
100
AcDbEntity
 8
Layer8
100
AcDbLine
 39
0.25
 370
106
 10
180.7869
 20
382.101493164063
 30
0.0
 11
180.8909
 21
381.890493164062
 31
0.0
 0
LINE
 5
445
100
AcDbEntity
 8
Layer8
100
AcDbLine
 39
0.25
 370
106
 10
180.8909
 20
381.890493164062
 30
0.0
 11
180.8909
 21
381.784493164063
 31
0.0
 0
LINE
 5
446
100
AcDbEntity
 8
Layer8
100
AcDbLine
 39
0.25
 370
106
 10
180.8909
 20
381.784493164063
 30
0.0
 11
180.7869
 21
381.576493164062
 31
0.0
 0
LINE
 5
447
100
AcDbEntity
 8
Layer8
100
AcDbLine
 39
0.25
 370
106
 10
180.7869
 20
381.576493164062
 30
0.0
 11
180.6819
 21
381.260493164063
 31
0.0
 0
LINE
 5
448
100
AcDbEntity
 8
Layer8
100
AcDbLine
 39
0.25
 370
106
 10
180.6819
 20
381.260493164063
 30
0.0
 11
180.6819
 21
381.049493164062
 31
0.0
 0
LINE
 5
449
100
AcDbEntity
 8
Layer8
100
AcDbLine
 39
0.25
 370
106
 10
180.6819
 20
381.049493164062
 30
0.0
 11
180.7869
 21
380.841493164063
 31
0.0
 0
LINE
 5
44A
100
AcDbEntity
 8
Layer8
100
AcDbLine
 39
0.25
 370
106
 10
180.7869
 20
380.841493164063
 30
0.0
 11
180.8909
 21
380.841493164063
 31
0.0
 0
LINE
 5
44B
100
AcDbEntity
 8
Layer8
100
AcDbLine
 39
0.25
 370
106
 10
180.8909
 20
380.841493164063
 30
0.0
 11
180.7869
 21
380.841493164063
 31
0.0
 0
LINE
 5
44C
100
AcDbEntity
 8
Layer8
100
AcDbLine
 39
0.25
 370
106
 10
179.8429
 20
381.784493164063
 30
0.0
 11
179.8429
 21
381.890493164062
 31
0.0
 0
LINE
 5
44D
100
AcDbEntity
 8
Layer8
100
AcDbLine
 39
0.25
 370
106
 10
179.8429
 20
381.890493164062
 30
0.0
 11
179.9479
 21
381.890493164062
 31
0.0
 0
LINE
 5
44E
100
AcDbEntity
 8
Layer8
100
AcDbLine
 39
0.25
 370
106
 10
179.9479
 20
381.890493164062
 30
0.0
 11
179.9479
 21
381.995493164063
 31
0.0
 0
LINE
 5
44F
100
AcDbEntity
 8
Layer8
100
AcDbLine
 39
0.25
 370
106
 10
179.6339
 20
383.674493164062
 30
0.0
 11
178.8969
 21
384.198493164062
 31
0.0
 0
LINE
 5
450
100
AcDbEntity
 8
Layer8
100
AcDbLine
 39
0.25
 370
106
 10
178.8969
 20
384.198493164062
 30
0.0
 11
177.3229
 21
384.409493164063
 31
0.0
 0
LINE
 5
451
100
AcDbEntity
 8
Layer8
100
AcDbLine
 39
0.25
 370
106
 10
177.3229
 20
384.409493164063
 30
0.0
 11
175.9589
 21
383.885493164063
 31
0.0
 0
LINE
 5
452
100
AcDbEntity
 8
Layer8
100
AcDbLine
 39
0.25
 370
106
 10
175.9589
 20
383.885493164063
 30
0.0
 11
175.4339
 21
383.255493164063
 31
0.0
 0
LINE
 5
453
100
AcDbEntity
 8
Layer8
100
AcDbLine
 39
0.25
 370
106
 10
175.4339
 20
383.255493164063
 30
0.0
 11
175.3309
 21
382.730493164062
 31
0.0
 0
LINE
 5
454
100
AcDbEntity
 8
Layer8
100
AcDbLine
 39
0.25
 370
106
 10
175.3309
 20
381.260493164063
 30
0.0
 11
175.4339
 21
381.784493164063
 31
0.0
 0
LINE
 5
455
100
AcDbEntity
 8
Layer8
100
AcDbLine
 39
0.25
 370
106
 10
175.4339
 20
381.784493164063
 30
0.0
 11
175.9589
 21
382.414493164062
 31
0.0
 0
LINE
 5
456
100
AcDbEntity
 8
Layer8
100
AcDbLine
 39
0.25
 370
106
 10
175.9589
 20
382.414493164062
 30
0.0
 11
177.3229
 21
382.939493164062
 31
0.0
 0
LINE
 5
457
100
AcDbEntity
 8
Layer8
100
AcDbLine
 39
0.25
 370
106
 10
177.3229
 20
382.939493164062
 30
0.0
 11
178.8969
 21
382.730493164062
 31
0.0
 0
LINE
 5
458
100
AcDbEntity
 8
Layer8
100
AcDbLine
 39
0.25
 370
106
 10
178.8969
 20
382.730493164062
 30
0.0
 11
179.6339
 21
382.203493164062
 31
0.0
 0
LINE
 5
459
100
AcDbEntity
 8
Layer8
100
AcDbLine
 39
0.25
 370
106
 10
179.6339
 20
382.203493164062
 30
0.0
 11
179.5279
 21
381.995493164063
 31
0.0
 0
LINE
 5
45A
100
AcDbEntity
 8
Layer8
100
AcDbLine
 39
0.25
 370
106
 10
179.9479
 20
299.914493164062
 30
0.0
 11
179.9479
 21
300.017493164063
 31
0.0
 0
LINE
 5
45B
100
AcDbEntity
 8
Layer8
100
AcDbLine
 39
0.25
 370
106
 10
179.6339
 20
299.809493164062
 30
0.0
 11
179.6339
 21
299.703493164062
 31
0.0
 0
LINE
 5
45C
100
AcDbEntity
 8
Layer8
100
AcDbLine
 39
0.25
 370
106
 10
180.6819
 20
300.333493164062
 30
0.0
 11
180.7869
 21
300.333493164062
 31
0.0
 0
LINE
 5
45D
100
AcDbEntity
 8
Layer8
100
AcDbLine
 39
0.25
 370
106
 10
180.1579
 20
302.853493164062
 30
0.0
 11
180.1579
 21
302.434493164062
 31
0.0
 0
LINE
 5
45E
100
AcDbEntity
 8
Layer8
100
AcDbLine
 39
0.25
 370
106
 10
180.1579
 20
302.434493164062
 30
0.0
 11
180.0529
 21
301.909493164063
 31
0.0
 0
LINE
 5
45F
100
AcDbEntity
 8
Layer8
100
AcDbLine
 39
0.25
 370
106
 10
180.0529
 20
301.909493164063
 30
0.0
 11
180.0529
 21
301.698493164062
 31
0.0
 0
LINE
 5
460
100
AcDbEntity
 8
Layer8
100
AcDbLine
 39
0.25
 370
106
 10
180.0529
 20
301.698493164062
 30
0.0
 11
179.9479
 21
301.593493164062
 31
0.0
 0
LINE
 5
461
100
AcDbEntity
 8
Layer8
100
AcDbLine
 39
0.25
 370
106
 10
180.7869
 20
302.747493164062
 30
0.0
 11
180.8909
 21
302.747493164062
 31
0.0
 0
LINE
 5
462
100
AcDbEntity
 8
Layer8
100
AcDbLine
 39
0.25
 370
106
 10
180.8909
 20
302.747493164062
 30
0.0
 11
180.7869
 21
302.642493164063
 31
0.0
 0
LINE
 5
463
100
AcDbEntity
 8
Layer8
100
AcDbLine
 39
0.25
 370
106
 10
180.7869
 20
302.642493164063
 30
0.0
 11
180.6819
 21
302.434493164062
 31
0.0
 0
LINE
 5
464
100
AcDbEntity
 8
Layer8
100
AcDbLine
 39
0.25
 370
106
 10
180.6819
 20
302.434493164062
 30
0.0
 11
180.6819
 21
302.226493164063
 31
0.0
 0
LINE
 5
465
100
AcDbEntity
 8
Layer8
100
AcDbLine
 39
0.25
 370
106
 10
180.6819
 20
302.226493164063
 30
0.0
 11
180.7869
 21
301.909493164063
 31
0.0
 0
LINE
 5
466
100
AcDbEntity
 8
Layer8
100
AcDbLine
 39
0.25
 370
106
 10
180.7869
 20
301.909493164063
 30
0.0
 11
180.8909
 21
301.909493164063
 31
0.0
 0
LINE
 5
467
100
AcDbEntity
 8
Layer8
100
AcDbLine
 39
0.25
 370
106
 10
180.8909
 20
301.909493164063
 30
0.0
 11
180.8909
 21
301.593493164062
 31
0.0
 0
LINE
 5
468
100
AcDbEntity
 8
Layer8
100
AcDbLine
 39
0.25
 370
106
 10
180.8909
 20
301.593493164062
 30
0.0
 11
180.7869
 21
301.487493164062
 31
0.0
 0
LINE
 5
469
100
AcDbEntity
 8
Layer8
100
AcDbLine
 39
0.25
 370
106
 10
180.7869
 20
301.487493164062
 30
0.0
 11
180.6819
 21
301.279493164063
 31
0.0
 0
LINE
 5
46A
100
AcDbEntity
 8
Layer8
100
AcDbLine
 39
0.25
 370
106
 10
179.8429
 20
301.804493164062
 30
0.0
 11
179.8429
 21
301.698493164062
 31
0.0
 0
LINE
 5
46B
100
AcDbEntity
 8
Layer8
100
AcDbLine
 39
0.25
 370
106
 10
179.8429
 20
301.698493164062
 30
0.0
 11
179.9479
 21
301.593493164062
 31
0.0
 0
ARC
 5
46C
100
AcDbEntity
 8
Layer8
100
AcDbCircle
 39
0.25
 370
106
 10
177.260984700442
 20
301.148890000227
 30
0.0
 40
1.97036986441729
100
AcDbArc
 50
-168.394093811453
 51
-88.199287614352
 0
LINE
 5
46D
100
AcDbEntity
 8
Layer8
100
AcDbLine
 39
0.25
 370
106
 10
177.3229
 20
299.179493164062
 30
0.0
 11
178.8969
 21
299.284493164063
 31
0.0
 0
LINE
 5
46E
100
AcDbEntity
 8
Layer8
100
AcDbLine
 39
0.25
 370
106
 10
178.8969
 20
299.284493164063
 30
0.0
 11
179.6339
 21
299.809493164062
 31
0.0
 0
LINE
 5
46F
100
AcDbEntity
 8
Layer8
100
AcDbLine
 39
0.25
 370
106
 10
179.5279
 20
301.487493164062
 30
0.0
 11
179.6339
 21
301.279493164063
 31
0.0
 0
LINE
 5
470
100
AcDbEntity
 8
Layer8
100
AcDbLine
 39
0.25
 370
106
 10
179.6339
 20
301.279493164063
 30
0.0
 11
178.8969
 21
300.752493164062
 31
0.0
 0
LINE
 5
471
100
AcDbEntity
 8
Layer8
100
AcDbLine
 39
0.25
 370
106
 10
178.8969
 20
300.752493164062
 30
0.0
 11
177.3229
 21
300.649493164063
 31
0.0
 0
LINE
 5
472
100
AcDbEntity
 8
Layer8
100
AcDbLine
 39
0.25
 370
106
 10
177.3229
 20
300.649493164063
 30
0.0
 11
176.3779
 21
300.858493164063
 31
0.0
 0
LINE
 5
473
100
AcDbEntity
 8
Layer8
100
AcDbLine
 39
0.25
 370
106
 10
176.3779
 20
300.858493164063
 30
0.0
 11
175.9589
 21
301.174493164062
 31
0.0
 0
LINE
 5
474
100
AcDbEntity
 8
Layer8
100
AcDbLine
 39
0.25
 370
106
 10
175.9589
 20
301.174493164062
 30
0.0
 11
175.4339
 21
301.698493164062
 31
0.0
 0
LINE
 5
475
100
AcDbEntity
 8
Layer8
100
AcDbLine
 39
0.25
 370
106
 10
175.4339
 20
301.698493164062
 30
0.0
 11
175.3309
 21
302.328493164062
 31
0.0
 0
LINE
 5
476
100
AcDbEntity
 8
Layer8
100
AcDbLine
 39
0.25
 370
106
 10
85.0609
 20
341.059493164062
 30
0.0
 11
85.0609
 21
340.429493164062
 31
0.0
 0
LINE
 5
477
100
AcDbEntity
 8
Layer8
100
AcDbLine
 39
0.25
 370
106
 10
85.0609
 20
343.054493164062
 30
0.0
 11
85.0609
 21
341.059493164062
 31
0.0
 0
LINE
 5
478
100
AcDbEntity
 8
Layer8
100
AcDbLine
 39
0.25
 370
106
 10
84.6419
 20
341.059493164062
 30
0.0
 11
84.6419
 21
340.429493164062
 31
0.0
 0
LINE
 5
479
100
AcDbEntity
 8
Layer8
100
AcDbLine
 39
0.25
 370
106
 10
84.6419
 20
343.054493164062
 30
0.0
 11
84.6419
 21
341.059493164062
 31
0.0
 0
LINE
 5
47A
100
AcDbEntity
 8
Layer8
100
AcDbLine
 39
0.25
 370
106
 10
86.6349
 20
341.794493164062
 30
0.0
 11
86.6349
 21
357.225493164062
 31
0.0
 0
LINE
 5
47B
100
AcDbEntity
 8
Layer8
100
AcDbLine
 39
0.25
 370
106
 10
86.6349
 20
326.261493164062
 30
0.0
 11
86.6349
 21
341.794493164062
 31
0.0
 0
LINE
 5
47C
100
AcDbEntity
 8
Layer8
100
AcDbLine
 39
0.25
 370
106
 10
142.7899
 20
341.794493164062
 30
0.0
 11
142.7899
 21
359.533493164062
 31
0.0
 0
LINE
 5
47D
100
AcDbEntity
 8
Layer8
100
AcDbLine
 39
0.25
 370
106
 10
142.7899
 20
323.949493164062
 30
0.0
 11
142.7899
 21
341.794493164062
 31
0.0
 0
LINE
 5
47E
100
AcDbEntity
 8
Layer8
100
AcDbLine
 39
0.25
 370
106
 10
143.5249
 20
341.794493164062
 30
0.0
 11
143.5249
 21
360.266493164062
 31
0.0
 0
LINE
 5
47F
100
AcDbEntity
 8
Layer8
100
AcDbLine
 39
0.25
 370
106
 10
143.5249
 20
323.319493164062
 30
0.0
 11
143.5249
 21
341.794493164062
 31
0.0
 0
LINE
 5
480
100
AcDbEntity
 8
Layer8
100
AcDbLine
 39
0.25
 370
106
 10
181.6269
 20
341.794493164062
 30
0.0
 11
181.6269
 21
380.841493164063
 31
0.0
 0
LINE
 5
481
100
AcDbEntity
 8
Layer8
100
AcDbLine
 39
0.25
 370
106
 10
181.6269
 20
383.149493164063
 30
0.0
 11
181.6269
 21
394.379493164062
 31
0.0
 0
LINE
 5
482
100
AcDbEntity
 8
Layer8
100
AcDbLine
 39
0.25
 370
106
 10
181.6269
 20
289.209493164063
 30
0.0
 11
181.6269
 21
300.333493164062
 31
0.0
 0
LINE
 5
483
100
AcDbEntity
 8
Layer8
100
AcDbLine
 39
0.25
 370
106
 10
181.6269
 20
302.747493164062
 30
0.0
 11
181.6269
 21
341.794493164062
 31
0.0
 0
LINE
 5
484
100
AcDbEntity
 8
Layer8
100
AcDbLine
 39
0.25
 370
106
 10
181.8369
 20
397.215493164062
 30
0.0
 11
181.8369
 21
383.779493164063
 31
0.0
 0
LINE
 5
485
100
AcDbEntity
 8
Layer8
100
AcDbLine
 39
0.25
 370
106
 10
181.8369
 20
299.809493164062
 30
0.0
 11
181.8369
 21
286.373493164062
 31
0.0
 0
LINE
 5
486
100
AcDbEntity
 8
Layer8
100
AcDbLine
 39
0.25
 370
106
 10
190.7579
 20
396.480493164062
 30
0.0
 11
190.7579
 21
384.726493164063
 31
0.0
 0
LINE
 5
487
100
AcDbEntity
 8
Layer8
100
AcDbLine
 39
0.25
 370
106
 10
190.7579
 20
299.073493164062
 30
0.0
 11
190.7579
 21
287.003493164062
 31
0.0
 0
LINE
 5
488
100
AcDbEntity
 8
Layer8
100
AcDbLine
 39
0.25
 370
106
 10
181.8369
 20
383.779493164063
 30
0.0
 11
181.8369
 21
383.466493164063
 31
0.0
 0
LINE
 5
489
100
AcDbEntity
 8
Layer8
100
AcDbLine
 39
0.25
 370
106
 10
181.8369
 20
383.779493164063
 30
0.0
 11
182.1519
 21
383.779493164063
 31
0.0
 0
LINE
 5
48A
100
AcDbEntity
 8
Layer8
100
AcDbLine
 39
0.25
 370
106
 10
183.0959
 20
383.568493164062
 30
0.0
 11
182.9909
 21
383.568493164062
 31
0.0
 0
LINE
 5
48B
100
AcDbEntity
 8
Layer8
100
AcDbLine
 39
0.25
 370
106
 10
181.8369
 20
300.017493164063
 30
0.0
 11
181.8369
 21
299.809493164062
 31
0.0
 0
LINE
 5
48C
100
AcDbEntity
 8
Layer8
100
AcDbLine
 39
0.25
 370
106
 10
182.9909
 20
300.017493164063
 30
0.0
 11
183.0959
 21
300.017493164063
 31
0.0
 0
LINE
 5
48D
100
AcDbEntity
 8
Layer8
100
AcDbLine
 39
0.25
 370
106
 10
181.8369
 20
299.809493164062
 30
0.0
 11
182.0459
 21
299.703493164062
 31
0.0
 0
LINE
 5
48E
100
AcDbEntity
 8
Layer8
100
AcDbLine
 39
0.25
 370
106
 10
182.0459
 20
299.703493164062
 30
0.0
 11
182.1519
 21
299.703493164062
 31
0.0
 0
LINE
 5
48F
100
AcDbEntity
 8
Layer8
100
AcDbLine
 39
0.25
 370
106
 10
190.7579
 20
384.409493164063
 30
0.0
 11
190.7579
 21
384.304493164062
 31
0.0
 0
LINE
 5
490
100
AcDbEntity
 8
Layer8
100
AcDbLine
 39
0.25
 370
106
 10
184.9859
 20
383.568493164062
 30
0.0
 11
184.9859
 21
383.255493164063
 31
0.0
 0
LINE
 5
491
100
AcDbEntity
 8
Layer8
100
AcDbLine
 39
0.25
 370
106
 10
184.9859
 20
383.255493164063
 30
0.0
 11
185.0909
 21
383.149493164063
 31
0.0
 0
LINE
 5
492
100
AcDbEntity
 8
Layer8
100
AcDbLine
 39
0.25
 370
106
 10
190.5489
 20
384.198493164062
 30
0.0
 11
190.5489
 21
384.093493164062
 31
0.0
 0
LINE
 5
493
100
AcDbEntity
 8
Layer8
100
AcDbLine
 39
0.25
 370
106
 10
190.7579
 20
384.409493164063
 30
0.0
 11
190.7579
 21
384.617493164062
 31
0.0
 0
LINE
 5
494
100
AcDbEntity
 8
Layer8
100
AcDbLine
 39
0.25
 370
106
 10
190.6549
 20
384.304493164062
 30
0.0
 11
190.6549
 21
384.198493164062
 31
0.0
 0
LINE
 5
495
100
AcDbEntity
 8
Layer8
100
AcDbLine
 39
0.25
 370
106
 10
190.6549
 20
384.198493164062
 30
0.0
 11
190.4439
 21
384.198493164062
 31
0.0
 0
LINE
 5
496
100
AcDbEntity
 8
Layer8
100
AcDbLine
 39
0.25
 370
106
 10
190.6549
 20
384.304493164062
 30
0.0
 11
190.7579
 21
384.304493164062
 31
0.0
 0
LINE
 5
497
100
AcDbEntity
 8
Layer8
100
AcDbLine
 39
0.25
 370
106
 10
190.7579
 20
384.304493164062
 30
0.0
 11
190.7579
 21
384.409493164063
 31
0.0
 0
LINE
 5
498
100
AcDbEntity
 8
Layer8
100
AcDbLine
 39
0.25
 370
106
 10
188.0299
 20
383.987493164062
 30
0.0
 11
188.5529
 21
384.198493164062
 31
0.0
 0
LINE
 5
499
100
AcDbEntity
 8
Layer8
100
AcDbLine
 39
0.25
 370
106
 10
188.5529
 20
384.198493164062
 30
0.0
 11
188.9729
 21
384.198493164062
 31
0.0
 0
LINE
 5
49A
100
AcDbEntity
 8
Layer8
100
AcDbLine
 39
0.25
 370
106
 10
187.8189
 20
384.617493164062
 30
0.0
 11
187.8189
 21
384.304493164062
 31
0.0
 0
LINE
 5
49B
100
AcDbEntity
 8
Layer8
100
AcDbLine
 39
0.25
 370
106
 10
187.8189
 20
384.304493164062
 30
0.0
 11
187.9239
 21
384.304493164062
 31
0.0
 0
LINE
 5
49C
100
AcDbEntity
 8
Layer8
100
AcDbLine
 39
0.25
 370
106
 10
187.9239
 20
384.304493164062
 30
0.0
 11
187.9239
 21
384.093493164062
 31
0.0
 0
LINE
 5
49D
100
AcDbEntity
 8
Layer8
100
AcDbLine
 39
0.25
 370
106
 10
187.9239
 20
384.093493164062
 30
0.0
 11
188.0299
 21
383.987493164062
 31
0.0
 0
LINE
 5
49E
100
AcDbEntity
 8
Layer8
100
AcDbLine
 39
0.25
 370
106
 10
187.8189
 20
384.617493164062
 30
0.0
 11
188.4509
 21
384.934493164062
 31
0.0
 0
LINE
 5
49F
100
AcDbEntity
 8
Layer8
100
AcDbLine
 39
0.25
 370
106
 10
188.4509
 20
384.934493164062
 30
0.0
 11
188.7629
 21
384.934493164062
 31
0.0
 0
LINE
 5
4A0
100
AcDbEntity
 8
Layer8
100
AcDbLine
 39
0.25
 370
106
 10
188.7629
 20
384.934493164062
 30
0.0
 11
188.9729
 21
385.039493164062
 31
0.0
 0
LINE
 5
4A1
100
AcDbEntity
 8
Layer8
100
AcDbLine
 39
0.25
 370
106
 10
181.8369
 20
383.466493164063
 30
0.0
 11
181.8369
 21
383.149493164063
 31
0.0
 0
LINE
 5
4A2
100
AcDbEntity
 8
Layer8
100
AcDbLine
 39
0.25
 370
106
 10
185.0909
 20
383.779493164063
 30
0.0
 11
186.4549
 21
384.304493164062
 31
0.0
 0
LINE
 5
4A3
100
AcDbEntity
 8
Layer8
100
AcDbLine
 39
0.25
 370
106
 10
186.4549
 20
384.304493164062
 30
0.0
 11
187.8189
 21
384.617493164062
 31
0.0
 0
LINE
 5
4A4
100
AcDbEntity
 8
Layer8
100
AcDbLine
 39
0.25
 370
106
 10
184.9859
 20
383.568493164062
 30
0.0
 11
187.8189
 21
384.617493164062
 31
0.0
 0
LINE
 5
4A5
100
AcDbEntity
 8
Layer8
100
AcDbLine
 39
0.25
 370
106
 10
181.8369
 20
383.466493164063
 30
0.0
 11
182.2559
 21
383.255493164063
 31
0.0
 0
LINE
 5
4A6
100
AcDbEntity
 8
Layer8
100
AcDbLine
 39
0.25
 370
106
 10
182.2559
 20
383.255493164063
 30
0.0
 11
182.8859
 21
383.255493164063
 31
0.0
 0
LINE
 5
4A7
100
AcDbEntity
 8
Layer8
100
AcDbLine
 39
0.25
 370
106
 10
182.8859
 20
383.255493164063
 30
0.0
 11
183.8309
 21
383.358493164063
 31
0.0
 0
LINE
 5
4A8
100
AcDbEntity
 8
Layer8
100
AcDbLine
 39
0.25
 370
106
 10
183.8309
 20
383.358493164063
 30
0.0
 11
185.0909
 21
383.779493164063
 31
0.0
 0
LINE
 5
4A9
100
AcDbEntity
 8
Layer8
100
AcDbLine
 39
0.25
 370
106
 10
188.9729
 20
385.039493164062
 30
0.0
 11
188.9729
 21
384.198493164062
 31
0.0
 0
LINE
 5
4AA
100
AcDbEntity
 8
Layer8
100
AcDbLine
 39
0.25
 370
106
 10
188.9729
 20
384.198493164062
 30
0.0
 11
190.4439
 21
384.198493164062
 31
0.0
 0
LINE
 5
4AB
100
AcDbEntity
 8
Layer8
100
AcDbLine
 39
0.25
 370
106
 10
189.1839
 20
298.549493164062
 30
0.0
 11
189.0799
 21
298.549493164062
 31
0.0
 0
LINE
 5
4AC
100
AcDbEntity
 8
Layer8
100
AcDbLine
 39
0.25
 370
106
 10
189.0799
 20
298.549493164062
 30
0.0
 11
188.7629
 21
298.865493164063
 31
0.0
 0
LINE
 5
4AD
100
AcDbEntity
 8
Layer8
100
AcDbLine
 39
0.25
 370
106
 10
190.7579
 20
298.760493164063
 30
0.0
 11
190.7579
 21
298.865493164063
 31
0.0
 0
LINE
 5
4AE
100
AcDbEntity
 8
Layer8
100
AcDbLine
 39
0.25
 370
106
 10
188.8689
 20
298.865493164063
 30
0.0
 11
189.0799
 21
298.654493164063
 31
0.0
 0
LINE
 5
4AF
100
AcDbEntity
 8
Layer8
100
AcDbLine
 39
0.25
 370
106
 10
189.0799
 20
298.654493164063
 30
0.0
 11
189.1839
 21
298.654493164063
 31
0.0
 0
LINE
 5
4B0
100
AcDbEntity
 8
Layer8
100
AcDbLine
 39
0.25
 370
106
 10
189.1839
 20
298.654493164063
 30
0.0
 11
189.3949
 21
298.549493164062
 31
0.0
 0
LINE
 5
4B1
100
AcDbEntity
 8
Layer8
100
AcDbLine
 39
0.25
 370
106
 10
181.8369
 20
380.841493164063
 30
0.0
 11
181.8369
 21
380.419493164062
 31
0.0
 0
LINE
 5
4B2
100
AcDbEntity
 8
Layer8
100
AcDbLine
 39
0.25
 370
106
 10
190.4439
 20
298.968493164062
 30
0.0
 11
190.4439
 21
298.549493164062
 31
0.0
 0
LINE
 5
4B3
100
AcDbEntity
 8
Layer8
100
AcDbLine
 39
0.25
 370
106
 10
189.1839
 20
298.549493164062
 30
0.0
 11
190.4439
 21
298.549493164062
 31
0.0
 0
LINE
 5
4B4
100
AcDbEntity
 8
Layer8
100
AcDbLine
 39
0.25
 370
106
 10
189.1839
 20
298.549493164062
 30
0.0
 11
189.3949
 21
298.549493164062
 31
0.0
 0
LINE
 5
4B5
100
AcDbEntity
 8
Layer8
100
AcDbLine
 39
0.25
 370
106
 10
189.6029
 20
298.968493164062
 30
0.0
 11
189.3949
 21
298.549493164062
 31
0.0
 0
LINE
 5
4B6
100
AcDbEntity
 8
Layer8
100
AcDbLine
 39
0.25
 370
106
 10
181.8369
 20
380.419493164062
 30
0.0
 11
181.8369
 21
380.211493164063
 31
0.0
 0
LINE
 5
4B7
100
AcDbEntity
 8
Layer8
100
AcDbLine
 39
0.25
 370
106
 10
190.7579
 20
379.578493164062
 30
0.0
 11
190.7579
 21
377.794493164062
 31
0.0
 0
LINE
 5
4B8
100
AcDbEntity
 8
Layer8
100
AcDbLine
 39
0.25
 370
106
 10
190.7579
 20
305.686493164062
 30
0.0
 11
190.7579
 21
303.904493164063
 31
0.0
 0
LINE
 5
4B9
100
AcDbEntity
 8
Layer8
100
AcDbLine
 39
0.25
 370
106
 10
190.7579
 20
300.439493164062
 30
0.0
 11
190.7579
 21
300.649493164063
 31
0.0
 0
LINE
 5
4BA
100
AcDbEntity
 8
Layer8
100
AcDbLine
 39
0.25
 370
106
 10
190.7579
 20
299.179493164062
 30
0.0
 11
190.7579
 21
299.495493164063
 31
0.0
 0
LINE
 5
4BB
100
AcDbEntity
 8
Layer8
100
AcDbLine
 39
0.25
 370
106
 10
190.4439
 20
300.439493164062
 30
0.0
 11
190.4439
 21
298.968493164062
 31
0.0
 0
LINE
 5
4BC
100
AcDbEntity
 8
Layer8
100
AcDbLine
 39
0.25
 370
106
 10
190.4439
 20
298.968493164062
 30
0.0
 11
189.6029
 21
298.968493164062
 31
0.0
 0
LINE
 5
4BD
100
AcDbEntity
 8
Layer8
100
AcDbLine
 39
0.25
 370
106
 10
190.4439
 20
305.478493164062
 30
0.0
 11
190.4439
 21
304.218493164062
 31
0.0
 0
LINE
 5
4BE
100
AcDbEntity
 8
Layer8
100
AcDbLine
 39
0.25
 370
106
 10
190.4439
 20
379.370493164063
 30
0.0
 11
190.4439
 21
378.005493164063
 31
0.0
 0
LINE
 5
4BF
100
AcDbEntity
 8
Layer8
100
AcDbLine
 39
0.25
 370
106
 10
184.9859
 20
380.733493164063
 30
0.0
 11
184.9859
 21
380.943493164062
 31
0.0
 0
LINE
 5
4C0
100
AcDbEntity
 8
Layer8
100
AcDbLine
 39
0.25
 370
106
 10
189.6029
 20
298.968493164062
 30
0.0
 11
189.6029
 21
300.439493164062
 31
0.0
 0
LINE
 5
4C1
100
AcDbEntity
 8
Layer8
100
AcDbLine
 39
0.25
 370
106
 10
189.6029
 20
298.968493164062
 30
0.0
 11
189.2899
 21
298.865493164063
 31
0.0
 0
LINE
 5
4C2
100
AcDbEntity
 8
Layer8
100
AcDbLine
 39
0.25
 370
106
 10
189.2899
 20
298.865493164063
 30
0.0
 11
188.8689
 21
298.865493164063
 31
0.0
 0
LINE
 5
4C3
100
AcDbEntity
 8
Layer8
100
AcDbLine
 39
0.25
 370
106
 10
190.7579
 20
384.304493164062
 30
0.0
 11
190.7579
 21
384.093493164062
 31
0.0
 0
LINE
 5
4C4
100
AcDbEntity
 8
Layer8
100
AcDbLine
 39
0.25
 370
106
 10
190.6549
 20
384.304493164062
 30
0.0
 11
190.7579
 21
384.304493164062
 31
0.0
 0
LINE
 5
4C5
100
AcDbEntity
 8
Layer8
100
AcDbLine
 39
0.25
 370
106
 10
190.5489
 20
384.198493164062
 30
0.0
 11
190.6549
 21
384.198493164062
 31
0.0
 0
LINE
 5
4C6
100
AcDbEntity
 8
Layer8
100
AcDbLine
 39
0.25
 370
106
 10
190.6549
 20
384.198493164062
 30
0.0
 11
190.6549
 21
384.304493164062
 31
0.0
 0
LINE
 5
4C7
100
AcDbEntity
 8
Layer8
100
AcDbLine
 39
0.25
 370
106
 10
188.1329
 20
300.333493164062
 30
0.0
 11
188.2389
 21
300.230493164062
 31
0.0
 0
LINE
 5
4C8
100
AcDbEntity
 8
Layer8
100
AcDbLine
 39
0.25
 370
106
 10
188.2389
 20
300.230493164062
 30
0.0
 11
188.2389
 21
300.122493164062
 31
0.0
 0
LINE
 5
4C9
100
AcDbEntity
 8
Layer8
100
AcDbLine
 39
0.25
 370
106
 10
188.2389
 20
300.122493164062
 30
0.0
 11
188.4509
 21
300.017493164063
 31
0.0
 0
LINE
 5
4CA
100
AcDbEntity
 8
Layer8
100
AcDbLine
 39
0.25
 370
106
 10
190.7579
 20
381.784493164063
 30
0.0
 11
190.7579
 21
381.995493164063
 31
0.0
 0
LINE
 5
4CB
100
AcDbEntity
 8
Layer8
100
AcDbLine
 39
0.25
 370
106
 10
188.8689
 20
300.858493164063
 30
0.0
 11
189.2899
 21
300.649493164063
 31
0.0
 0
LINE
 5
4CC
100
AcDbEntity
 8
Layer8
100
AcDbLine
 39
0.25
 370
106
 10
189.2899
 20
300.649493164063
 30
0.0
 11
189.6029
 21
300.439493164062
 31
0.0
 0
LINE
 5
4CD
100
AcDbEntity
 8
Layer8
100
AcDbLine
 39
0.25
 370
106
 10
181.8369
 20
378.216493164063
 30
0.0
 11
181.8369
 21
377.902493164062
 31
0.0
 0
LINE
 5
4CE
100
AcDbEntity
 8
Layer8
100
AcDbLine
 39
0.25
 370
106
 10
182.1519
 20
378.005493164063
 30
0.0
 11
182.3599
 21
378.216493164063
 31
0.0
 0
LINE
 5
4CF
100
AcDbEntity
 8
Layer8
100
AcDbLine
 39
0.25
 370
106
 10
182.3599
 20
378.216493164063
 30
0.0
 11
183.6219
 21
378.846493164063
 31
0.0
 0
LINE
 5
4D0
100
AcDbEntity
 8
Layer8
100
AcDbLine
 39
0.25
 370
106
 10
183.6219
 20
378.846493164063
 30
0.0
 11
185.6159
 21
379.265493164062
 31
0.0
 0
LINE
 5
4D1
100
AcDbEntity
 8
Layer8
100
AcDbLine
 39
0.25
 370
106
 10
181.8369
 20
305.583493164062
 30
0.0
 11
181.8369
 21
305.267493164063
 31
0.0
 0
ARC
 5
4D2
100
AcDbEntity
 8
Layer8
100
AcDbCircle
 39
0.25
 370
106
 10
186.934702245229
 20
313.889597654492
 30
0.0
 40
9.76060968520107
100
AcDbArc
 50
-117.949973574701
 51
-97.7652548286488
 0
LINE
 5
4D3
100
AcDbEntity
 8
Layer8
100
AcDbLine
 39
0.25
 370
106
 10
182.3599
 20
305.267493164063
 30
0.0
 11
182.1519
 21
305.583493164062
 31
0.0
 0
LINE
 5
4D4
100
AcDbEntity
 8
Layer8
100
AcDbLine
 39
0.25
 370
106
 10
189.3949
 20
301.174493164062
 30
0.0
 11
189.1839
 21
301.068493164062
 31
0.0
 0
LINE
 5
4D5
100
AcDbEntity
 8
Layer8
100
AcDbLine
 39
0.25
 370
106
 10
189.1839
 20
301.068493164062
 30
0.0
 11
188.9729
 21
300.858493164063
 31
0.0
 0
LINE
 5
4D6
100
AcDbEntity
 8
Layer8
100
AcDbLine
 39
0.25
 370
106
 10
188.9729
 20
300.858493164063
 30
0.0
 11
188.8689
 21
300.858493164063
 31
0.0
 0
LINE
 5
4D7
100
AcDbEntity
 8
Layer8
100
AcDbLine
 39
0.25
 370
106
 10
190.7579
 20
301.487493164062
 30
0.0
 11
190.7579
 21
300.649493164063
 31
0.0
 0
LINE
 5
4D8
100
AcDbEntity
 8
Layer8
100
AcDbLine
 39
0.25
 370
106
 10
190.4439
 20
300.439493164062
 30
0.0
 11
190.5489
 21
300.544493164062
 31
0.0
 0
LINE
 5
4D9
100
AcDbEntity
 8
Layer8
100
AcDbLine
 39
0.25
 370
106
 10
190.5489
 20
300.544493164062
 30
0.0
 11
190.6549
 21
300.544493164062
 31
0.0
 0
LINE
 5
4DA
100
AcDbEntity
 8
Layer8
100
AcDbLine
 39
0.25
 370
106
 10
190.6549
 20
300.544493164062
 30
0.0
 11
190.7579
 21
300.649493164063
 31
0.0
 0
LINE
 5
4DB
100
AcDbEntity
 8
Layer8
100
AcDbLine
 39
0.25
 370
106
 10
190.4439
 20
301.487493164062
 30
0.0
 11
190.4439
 21
300.439493164062
 31
0.0
 0
LINE
 5
4DC
100
AcDbEntity
 8
Layer8
100
AcDbLine
 39
0.25
 370
106
 10
189.6029
 20
300.439493164062
 30
0.0
 11
190.4439
 21
300.439493164062
 31
0.0
 0
LINE
 5
4DD
100
AcDbEntity
 8
Layer8
100
AcDbLine
 39
0.25
 370
106
 10
189.3949
 20
301.174493164062
 30
0.0
 11
189.6029
 21
300.439493164062
 31
0.0
 0
LINE
 5
4DE
100
AcDbEntity
 8
Layer8
100
AcDbLine
 39
0.25
 370
106
 10
189.3949
 20
301.174493164062
 30
0.0
 11
189.1839
 21
301.487493164062
 31
0.0
 0
LINE
 5
4DF
100
AcDbEntity
 8
Layer8
100
AcDbLine
 39
0.25
 370
106
 10
190.7579
 20
299.495493164063
 30
0.0
 11
190.7579
 21
300.439493164062
 31
0.0
 0
LINE
 5
4E0
100
AcDbEntity
 8
Layer8
100
AcDbLine
 39
0.25
 370
106
 10
190.7579
 20
381.784493164063
 30
0.0
 11
190.7579
 21
379.578493164062
 31
0.0
 0
LINE
 5
4E1
100
AcDbEntity
 8
Layer8
100
AcDbLine
 39
0.25
 370
106
 10
190.4439
 20
379.370493164063
 30
0.0
 11
190.5489
 21
379.370493164063
 31
0.0
 0
LINE
 5
4E2
100
AcDbEntity
 8
Layer8
100
AcDbLine
 39
0.25
 370
106
 10
190.5489
 20
379.370493164063
 30
0.0
 11
190.6549
 21
379.476493164063
 31
0.0
 0
LINE
 5
4E3
100
AcDbEntity
 8
Layer8
100
AcDbLine
 39
0.25
 370
106
 10
190.6549
 20
379.476493164063
 30
0.0
 11
190.7579
 21
379.476493164063
 31
0.0
 0
LINE
 5
4E4
100
AcDbEntity
 8
Layer8
100
AcDbLine
 39
0.25
 370
106
 10
190.7579
 20
379.476493164063
 30
0.0
 11
190.7579
 21
379.578493164062
 31
0.0
 0
LINE
 5
4E5
100
AcDbEntity
 8
Layer8
100
AcDbLine
 39
0.25
 370
106
 10
190.4439
 20
381.784493164063
 30
0.0
 11
190.7579
 21
381.784493164063
 31
0.0
 0
LINE
 5
4E6
100
AcDbEntity
 8
Layer8
100
AcDbLine
 39
0.25
 370
106
 10
190.7579
 20
303.904493164063
 30
0.0
 11
190.7579
 21
301.487493164062
 31
0.0
 0
LINE
 5
4E7
100
AcDbEntity
 8
Layer8
100
AcDbLine
 39
0.25
 370
106
 10
190.4439
 20
301.487493164062
 30
0.0
 11
190.7579
 21
301.487493164062
 31
0.0
 0
LINE
 5
4E8
100
AcDbEntity
 8
Layer8
100
AcDbLine
 39
0.25
 370
106
 10
190.4439
 20
304.218493164062
 30
0.0
 11
190.5489
 21
304.112493164062
 31
0.0
 0
LINE
 5
4E9
100
AcDbEntity
 8
Layer8
100
AcDbLine
 39
0.25
 370
106
 10
190.5489
 20
304.112493164062
 30
0.0
 11
190.6549
 21
304.112493164062
 31
0.0
 0
LINE
 5
4EA
100
AcDbEntity
 8
Layer8
100
AcDbLine
 39
0.25
 370
106
 10
190.6549
 20
304.112493164062
 30
0.0
 11
190.7579
 21
304.007493164063
 31
0.0
 0
LINE
 5
4EB
100
AcDbEntity
 8
Layer8
100
AcDbLine
 39
0.25
 370
106
 10
190.7579
 20
304.007493164063
 30
0.0
 11
190.7579
 21
303.904493164063
 31
0.0
 0
LINE
 5
4EC
100
AcDbEntity
 8
Layer8
100
AcDbLine
 39
0.25
 370
106
 10
190.4439
 20
381.784493164063
 30
0.0
 11
188.9729
 21
381.784493164063
 31
0.0
 0
LINE
 5
4ED
100
AcDbEntity
 8
Layer8
100
AcDbLine
 39
0.25
 370
106
 10
190.4439
 20
381.784493164063
 30
0.0
 11
190.4439
 21
379.370493164063
 31
0.0
 0
LINE
 5
4EE
100
AcDbEntity
 8
Layer8
100
AcDbLine
 39
0.25
 370
106
 10
185.6159
 20
379.265493164062
 30
0.0
 11
190.4439
 21
379.370493164063
 31
0.0
 0
LINE
 5
4EF
100
AcDbEntity
 8
Layer8
100
AcDbLine
 39
0.25
 370
106
 10
190.4439
 20
304.218493164062
 30
0.0
 11
185.6159
 21
304.218493164062
 31
0.0
 0
LINE
 5
4F0
100
AcDbEntity
 8
Layer8
100
AcDbLine
 39
0.25
 370
106
 10
190.4439
 20
304.218493164062
 30
0.0
 11
190.4439
 21
301.487493164062
 31
0.0
 0
LINE
 5
4F1
100
AcDbEntity
 8
Layer8
100
AcDbLine
 39
0.25
 370
106
 10
189.1839
 20
301.487493164062
 30
0.0
 11
190.4439
 21
301.487493164062
 31
0.0
 0
LINE
 5
4F2
100
AcDbEntity
 8
Layer8
100
AcDbLine
 39
0.25
 370
106
 10
188.9729
 20
381.784493164063
 30
0.0
 11
188.7629
 21
381.890493164062
 31
0.0
 0
LINE
 5
4F3
100
AcDbEntity
 8
Layer8
100
AcDbLine
 39
0.25
 370
106
 10
188.7629
 20
381.890493164062
 30
0.0
 11
187.8189
 21
381.890493164062
 31
0.0
 0
ARC
 5
4F4
100
AcDbEntity
 8
Layer8
100
AcDbCircle
 39
0.25
 370
106
 10
178.672452174243
 20
392.015218988226
 30
0.0
 40
14.517815824027
100
AcDbArc
 50
-61.4274720191461
 51
-44.8054294828674
 0
ARC
 5
4F5
100
AcDbEntity
 8
Layer8
100
AcDbCircle
 39
0.25
 370
106
 10
184.196375961567
 20
380.053493164075
 30
0.0
 40
1.01094720699577
100
AcDbArc
 50
-8.99156580464397
 51
27.7684646093774
 0
ARC
 5
4F6
100
AcDbEntity
 8
Layer8
100
AcDbCircle
 39
0.25
 370
106
 10
186.640493023138
 20
380.40584897796
 30
0.0
 40
1.53303693540814
100
AcDbArc
 50
-160.554801610878
 51
-131.939230781281
 0
LINE
 5
4F7
100
AcDbEntity
 8
Layer8
100
AcDbLine
 39
0.25
 370
106
 10
181.8369
 20
380.211493164063
 30
0.0
 11
181.8369
 21
378.216493164063
 31
0.0
 0
LINE
 5
4F8
100
AcDbEntity
 8
Layer8
100
AcDbLine
 39
0.25
 370
106
 10
184.9859
 20
380.733493164063
 30
0.0
 11
183.3079
 21
380.211493164063
 31
0.0
 0
LINE
 5
4F9
100
AcDbEntity
 8
Layer8
100
AcDbLine
 39
0.25
 370
106
 10
183.3079
 20
380.211493164063
 30
0.0
 11
181.8369
 21
380.211493164063
 31
0.0
 0
LINE
 5
4FA
100
AcDbEntity
 8
Layer8
100
AcDbLine
 39
0.25
 370
106
 10
187.8189
 20
381.890493164062
 30
0.0
 11
184.9859
 21
380.733493164063
 31
0.0
 0
LINE
 5
4FB
100
AcDbEntity
 8
Layer8
100
AcDbLine
 39
0.25
 370
106
 10
187.8189
 20
381.890493164062
 30
0.0
 11
182.8859
 21
379.476493164063
 31
0.0
 0
LINE
 5
4FC
100
AcDbEntity
 8
Layer8
100
AcDbLine
 39
0.25
 370
106
 10
182.8859
 20
379.476493164063
 30
0.0
 11
181.9399
 21
378.532493164062
 31
0.0
 0
LINE
 5
4FD
100
AcDbEntity
 8
Layer8
100
AcDbLine
 39
0.25
 370
106
 10
181.9399
 20
378.532493164062
 30
0.0
 11
181.8369
 21
378.216493164063
 31
0.0
 0
LINE
 5
4FE
100
AcDbEntity
 8
Layer8
100
AcDbLine
 39
0.25
 370
106
 10
185.0909
 20
302.958493164062
 30
0.0
 11
185.1949
 21
303.693493164062
 31
0.0
 0
LINE
 5
4FF
100
AcDbEntity
 8
Layer8
100
AcDbLine
 39
0.25
 370
106
 10
185.1949
 20
303.693493164062
 30
0.0
 11
185.6159
 21
304.218493164062
 31
0.0
 0
LINE
 5
500
100
AcDbEntity
 8
Layer8
100
AcDbLine
 39
0.25
 370
106
 10
185.6159
 20
304.218493164062
 30
0.0
 11
187.7149
 21
302.958493164062
 31
0.0
 0
LINE
 5
501
100
AcDbEntity
 8
Layer8
100
AcDbLine
 39
0.25
 370
106
 10
187.7149
 20
302.958493164062
 30
0.0
 11
188.3449
 21
302.434493164062
 31
0.0
 0
LINE
 5
502
100
AcDbEntity
 8
Layer8
100
AcDbLine
 39
0.25
 370
106
 10
188.3449
 20
302.434493164062
 30
0.0
 11
189.1839
 21
301.487493164062
 31
0.0
 0
LINE
 5
503
100
AcDbEntity
 8
Layer8
100
AcDbLine
 39
0.25
 370
106
 10
188.7629
 20
300.966493164063
 30
0.0
 11
189.0799
 21
301.279493164063
 31
0.0
 0
LINE
 5
504
100
AcDbEntity
 8
Layer8
100
AcDbLine
 39
0.25
 370
106
 10
189.0799
 20
301.279493164063
 30
0.0
 11
189.1839
 21
301.487493164062
 31
0.0
 0
LINE
 5
505
100
AcDbEntity
 8
Layer8
100
AcDbLine
 39
0.25
 370
106
 10
181.8369
 20
305.267493164063
 30
0.0
 11
181.8369
 21
302.747493164062
 31
0.0
 0
LINE
 5
506
100
AcDbEntity
 8
Layer8
100
AcDbLine
 39
0.25
 370
106
 10
181.8369
 20
300.333493164062
 30
0.0
 11
181.8369
 21
300.017493164063
 31
0.0
 0
LINE
 5
507
100
AcDbEntity
 8
Layer8
100
AcDbLine
 39
0.25
 370
106
 10
188.8689
 20
300.858493164063
 30
0.0
 11
188.7629
 21
300.966493164063
 31
0.0
 0
ARC
 5
508
100
AcDbEntity
 8
Layer8
100
AcDbCircle
 39
0.25
 370
106
 10
182.927259327367
 20
298.297055080462
 30
0.0
 40
2.0368580368538
100
AcDbArc
 50
63.6633592124287
 51
122.365232077479
 0
LINE
 5
509
100
AcDbEntity
 8
Layer8
100
AcDbLine
 39
0.25
 370
106
 10
188.8689
 20
300.858493164063
 30
0.0
 11
188.8689
 21
298.865493164063
 31
0.0
 0
LINE
 5
50A
100
AcDbEntity
 8
Layer8
100
AcDbLine
 39
0.25
 370
106
 10
188.8689
 20
298.865493164063
 30
0.0
 11
187.9239
 21
298.865493164063
 31
0.0
 0
LINE
 5
50B
100
AcDbEntity
 8
Layer8
100
AcDbLine
 39
0.25
 370
106
 10
187.9239
 20
298.865493164063
 30
0.0
 11
186.9799
 21
299.073493164062
 31
0.0
 0
LINE
 5
50C
100
AcDbEntity
 8
Layer8
100
AcDbLine
 39
0.25
 370
106
 10
186.9799
 20
299.073493164062
 30
0.0
 11
183.8309
 21
300.122493164062
 31
0.0
 0
LINE
 5
50D
100
AcDbEntity
 8
Layer8
100
AcDbLine
 39
0.25
 370
106
 10
181.8369
 20
305.267493164063
 30
0.0
 11
181.9399
 21
304.953493164062
 31
0.0
 0
LINE
 5
50E
100
AcDbEntity
 8
Layer8
100
AcDbLine
 39
0.25
 370
106
 10
181.9399
 20
304.953493164062
 30
0.0
 11
182.2559
 21
304.637493164063
 31
0.0
 0
LINE
 5
50F
100
AcDbEntity
 8
Layer8
100
AcDbLine
 39
0.25
 370
106
 10
182.2559
 20
304.637493164063
 30
0.0
 11
183.8309
 21
303.483493164063
 31
0.0
 0
LINE
 5
510
100
AcDbEntity
 8
Layer8
100
AcDbLine
 39
0.25
 370
106
 10
183.8309
 20
303.483493164063
 30
0.0
 11
187.6079
 21
301.804493164062
 31
0.0
 0
LINE
 5
511
100
AcDbEntity
 8
Layer8
100
AcDbLine
 39
0.25
 370
106
 10
187.6079
 20
301.804493164062
 30
0.0
 11
188.7629
 21
300.966493164063
 31
0.0
 0
LINE
 5
512
100
AcDbEntity
 8
Layer8
100
AcDbLine
 39
0.25
 370
106
 10
190.7579
 20
377.794493164062
 30
0.0
 11
190.7579
 21
305.686493164062
 31
0.0
 0
LINE
 5
513
100
AcDbEntity
 8
Layer8
100
AcDbLine
 39
0.25
 370
106
 10
190.4439
 20
305.478493164062
 30
0.0
 11
190.5489
 21
305.583493164062
 31
0.0
 0
LINE
 5
514
100
AcDbEntity
 8
Layer8
100
AcDbLine
 39
0.25
 370
106
 10
190.5489
 20
305.583493164062
 30
0.0
 11
190.6549
 21
305.583493164062
 31
0.0
 0
LINE
 5
515
100
AcDbEntity
 8
Layer8
100
AcDbLine
 39
0.25
 370
106
 10
190.6549
 20
305.583493164062
 30
0.0
 11
190.7579
 21
305.686493164062
 31
0.0
 0
LINE
 5
516
100
AcDbEntity
 8
Layer8
100
AcDbLine
 39
0.25
 370
106
 10
190.4439
 20
378.005493164063
 30
0.0
 11
190.5489
 21
378.005493164063
 31
0.0
 0
LINE
 5
517
100
AcDbEntity
 8
Layer8
100
AcDbLine
 39
0.25
 370
106
 10
190.5489
 20
378.005493164063
 30
0.0
 11
190.6549
 21
377.902493164062
 31
0.0
 0
LINE
 5
518
100
AcDbEntity
 8
Layer8
100
AcDbLine
 39
0.25
 370
106
 10
190.6549
 20
377.902493164062
 30
0.0
 11
190.7579
 21
377.902493164062
 31
0.0
 0
LINE
 5
519
100
AcDbEntity
 8
Layer8
100
AcDbLine
 39
0.25
 370
106
 10
190.7579
 20
377.902493164062
 30
0.0
 11
190.7579
 21
377.794493164062
 31
0.0
 0
LINE
 5
51A
100
AcDbEntity
 8
Layer8
100
AcDbLine
 39
0.25
 370
106
 10
190.4439
 20
378.005493164063
 30
0.0
 11
182.1519
 21
378.005493164063
 31
0.0
 0
LINE
 5
51B
100
AcDbEntity
 8
Layer8
100
AcDbLine
 39
0.25
 370
106
 10
190.4439
 20
378.005493164063
 30
0.0
 11
190.4439
 21
305.478493164062
 31
0.0
 0
LINE
 5
51C
100
AcDbEntity
 8
Layer8
100
AcDbLine
 39
0.25
 370
106
 10
182.1519
 20
305.583493164062
 30
0.0
 11
190.4439
 21
305.478493164062
 31
0.0
 0
LINE
 5
51D
100
AcDbEntity
 8
Layer8
100
AcDbLine
 39
0.25
 370
106
 10
181.8369
 20
377.902493164062
 30
0.0
 11
181.8369
 21
305.583493164062
 31
0.0
 0
LINE
 5
51E
100
AcDbEntity
 8
Layer8
100
AcDbLine
 39
0.25
 370
106
 10
181.8369
 20
305.583493164062
 30
0.0
 11
182.1519
 21
305.583493164062
 31
0.0
 0
LINE
 5
51F
100
AcDbEntity
 8
Layer8
100
AcDbLine
 39
0.25
 370
106
 10
181.8369
 20
377.902493164062
 30
0.0
 11
182.1519
 21
378.005493164063
 31
0.0
 0
LINE
 5
520
100
AcDbEntity
 8
Layer8
100
AcDbLine
 39
0.25
 370
106
 10
182.1519
 20
378.005493164063
 30
0.0
 11
182.1519
 21
305.583493164062
 31
0.0
 0
LINE
 5
521
100
AcDbEntity
 8
Layer8
100
AcDbLine
 39
0.25
 370
106
 10
173.6499
 20
307.051493164062
 30
0.0
 11
173.6499
 21
304.953493164062
 31
0.0
 0
LINE
 5
522
100
AcDbEntity
 8
Layer8
100
AcDbLine
 39
0.25
 370
106
 10
173.6499
 20
307.364493164062
 30
0.0
 11
173.7549
 21
307.470493164062
 31
0.0
 0
LINE
 5
523
100
AcDbEntity
 8
Layer8
100
AcDbLine
 39
0.25
 370
106
 10
173.7549
 20
307.470493164062
 30
0.0
 11
173.7549
 21
307.575493164062
 31
0.0
 0
LINE
 5
524
100
AcDbEntity
 8
Layer8
100
AcDbLine
 39
0.25
 370
106
 10
180.1579
 20
302.958493164062
 30
0.0
 11
180.2619
 21
302.958493164062
 31
0.0
 0
LINE
 5
525
100
AcDbEntity
 8
Layer8
100
AcDbLine
 39
0.25
 370
106
 10
180.2619
 20
302.958493164062
 30
0.0
 11
180.2619
 21
303.272493164063
 31
0.0
 0
LINE
 5
526
100
AcDbEntity
 8
Layer8
100
AcDbLine
 39
0.25
 370
106
 10
180.2619
 20
303.272493164063
 30
0.0
 11
180.3679
 21
303.377493164062
 31
0.0
 0
LINE
 5
527
100
AcDbEntity
 8
Layer8
100
AcDbLine
 39
0.25
 370
106
 10
180.3679
 20
303.377493164062
 30
0.0
 11
180.3679
 21
303.483493164063
 31
0.0
 0
LINE
 5
528
100
AcDbEntity
 8
Layer8
100
AcDbLine
 39
0.25
 370
106
 10
180.1579
 20
305.372493164062
 30
0.0
 11
180.1579
 21
303.272493164063
 31
0.0
 0
LINE
 5
529
100
AcDbEntity
 8
Layer8
100
AcDbLine
 39
0.25
 370
106
 10
180.3679
 20
305.583493164062
 30
0.0
 11
180.3679
 21
305.686493164062
 31
0.0
 0
LINE
 5
52A
100
AcDbEntity
 8
Layer8
100
AcDbLine
 39
0.25
 370
106
 10
180.3679
 20
305.686493164062
 30
0.0
 11
180.2619
 21
305.791493164063
 31
0.0
 0
LINE
 5
52B
100
AcDbEntity
 8
Layer8
100
AcDbLine
 39
0.25
 370
106
 10
180.2619
 20
305.791493164063
 30
0.0
 11
180.2619
 21
305.686493164062
 31
0.0
 0
LINE
 5
52C
100
AcDbEntity
 8
Layer8
100
AcDbLine
 39
0.25
 370
106
 10
180.2619
 20
305.686493164062
 30
0.0
 11
180.1579
 21
305.686493164062
 31
0.0
 0
LINE
 5
52D
100
AcDbEntity
 8
Layer8
100
AcDbLine
 39
0.25
 370
106
 10
180.3679
 20
305.583493164062
 30
0.0
 11
180.3679
 21
303.483493164063
 31
0.0
 0
LINE
 5
52E
100
AcDbEntity
 8
Layer8
100
AcDbLine
 39
0.25
 370
106
 10
180.1579
 20
303.272493164063
 30
0.0
 11
180.1579
 21
302.958493164062
 31
0.0
 0
LINE
 5
52F
100
AcDbEntity
 8
Layer8
100
AcDbLine
 39
0.25
 370
106
 10
175.4339
 20
299.809493164062
 30
0.0
 11
173.6499
 21
304.637493164063
 31
0.0
 0
LINE
 5
530
100
AcDbEntity
 8
Layer8
100
AcDbLine
 39
0.25
 370
106
 10
173.6499
 20
304.953493164062
 30
0.0
 11
173.6499
 21
304.637493164063
 31
0.0
 0
ARC
 5
531
100
AcDbEntity
 8
Layer8
100
AcDbCircle
 39
0.25
 370
106
 10
177.7434
 20
301.812012257133
 30
0.0
 40
3.32768343943821
100
AcDbArc
 50
-124.618739413836
 51
-55.3812605861566
 0
LINE
 5
532
100
AcDbEntity
 8
Layer8
100
AcDbLine
 39
0.25
 370
106
 10
180.1579
 20
300.122493164062
 30
0.0
 11
179.6339
 21
299.073493164062
 31
0.0
 0
LINE
 5
533
100
AcDbEntity
 8
Layer8
100
AcDbLine
 39
0.25
 370
106
 10
175.8529
 20
299.073493164062
 30
0.0
 11
175.4339
 21
299.809493164062
 31
0.0
 0
LINE
 5
534
100
AcDbEntity
 8
Layer8
100
AcDbLine
 39
0.25
 370
106
 10
175.4339
 20
300.122493164062
 30
0.0
 11
175.4339
 21
299.809493164062
 31
0.0
 0
LINE
 5
535
100
AcDbEntity
 8
Layer8
100
AcDbLine
 39
0.25
 370
106
 10
180.1579
 20
303.272493164063
 30
0.0
 11
180.1579
 21
302.958493164062
 31
0.0
 0
ARC
 5
536
100
AcDbEntity
 8
Layer8
100
AcDbCircle
 39
0.25
 370
106
 10
177.742400000003
 20
302.124007483871
 30
0.0
 40
3.32546551215427
100
AcDbArc
 50
-124.624183680968
 51
-71.6032681056018
 0
LINE
 5
537
100
AcDbEntity
 8
Layer8
100
AcDbLine
 39
0.25
 370
106
 10
180.0529
 20
300.017493164063
 30
0.0
 11
179.6339
 21
299.387493164063
 31
0.0
 0
LINE
 5
538
100
AcDbEntity
 8
Layer8
100
AcDbLine
 39
0.25
 370
106
 10
179.6339
 20
299.387493164063
 30
0.0
 11
178.7919
 21
298.968493164062
 31
0.0
 0
LINE
 5
539
100
AcDbEntity
 8
Layer8
100
AcDbLine
 39
0.25
 370
106
 10
175.8529
 20
299.387493164063
 30
0.0
 11
175.4339
 21
300.122493164062
 31
0.0
 0
LINE
 5
53A
100
AcDbEntity
 8
Layer8
100
AcDbLine
 39
0.25
 370
106
 10
175.4339
 20
300.122493164062
 30
0.0
 11
173.6499
 21
304.953493164062
 31
0.0
 0
LINE
 5
53B
100
AcDbEntity
 8
Layer8
100
AcDbLine
 39
0.25
 370
106
 10
173.6499
 20
304.953493164062
 30
0.0
 11
174.4889
 21
304.742493164062
 31
0.0
 0
LINE
 5
53C
100
AcDbEntity
 8
Layer8
100
AcDbLine
 39
0.25
 370
106
 10
180.1579
 20
302.539493164062
 30
0.0
 11
180.1579
 21
305.372493164062
 31
0.0
 0
LINE
 5
53D
100
AcDbEntity
 8
Layer8
100
AcDbLine
 39
0.25
 370
106
 10
180.1579
 20
305.686493164062
 30
0.0
 11
180.1579
 21
305.372493164062
 31
0.0
 0
LINE
 5
53E
100
AcDbEntity
 8
Layer8
100
AcDbLine
 39
0.25
 370
106
 10
173.6499
 20
307.051493164062
 30
0.0
 11
175.4339
 21
302.226493164063
 31
0.0
 0
LINE
 5
53F
100
AcDbEntity
 8
Layer8
100
AcDbLine
 39
0.25
 370
106
 10
173.6499
 20
307.364493164062
 30
0.0
 11
173.6499
 21
307.051493164062
 31
0.0
 0
LINE
 5
540
100
AcDbEntity
 8
Layer8
100
AcDbLine
 39
0.25
 370
106
 10
180.1579
 20
305.686493164062
 30
0.0
 11
173.6499
 21
307.364493164062
 31
0.0
 0
LINE
 5
541
100
AcDbEntity
 8
Layer8
100
AcDbLine
 39
0.25
 370
106
 10
180.1579
 20
305.686493164062
 30
0.0
 11
180.1579
 21
302.853493164062
 31
0.0
 0
LINE
 5
542
100
AcDbEntity
 8
Layer8
100
AcDbLine
 39
0.25
 370
106
 10
175.4339
 20
302.539493164062
 30
0.0
 11
173.6499
 21
307.364493164062
 31
0.0
 0
LINE
 5
543
100
AcDbEntity
 8
Layer8
100
AcDbLine
 39
0.25
 370
106
 10
175.4339
 20
302.226493164063
 30
0.0
 11
175.8529
 21
301.487493164062
 31
0.0
 0
LINE
 5
544
100
AcDbEntity
 8
Layer8
100
AcDbLine
 39
0.25
 370
106
 10
175.8529
 20
301.487493164062
 30
0.0
 11
176.6929
 21
301.068493164062
 31
0.0
 0
LINE
 5
545
100
AcDbEntity
 8
Layer8
100
AcDbLine
 39
0.25
 370
106
 10
176.6929
 20
301.068493164062
 30
0.0
 11
178.2679
 21
300.966493164063
 31
0.0
 0
LINE
 5
546
100
AcDbEntity
 8
Layer8
100
AcDbLine
 39
0.25
 370
106
 10
178.2679
 20
300.966493164063
 30
0.0
 11
178.7919
 21
301.068493164062
 31
0.0
 0
LINE
 5
547
100
AcDbEntity
 8
Layer8
100
AcDbLine
 39
0.25
 370
106
 10
178.7919
 20
301.068493164062
 30
0.0
 11
179.6339
 21
301.487493164062
 31
0.0
 0
LINE
 5
548
100
AcDbEntity
 8
Layer8
100
AcDbLine
 39
0.25
 370
106
 10
179.6339
 20
301.487493164062
 30
0.0
 11
180.1579
 21
302.539493164062
 31
0.0
 0
LINE
 5
549
100
AcDbEntity
 8
Layer8
100
AcDbLine
 39
0.25
 370
106
 10
175.4339
 20
302.539493164062
 30
0.0
 11
175.4339
 21
302.226493164063
 31
0.0
 0
LINE
 5
54A
100
AcDbEntity
 8
Layer8
100
AcDbLine
 39
0.25
 370
106
 10
180.1579
 20
302.853493164062
 30
0.0
 11
179.6339
 21
301.804493164062
 31
0.0
 0
LINE
 5
54B
100
AcDbEntity
 8
Layer8
100
AcDbLine
 39
0.25
 370
106
 10
179.6339
 20
301.804493164062
 30
0.0
 11
178.7919
 21
301.382493164063
 31
0.0
 0
LINE
 5
54C
100
AcDbEntity
 8
Layer8
100
AcDbLine
 39
0.25
 370
106
 10
178.7919
 20
301.382493164063
 30
0.0
 11
178.2679
 21
301.279493164063
 31
0.0
 0
LINE
 5
54D
100
AcDbEntity
 8
Layer8
100
AcDbLine
 39
0.25
 370
106
 10
178.2679
 20
301.279493164063
 30
0.0
 11
176.6929
 21
301.382493164063
 31
0.0
 0
LINE
 5
54E
100
AcDbEntity
 8
Layer8
100
AcDbLine
 39
0.25
 370
106
 10
176.6929
 20
301.382493164063
 30
0.0
 11
175.8529
 21
301.804493164062
 31
0.0
 0
LINE
 5
54F
100
AcDbEntity
 8
Layer8
100
AcDbLine
 39
0.25
 370
106
 10
175.8529
 20
301.804493164062
 30
0.0
 11
175.4339
 21
302.539493164062
 31
0.0
 0
LINE
 5
550
100
AcDbEntity
 8
Layer8
100
AcDbLine
 39
0.25
 370
106
 10
180.1579
 20
302.853493164062
 30
0.0
 11
180.1579
 21
302.539493164062
 31
0.0
 0
LINE
 5
551
100
AcDbEntity
 8
Layer8
100
AcDbLine
 39
0.25
 370
106
 10
173.6499
 20
378.532493164062
 30
0.0
 11
173.6499
 21
376.432493164062
 31
0.0
 0
LINE
 5
552
100
AcDbEntity
 8
Layer8
100
AcDbLine
 39
0.25
 370
106
 10
173.7549
 20
376.013493164062
 30
0.0
 11
173.7549
 21
376.115493164063
 31
0.0
 0
LINE
 5
553
100
AcDbEntity
 8
Layer8
100
AcDbLine
 39
0.25
 370
106
 10
173.7549
 20
376.115493164063
 30
0.0
 11
173.6499
 21
376.115493164063
 31
0.0
 0
LINE
 5
554
100
AcDbEntity
 8
Layer8
100
AcDbLine
 39
0.25
 370
106
 10
180.1579
 20
377.902493164062
 30
0.0
 11
180.2619
 21
377.794493164062
 31
0.0
 0
LINE
 5
555
100
AcDbEntity
 8
Layer8
100
AcDbLine
 39
0.25
 370
106
 10
180.2619
 20
377.794493164062
 30
0.0
 11
180.3679
 21
377.794493164062
 31
0.0
 0
LINE
 5
556
100
AcDbEntity
 8
Layer8
100
AcDbLine
 39
0.25
 370
106
 10
180.3679
 20
377.794493164062
 30
0.0
 11
180.3679
 21
377.902493164062
 31
0.0
 0
LINE
 5
557
100
AcDbEntity
 8
Layer8
100
AcDbLine
 39
0.25
 370
106
 10
180.1579
 20
380.316493164062
 30
0.0
 11
180.1579
 21
378.216493164063
 31
0.0
 0
LINE
 5
558
100
AcDbEntity
 8
Layer8
100
AcDbLine
 39
0.25
 370
106
 10
180.3679
 20
380.000493164063
 30
0.0
 11
180.3679
 21
380.105493164062
 31
0.0
 0
LINE
 5
559
100
AcDbEntity
 8
Layer8
100
AcDbLine
 39
0.25
 370
106
 10
180.3679
 20
380.105493164062
 30
0.0
 11
180.2619
 21
380.211493164063
 31
0.0
 0
LINE
 5
55A
100
AcDbEntity
 8
Layer8
100
AcDbLine
 39
0.25
 370
106
 10
180.2619
 20
380.211493164063
 30
0.0
 11
180.2619
 21
380.524493164063
 31
0.0
 0
LINE
 5
55B
100
AcDbEntity
 8
Layer8
100
AcDbLine
 39
0.25
 370
106
 10
180.2619
 20
380.524493164063
 30
0.0
 11
180.1579
 21
380.630493164063
 31
0.0
 0
LINE
 5
55C
100
AcDbEntity
 8
Layer8
100
AcDbLine
 39
0.25
 370
106
 10
180.3679
 20
380.000493164063
 30
0.0
 11
180.3679
 21
377.902493164062
 31
0.0
 0
LINE
 5
55D
100
AcDbEntity
 8
Layer8
100
AcDbLine
 39
0.25
 370
106
 10
180.1579
 20
380.630493164063
 30
0.0
 11
180.1579
 21
380.316493164062
 31
0.0
 0
LINE
 5
55E
100
AcDbEntity
 8
Layer8
100
AcDbLine
 39
0.25
 370
106
 10
175.4339
 20
383.779493164063
 30
0.0
 11
173.6499
 21
378.846493164063
 31
0.0
 0
LINE
 5
55F
100
AcDbEntity
 8
Layer8
100
AcDbLine
 39
0.25
 370
106
 10
173.6499
 20
378.846493164063
 30
0.0
 11
173.6499
 21
378.532493164062
 31
0.0
 0
LINE
 5
560
100
AcDbEntity
 8
Layer8
100
AcDbLine
 39
0.25
 370
106
 10
175.4339
 20
383.779493164063
 30
0.0
 11
175.4339
 21
383.466493164063
 31
0.0
 0
ARC
 5
561
100
AcDbEntity
 8
Layer8
100
AcDbCircle
 39
0.25
 370
106
 10
177.653129775148
 20
382.452362359322
 30
0.0
 40
2.65917059065429
100
AcDbArc
 50
76.6329336898035
 51
132.608814287408
 0
LINE
 5
562
100
AcDbEntity
 8
Layer8
100
AcDbLine
 39
0.25
 370
106
 10
180.1579
 20
383.358493164063
 30
0.0
 11
180.0529
 21
383.779493164063
 31
0.0
 0
LINE
 5
563
100
AcDbEntity
 8
Layer8
100
AcDbLine
 39
0.25
 370
106
 10
180.0529
 20
383.779493164063
 30
0.0
 11
179.6339
 21
384.409493164063
 31
0.0
 0
LINE
 5
564
100
AcDbEntity
 8
Layer8
100
AcDbLine
 39
0.25
 370
106
 10
179.6339
 20
384.409493164063
 30
0.0
 11
178.2679
 21
385.039493164062
 31
0.0
 0
LINE
 5
565
100
AcDbEntity
 8
Layer8
100
AcDbLine
 39
0.25
 370
106
 10
175.8529
 20
384.409493164063
 30
0.0
 11
175.4339
 21
383.779493164063
 31
0.0
 0
LINE
 5
566
100
AcDbEntity
 8
Layer8
100
AcDbLine
 39
0.25
 370
106
 10
180.1579
 20
380.524493164063
 30
0.0
 11
180.1579
 21
380.316493164062
 31
0.0
 0
ARC
 5
567
100
AcDbEntity
 8
Layer8
100
AcDbCircle
 39
0.25
 370
106
 10
177.660978808264
 20
382.118685388451
 30
0.0
 40
2.67750158310322
100
AcDbArc
 50
76.8986387494579
 51
132.476348430516
 0
LINE
 5
568
100
AcDbEntity
 8
Layer8
100
AcDbLine
 39
0.25
 370
106
 10
174.4889
 20
378.740493164063
 30
0.0
 11
173.6499
 21
378.532493164062
 31
0.0
 0
LINE
 5
569
100
AcDbEntity
 8
Layer8
100
AcDbLine
 39
0.25
 370
106
 10
173.6499
 20
378.532493164062
 30
0.0
 11
175.4339
 21
383.466493164063
 31
0.0
 0
LINE
 5
56A
100
AcDbEntity
 8
Layer8
100
AcDbLine
 39
0.25
 370
106
 10
175.4339
 20
383.466493164063
 30
0.0
 11
175.8529
 21
384.093493164062
 31
0.0
 0
LINE
 5
56B
100
AcDbEntity
 8
Layer8
100
AcDbLine
 39
0.25
 370
106
 10
178.2679
 20
384.726493164063
 30
0.0
 11
179.6339
 21
384.093493164062
 31
0.0
 0
LINE
 5
56C
100
AcDbEntity
 8
Layer8
100
AcDbLine
 39
0.25
 370
106
 10
179.6339
 20
384.093493164062
 30
0.0
 11
180.0529
 21
383.568493164062
 31
0.0
 0
LINE
 5
56D
100
AcDbEntity
 8
Layer8
100
AcDbLine
 39
0.25
 370
106
 10
180.1579
 20
378.216493164063
 30
0.0
 11
180.1579
 21
380.943493164062
 31
0.0
 0
LINE
 5
56E
100
AcDbEntity
 8
Layer8
100
AcDbLine
 39
0.25
 370
106
 10
180.1579
 20
378.216493164063
 30
0.0
 11
180.1579
 21
377.902493164062
 31
0.0
 0
LINE
 5
56F
100
AcDbEntity
 8
Layer8
100
AcDbLine
 39
0.25
 370
106
 10
175.4339
 20
381.365493164063
 30
0.0
 11
173.6499
 21
376.432493164062
 31
0.0
 0
LINE
 5
570
100
AcDbEntity
 8
Layer8
100
AcDbLine
 39
0.25
 370
106
 10
173.6499
 20
376.432493164062
 30
0.0
 11
173.6499
 21
376.115493164063
 31
0.0
 0
ARC
 5
571
100
AcDbEntity
 8
Layer8
100
AcDbCircle
 39
0.25
 370
106
 10
178.50119721659
 20
380.774793298566
 30
0.0
 40
1.66526987517812
100
AcDbArc
 50
5.81431277919721
 51
79.9464823177291
 0
ARC
 5
572
100
AcDbEntity
 8
Layer8
100
AcDbCircle
 39
0.25
 370
106
 10
177.742400000001
 20
379.258978844235
 30
0.0
 40
3.3254655121704
100
AcDbArc
 50
71.6032681056765
 51
124.624183680751
 0
LINE
 5
573
100
AcDbEntity
 8
Layer8
100
AcDbLine
 39
0.25
 370
106
 10
175.8529
 20
381.995493164063
 30
0.0
 11
175.4339
 21
381.365493164063
 31
0.0
 0
LINE
 5
574
100
AcDbEntity
 8
Layer8
100
AcDbLine
 39
0.25
 370
106
 10
180.1579
 20
380.943493164062
 30
0.0
 11
180.1579
 21
380.630493164063
 31
0.0
 0
LINE
 5
575
100
AcDbEntity
 8
Layer8
100
AcDbLine
 39
0.25
 370
106
 10
175.4339
 20
381.365493164063
 30
0.0
 11
175.4339
 21
381.049493164062
 31
0.0
 0
ARC
 5
576
100
AcDbEntity
 8
Layer8
100
AcDbCircle
 39
0.25
 370
106
 10
178.493071427063
 20
380.454247528008
 30
0.0
 40
1.67413162609589
100
AcDbArc
 50
6.04305989634399
 51
79.7177352004935
 0
ARC
 5
577
100
AcDbEntity
 8
Layer8
100
AcDbCircle
 39
0.25
 370
106
 10
177.742399999998
 20
378.965422074035
 30
0.0
 40
3.30702164064772
100
AcDbArc
 50
71.4969556257872
 51
124.845119675219
 0
LINE
 5
578
100
AcDbEntity
 8
Layer8
100
AcDbLine
 39
0.25
 370
106
 10
175.8529
 20
381.679493164062
 30
0.0
 11
175.4339
 21
381.049493164062
 31
0.0
 0
LINE
 5
579
100
AcDbEntity
 8
Layer8
100
AcDbLine
 39
0.25
 370
106
 10
180.1579
 20
377.902493164062
 30
0.0
 11
180.1579
 21
380.630493164063
 31
0.0
 0
LINE
 5
57A
100
AcDbEntity
 8
Layer8
100
AcDbLine
 39
0.25
 370
106
 10
173.6499
 20
376.115493164063
 30
0.0
 11
180.1579
 21
377.902493164062
 31
0.0
 0
LINE
 5
57B
100
AcDbEntity
 8
Layer8
100
AcDbLine
 39
0.25
 370
106
 10
175.4339
 20
381.049493164062
 30
0.0
 11
173.6499
 21
376.115493164063
 31
0.0
 0
LINE
 5
57C
100
AcDbEntity
 8
Layer8
100
AcDbLine
 39
0.25
 370
106
 10
180.0529
 20
383.466493164063
 30
0.0
 11
179.9479
 21
383.568493164062
 31
0.0
 0
LINE
 5
57D
100
AcDbEntity
 8
Layer8
100
AcDbLine
 39
0.25
 370
106
 10
195.5869
 20
382.833493164062
 30
0.0
 11
195.5869
 21
381.049493164062
 31
0.0
 0
LINE
 5
57E
100
AcDbEntity
 8
Layer8
100
AcDbLine
 39
0.25
 370
106
 10
195.2719
 20
380.841493164063
 30
0.0
 11
195.2719
 21
383.149493164063
 31
0.0
 0
LINE
 5
57F
100
AcDbEntity
 8
Layer8
100
AcDbLine
 39
0.25
 370
106
 10
179.9479
 20
381.995493164063
 30
0.0
 11
180.1579
 21
381.995493164063
 31
0.0
 0
LINE
 5
580
100
AcDbEntity
 8
Layer8
100
AcDbLine
 39
0.25
 370
106
 10
180.1579
 20
381.995493164063
 30
0.0
 11
180.2619
 21
382.101493164063
 31
0.0
 0
LINE
 5
581
100
AcDbEntity
 8
Layer8
100
AcDbLine
 39
0.25
 370
106
 10
180.2619
 20
382.101493164063
 30
0.0
 11
180.4729
 21
382.101493164063
 31
0.0
 0
LINE
 5
582
100
AcDbEntity
 8
Layer8
100
AcDbLine
 39
0.25
 370
106
 10
180.4729
 20
382.101493164063
 30
0.0
 11
180.5769
 21
382.203493164062
 31
0.0
 0
LINE
 5
583
100
AcDbEntity
 8
Layer8
100
AcDbLine
 39
0.25
 370
106
 10
180.5769
 20
382.203493164062
 30
0.0
 11
180.6819
 21
382.203493164062
 31
0.0
 0
LINE
 5
584
100
AcDbEntity
 8
Layer8
100
AcDbLine
 39
0.25
 370
106
 10
179.6339
 20
382.203493164062
 30
0.0
 11
179.9479
 21
381.995493164063
 31
0.0
 0
LINE
 5
585
100
AcDbEntity
 8
Layer8
100
AcDbLine
 39
0.25
 370
106
 10
179.9479
 20
383.568493164062
 30
0.0
 11
179.6339
 21
383.674493164062
 31
0.0
 0
ARC
 5
586
100
AcDbEntity
 8
Layer8
100
AcDbCircle
 39
0.25
 370
106
 10
180.57740000002
 20
383.886002733494
 30
0.0
 40
0.743886144421485
100
AcDbArc
 50
-134.836089746698
 51
-81.924464841957
 0
ARC
 5
587
100
AcDbEntity
 8
Layer8
100
AcDbCircle
 39
0.25
 370
106
 10
180.841919230745
 20
382.570473933388
 30
0.0
 40
0.600724082835636
100
AcDbArc
 50
105.44880544066
 51
142.099599039695
 0
ARC
 5
588
100
AcDbEntity
 8
Layer8
100
AcDbCircle
 39
0.25
 370
106
 10
181.554064626525
 20
383.010566116146
 30
0.0
 40
1.18829200356554
100
AcDbArc
 50
-176.571034697403
 51
-137.219824078199
 0
LINE
 5
589
100
AcDbEntity
 8
Layer8
100
AcDbLine
 39
0.25
 370
106
 10
179.9479
 20
383.568493164062
 30
0.0
 11
180.0529
 21
383.466493164063
 31
0.0
 0
LINE
 5
58A
100
AcDbEntity
 8
Layer8
100
AcDbLine
 39
0.25
 370
106
 10
180.0529
 20
383.466493164063
 30
0.0
 11
180.0529
 21
383.358493164063
 31
0.0
 0
LINE
 5
58B
100
AcDbEntity
 8
Layer8
100
AcDbLine
 39
0.25
 370
106
 10
179.6339
 20
382.203493164062
 30
0.0
 11
179.5279
 21
382.517493164063
 31
0.0
 0
LINE
 5
58C
100
AcDbEntity
 8
Layer8
100
AcDbLine
 39
0.25
 370
106
 10
179.5279
 20
382.517493164063
 30
0.0
 11
179.5279
 21
383.255493164063
 31
0.0
 0
LINE
 5
58D
100
AcDbEntity
 8
Layer8
100
AcDbLine
 39
0.25
 370
106
 10
179.5279
 20
383.255493164063
 30
0.0
 11
179.6339
 21
383.674493164062
 31
0.0
 0
LINE
 5
58E
100
AcDbEntity
 8
Layer8
100
AcDbLine
 39
0.25
 370
106
 10
179.9479
 20
300.017493164063
 30
0.0
 11
180.0529
 21
300.017493164063
 31
0.0
 0
LINE
 5
58F
100
AcDbEntity
 8
Layer8
100
AcDbLine
 39
0.25
 370
106
 10
195.5869
 20
302.434493164062
 30
0.0
 11
195.5869
 21
300.649493164063
 31
0.0
 0
LINE
 5
590
100
AcDbEntity
 8
Layer8
100
AcDbLine
 39
0.25
 370
106
 10
195.2719
 20
300.333493164062
 30
0.0
 11
195.2719
 21
302.747493164062
 31
0.0
 0
LINE
 5
591
100
AcDbEntity
 8
Layer8
100
AcDbLine
 39
0.25
 370
106
 10
179.9479
 20
300.017493164063
 30
0.0
 11
180.0529
 21
300.017493164063
 31
0.0
 0
LINE
 5
592
100
AcDbEntity
 8
Layer8
100
AcDbLine
 39
0.25
 370
106
 10
180.0529
 20
300.017493164063
 30
0.0
 11
180.0529
 21
300.122493164062
 31
0.0
 0
LINE
 5
593
100
AcDbEntity
 8
Layer8
100
AcDbLine
 39
0.25
 370
106
 10
180.0529
 20
300.122493164062
 30
0.0
 11
180.1579
 21
300.230493164062
 31
0.0
 0
LINE
 5
594
100
AcDbEntity
 8
Layer8
100
AcDbLine
 39
0.25
 370
106
 10
180.1579
 20
300.230493164062
 30
0.0
 11
180.2619
 21
300.230493164062
 31
0.0
 0
LINE
 5
595
100
AcDbEntity
 8
Layer8
100
AcDbLine
 39
0.25
 370
106
 10
180.2619
 20
300.230493164062
 30
0.0
 11
180.3679
 21
300.333493164062
 31
0.0
 0
LINE
 5
596
100
AcDbEntity
 8
Layer8
100
AcDbLine
 39
0.25
 370
106
 10
180.3679
 20
300.333493164062
 30
0.0
 11
180.6819
 21
300.333493164062
 31
0.0
 0
LINE
 5
597
100
AcDbEntity
 8
Layer8
100
AcDbLine
 39
0.25
 370
106
 10
179.6339
 20
299.809493164062
 30
0.0
 11
179.9479
 21
300.017493164063
 31
0.0
 0
LINE
 5
598
100
AcDbEntity
 8
Layer8
100
AcDbLine
 39
0.25
 370
106
 10
179.9479
 20
301.593493164062
 30
0.0
 11
179.6339
 21
301.279493164063
 31
0.0
 0
ARC
 5
599
100
AcDbEntity
 8
Layer8
100
AcDbCircle
 39
0.25
 370
106
 10
182.500472422259
 20
299.838896882103
 30
0.0
 40
2.32002657368337
100
AcDbArc
 50
141.615221302716
 51
156.809656791881
 0
ARC
 5
59A
100
AcDbEntity
 8
Layer8
100
AcDbCircle
 39
0.25
 370
106
 10
180.737626223546
 20
300.70241090677
 30
0.0
 40
0.373102818099004
100
AcDbArc
 50
172.285799900412
 51
-98.5897752552622
 0
LINE
 5
59B
100
AcDbEntity
 8
Layer8
100
AcDbLine
 39
0.25
 370
106
 10
179.9479
 20
301.593493164062
 30
0.0
 11
180.0529
 21
301.487493164062
 31
0.0
 0
LINE
 5
59C
100
AcDbEntity
 8
Layer8
100
AcDbLine
 39
0.25
 370
106
 10
180.0529
 20
301.487493164062
 30
0.0
 11
180.2619
 21
301.487493164062
 31
0.0
 0
LINE
 5
59D
100
AcDbEntity
 8
Layer8
100
AcDbLine
 39
0.25
 370
106
 10
180.2619
 20
301.487493164062
 30
0.0
 11
180.3679
 21
301.382493164063
 31
0.0
 0
LINE
 5
59E
100
AcDbEntity
 8
Layer8
100
AcDbLine
 39
0.25
 370
106
 10
180.3679
 20
301.382493164063
 30
0.0
 11
180.5769
 21
301.382493164063
 31
0.0
 0
LINE
 5
59F
100
AcDbEntity
 8
Layer8
100
AcDbLine
 39
0.25
 370
106
 10
180.5769
 20
301.382493164063
 30
0.0
 11
180.6819
 21
301.279493164063
 31
0.0
 0
LINE
 5
5A0
100
AcDbEntity
 8
Layer8
100
AcDbLine
 39
0.25
 370
106
 10
179.6339
 20
299.809493164062
 30
0.0
 11
179.5279
 21
299.914493164062
 31
0.0
 0
LINE
 5
5A1
100
AcDbEntity
 8
Layer8
100
AcDbLine
 39
0.25
 370
106
 10
179.5279
 20
299.914493164062
 30
0.0
 11
179.5279
 21
300.333493164062
 31
0.0
 0
LINE
 5
5A2
100
AcDbEntity
 8
Layer8
100
AcDbLine
 39
0.25
 370
106
 10
179.5279
 20
300.333493164062
 30
0.0
 11
179.5279
 21
300.544493164062
 31
0.0
 0
LINE
 5
5A3
100
AcDbEntity
 8
Layer8
100
AcDbLine
 39
0.25
 370
106
 10
179.5279
 20
300.544493164062
 30
0.0
 11
179.6339
 21
301.279493164063
 31
0.0
 0
LINE
 5
5A4
100
AcDbEntity
 8
Layer8
100
AcDbLine
 39
0.25
 370
106
 10
175.3309
 20
300.858493164063
 30
0.0
 11
175.3309
 21
300.752493164062
 31
0.0
 0
LINE
 5
5A5
100
AcDbEntity
 8
Layer8
100
AcDbLine
 39
0.25
 370
106
 10
176.7979
 20
379.789493164062
 30
0.0
 11
177.0089
 21
379.578493164062
 31
0.0
 0
LINE
 5
5A6
100
AcDbEntity
 8
Layer8
100
AcDbLine
 39
0.25
 370
106
 10
177.0089
 20
379.578493164062
 30
0.0
 11
177.7429
 21
379.370493164063
 31
0.0
 0
LINE
 5
5A7
100
AcDbEntity
 8
Layer8
100
AcDbLine
 39
0.25
 370
106
 10
177.7429
 20
379.370493164063
 30
0.0
 11
178.5839
 21
379.684493164062
 31
0.0
 0
LINE
 5
5A8
100
AcDbEntity
 8
Layer8
100
AcDbLine
 39
0.25
 370
106
 10
178.5839
 20
379.684493164062
 30
0.0
 11
178.8969
 21
380.316493164062
 31
0.0
 0
LINE
 5
5A9
100
AcDbEntity
 8
Layer8
100
AcDbLine
 39
0.25
 370
106
 10
176.7979
 20
379.789493164062
 30
0.0
 11
178.7919
 21
380.211493164063
 31
0.0
 0
LINE
 5
5AA
100
AcDbEntity
 8
Layer8
100
AcDbLine
 39
0.25
 370
106
 10
176.6929
 20
379.789493164062
 30
0.0
 11
176.7979
 21
379.789493164062
 31
0.0
 0
LINE
 5
5AB
100
AcDbEntity
 8
Layer8
100
AcDbLine
 39
0.25
 370
106
 10
176.6929
 20
380.000493164063
 30
0.0
 11
178.8969
 21
380.419493164062
 31
0.0
 0
LINE
 5
5AC
100
AcDbEntity
 8
Layer8
100
AcDbLine
 39
0.25
 370
106
 10
178.6869
 20
380.630493164063
 30
0.0
 11
176.5889
 21
380.211493164063
 31
0.0
 0
LINE
 5
5AD
100
AcDbEntity
 8
Layer8
100
AcDbLine
 39
0.25
 370
106
 10
176.5889
 20
380.211493164063
 30
0.0
 11
176.6929
 21
380.000493164063
 31
0.0
 0
LINE
 5
5AE
100
AcDbEntity
 8
Layer8
100
AcDbLine
 39
0.25
 370
106
 10
176.6929
 20
379.789493164062
 30
0.0
 11
176.6929
 21
380.000493164063
 31
0.0
 0
ARC
 5
5AF
100
AcDbEntity
 8
Layer8
100
AcDbCircle
 39
0.25
 370
106
 10
177.840468011172
 20
380.428339374552
 30
0.0
 40
1.0623361623572
100
AcDbArc
 50
-95.2696354333036
 51
-6.04348640920456
 0
LINE
 5
5B0
100
AcDbEntity
 8
Layer8
100
AcDbLine
 39
0.25
 370
106
 10
177.7429
 20
379.370493164063
 30
0.0
 11
177.0089
 21
379.578493164062
 31
0.0
 0
LINE
 5
5B1
100
AcDbEntity
 8
Layer8
100
AcDbLine
 39
0.25
 370
106
 10
177.0089
 20
379.578493164062
 30
0.0
 11
176.6929
 21
379.789493164062
 31
0.0
 0
LINE
 5
5B2
100
AcDbEntity
 8
Layer8
100
AcDbLine
 39
0.25
 370
106
 10
178.8969
 20
380.316493164062
 30
0.0
 11
178.8969
 21
380.733493164063
 31
0.0
 0
LINE
 5
5B3
100
AcDbEntity
 8
Layer8
100
AcDbLine
 39
0.25
 370
106
 10
178.8969
 20
380.733493164063
 30
0.0
 11
178.7919
 21
380.733493164063
 31
0.0
 0
LINE
 5
5B4
100
AcDbEntity
 8
Layer8
100
AcDbLine
 39
0.25
 370
106
 10
178.7919
 20
380.733493164063
 30
0.0
 11
178.7919
 21
380.841493164063
 31
0.0
 0
LINE
 5
5B5
100
AcDbEntity
 8
Layer8
100
AcDbLine
 39
0.25
 370
106
 10
178.7919
 20
380.733493164063
 30
0.0
 11
178.7919
 21
380.841493164063
 31
0.0
 0
ARC
 5
5B6
100
AcDbEntity
 8
Layer8
100
AcDbCircle
 39
0.25
 370
106
 10
177.80172850243
 20
379.831836159201
 30
0.0
 40
1.57808752728749
100
AcDbArc
 50
103.628154499371
 51
140.223252769474
 0
LINE
 5
5B7
100
AcDbEntity
 8
Layer8
100
AcDbLine
 39
0.25
 370
106
 10
176.5889
 20
380.841493164063
 30
0.0
 11
176.5889
 21
380.524493164063
 31
0.0
 0
ARC
 5
5B8
100
AcDbEntity
 8
Layer8
100
AcDbCircle
 39
0.25
 370
106
 10
178.094185651788
 20
380.50790742479
 30
0.0
 40
0.802885677773266
100
AcDbArc
 50
1.18368092435515
 51
69.6113559664876
 0
LINE
 5
5B9
100
AcDbEntity
 8
Layer8
100
AcDbLine
 39
0.25
 370
106
 10
178.3739
 20
381.260493164063
 30
0.0
 11
178.0579
 21
381.365493164063
 31
0.0
 0
LINE
 5
5BA
100
AcDbEntity
 8
Layer8
100
AcDbLine
 39
0.25
 370
106
 10
178.0579
 20
381.365493164063
 30
0.0
 11
177.4299
 21
381.365493164063
 31
0.0
 0
ARC
 5
5BB
100
AcDbEntity
 8
Layer8
100
AcDbCircle
 39
0.25
 370
106
 10
177.794900000001
 20
379.532972594452
 30
0.0
 40
1.56053152421119
100
AcDbArc
 50
50.2912818091048
 51
129.708718190937
 0
ARC
 5
5BC
100
AcDbEntity
 8
Layer8
100
AcDbCircle
 39
0.25
 370
106
 10
177.78031782409
 20
379.707884345597
 30
0.0
 40
1.29348300088895
100
AcDbArc
 50
45.5019899426627
 51
157.086362064923
 0
LINE
 5
5BD
100
AcDbEntity
 8
Layer8
100
AcDbLine
 39
0.25
 370
106
 10
176.5889
 20
380.211493164063
 30
0.0
 11
176.5889
 21
380.524493164063
 31
0.0
 0
LINE
 5
5BE
100
AcDbEntity
 8
Layer8
100
AcDbLine
 39
0.25
 370
106
 10
176.5889
 20
380.524493164063
 30
0.0
 11
176.7979
 21
380.733493164063
 31
0.0
 0
LINE
 5
5BF
100
AcDbEntity
 8
Layer8
100
AcDbLine
 39
0.25
 370
106
 10
178.7919
 20
380.733493164063
 30
0.0
 11
178.6869
 21
380.630493164063
 31
0.0
 0
LINE
 5
5C0
100
AcDbEntity
 8
Layer8
100
AcDbLine
 39
0.25
 370
106
 10
178.7919
 20
303.588493164062
 30
0.0
 11
178.3739
 21
304.007493164063
 31
0.0
 0
LINE
 5
5C1
100
AcDbEntity
 8
Layer8
100
AcDbLine
 39
0.25
 370
106
 10
178.3739
 20
304.007493164063
 30
0.0
 11
177.3229
 21
304.112493164062
 31
0.0
 0
LINE
 5
5C2
100
AcDbEntity
 8
Layer8
100
AcDbLine
 39
0.25
 370
106
 10
177.3229
 20
304.112493164062
 30
0.0
 11
176.7979
 21
303.796493164063
 31
0.0
 0
LINE
 5
5C3
100
AcDbEntity
 8
Layer8
100
AcDbLine
 39
0.25
 370
106
 10
176.7979
 20
303.796493164063
 30
0.0
 11
176.6929
 21
303.483493164063
 31
0.0
 0
LINE
 5
5C4
100
AcDbEntity
 8
Layer8
100
AcDbLine
 39
0.25
 370
106
 10
176.6929
 20
303.483493164063
 30
0.0
 11
176.5889
 21
303.483493164063
 31
0.0
 0
LINE
 5
5C5
100
AcDbEntity
 8
Layer8
100
AcDbLine
 39
0.25
 370
106
 10
178.7919
 20
303.588493164062
 30
0.0
 11
176.6929
 21
303.483493164063
 31
0.0
 0
LINE
 5
5C6
100
AcDbEntity
 8
Layer8
100
AcDbLine
 39
0.25
 370
106
 10
178.8969
 20
303.483493164063
 30
0.0
 11
178.7919
 21
303.588493164062
 31
0.0
 0
LINE
 5
5C7
100
AcDbEntity
 8
Layer8
100
AcDbLine
 39
0.25
 370
106
 10
178.8969
 20
303.377493164062
 30
0.0
 11
176.5889
 21
303.272493164063
 31
0.0
 0
LINE
 5
5C8
100
AcDbEntity
 8
Layer8
100
AcDbLine
 39
0.25
 370
106
 10
176.6929
 20
303.064493164062
 30
0.0
 11
178.7919
 21
303.169493164062
 31
0.0
 0
LINE
 5
5C9
100
AcDbEntity
 8
Layer8
100
AcDbLine
 39
0.25
 370
106
 10
176.5889
 20
303.272493164063
 30
0.0
 11
176.5889
 21
302.853493164062
 31
0.0
 0
LINE
 5
5CA
100
AcDbEntity
 8
Layer8
100
AcDbLine
 39
0.25
 370
106
 10
176.5889
 20
303.064493164062
 30
0.0
 11
176.5889
 21
302.853493164062
 31
0.0
 0
LINE
 5
5CB
100
AcDbEntity
 8
Layer8
100
AcDbLine
 39
0.25
 370
106
 10
178.8969
 20
303.064493164062
 30
0.0
 11
178.8969
 21
303.377493164062
 31
0.0
 0
LINE
 5
5CC
100
AcDbEntity
 8
Layer8
100
AcDbLine
 39
0.25
 370
106
 10
178.8969
 20
303.483493164063
 30
0.0
 11
178.8969
 21
303.377493164062
 31
0.0
 0
ARC
 5
5CD
100
AcDbEntity
 8
Layer8
100
AcDbCircle
 39
0.25
 370
106
 10
177.742899999999
 20
302.753980099937
 30
0.0
 40
1.36524917532732
100
AcDbArc
 50
32.2994518548118
 51
147.700548145145
 0
LINE
 5
5CE
100
AcDbEntity
 8
Layer8
100
AcDbLine
 39
0.25
 370
106
 10
176.5889
 20
303.483493164063
 30
0.0
 11
176.5889
 21
303.272493164063
 31
0.0
 0
ARC
 5
5CF
100
AcDbEntity
 8
Layer8
100
AcDbCircle
 39
0.25
 370
106
 10
177.481731063613
 20
303.010240710057
 30
0.0
 40
0.894329422901796
100
AcDbArc
 50
-176.682908079948
 51
-86.5916887374622
 0
ARC
 5
5D0
100
AcDbEntity
 8
Layer8
100
AcDbCircle
 39
0.25
 370
106
 10
177.864416177227
 20
303.192367714255
 30
0.0
 40
1.12424917598648
100
AcDbArc
 50
-107.04357300357
 51
-23.3101462508888
 0
LINE
 5
5D1
100
AcDbEntity
 8
Layer8
100
AcDbLine
 39
0.25
 370
106
 10
178.8969
 20
302.747493164062
 30
0.0
 11
178.8969
 21
302.958493164062
 31
0.0
 0
ARC
 5
5D2
100
AcDbEntity
 8
Layer8
100
AcDbCircle
 39
0.25
 370
106
 10
177.7429
 20
303.666410624387
 30
0.0
 40
1.3015454771321
100
AcDbArc
 50
-152.453803631959
 51
-71.1741175436674
 0
LINE
 5
5D3
100
AcDbEntity
 8
Layer8
100
AcDbLine
 39
0.25
 370
106
 10
178.7919
 20
303.169493164062
 30
0.0
 11
178.8969
 21
303.064493164062
 31
0.0
 0
LINE
 5
5D4
100
AcDbEntity
 8
Layer8
100
AcDbLine
 39
0.25
 370
106
 10
178.8969
 20
303.064493164062
 30
0.0
 11
178.1629
 21
302.434493164062
 31
0.0
 0
LINE
 5
5D5
100
AcDbEntity
 8
Layer8
100
AcDbLine
 39
0.25
 370
106
 10
176.5889
 20
303.064493164062
 30
0.0
 11
176.7979
 21
302.853493164062
 31
0.0
 0
LINE
 5
5D6
100
AcDbEntity
 8
Layer8
100
AcDbLine
 39
0.25
 370
106
 10
176.7979
 20
302.853493164062
 30
0.0
 11
177.7429
 21
302.539493164062
 31
0.0
 0
LINE
 5
5D7
100
AcDbEntity
 8
Layer8
100
AcDbLine
 39
0.25
 370
106
 10
177.7429
 20
302.539493164062
 30
0.0
 11
178.6869
 21
302.853493164062
 31
0.0
 0
LINE
 5
5D8
100
AcDbEntity
 8
Layer8
100
AcDbLine
 39
0.25
 370
106
 10
178.6869
 20
302.853493164062
 30
0.0
 11
178.7919
 21
303.169493164062
 31
0.0
 0
LINE
 5
5D9
100
AcDbEntity
 8
Layer8
100
AcDbLine
 39
0.25
 370
106
 10
85.3759
 20
343.262493164063
 30
0.0
 11
85.3759
 21
343.159493164063
 31
0.0
 0
LINE
 5
5DA
100
AcDbEntity
 8
Layer8
100
AcDbLine
 39
0.25
 370
106
 10
85.3759
 20
343.159493164063
 30
0.0
 11
85.1659
 21
342.948493164062
 31
0.0
 0
LINE
 5
5DB
100
AcDbEntity
 8
Layer8
100
AcDbLine
 39
0.25
 370
106
 10
85.1659
 20
342.948493164062
 30
0.0
 11
85.0609
 21
342.737493164062
 31
0.0
 0
LINE
 5
5DC
100
AcDbEntity
 8
Layer8
100
AcDbLine
 39
0.25
 370
106
 10
85.3759
 20
343.159493164063
 30
0.0
 11
85.5869
 21
343.159493164063
 31
0.0
 0
LINE
 5
5DD
100
AcDbEntity
 8
Layer8
100
AcDbLine
 39
0.25
 370
106
 10
85.3759
 20
341.689493164062
 30
0.0
 11
85.5869
 21
341.689493164062
 31
0.0
 0
LINE
 5
5DE
100
AcDbEntity
 8
Layer8
100
AcDbLine
 39
0.25
 370
106
 10
85.0609
 20
342.213493164062
 30
0.0
 11
85.1659
 21
342.108493164063
 31
0.0
 0
LINE
 5
5DF
100
AcDbEntity
 8
Layer8
100
AcDbLine
 39
0.25
 370
106
 10
85.1659
 20
342.108493164063
 30
0.0
 11
85.3759
 21
341.689493164062
 31
0.0
 0
LINE
 5
5E0
100
AcDbEntity
 8
Layer8
100
AcDbLine
 39
0.25
 370
106
 10
85.3759
 20
341.689493164062
 30
0.0
 11
85.3759
 21
340.323493164062
 31
0.0
 0
LINE
 5
5E1
100
AcDbEntity
 8
Layer8
100
AcDbLine
 39
0.25
 370
106
 10
85.5869
 20
339.904493164063
 30
0.0
 11
85.5869
 21
339.799493164062
 31
0.0
 0
LINE
 5
5E2
100
AcDbEntity
 8
Layer8
100
AcDbLine
 39
0.25
 370
106
 10
86.3209
 20
343.684493164062
 30
0.0
 11
86.3209
 21
343.789493164062
 31
0.0
 0
LINE
 5
5E3
100
AcDbEntity
 8
Layer8
100
AcDbLine
 39
0.25
 370
106
 10
86.3209
 20
343.789493164062
 30
0.0
 11
86.2159
 21
343.892493164063
 31
0.0
 0
LINE
 5
5E4
100
AcDbEntity
 8
Layer8
100
AcDbLine
 39
0.25
 370
106
 10
86.2159
 20
343.892493164063
 30
0.0
 11
86.0059
 21
343.892493164063
 31
0.0
 0
LINE
 5
5E5
100
AcDbEntity
 8
Layer8
100
AcDbLine
 39
0.25
 370
106
 10
85.5869
 20
343.684493164062
 30
0.0
 11
85.5869
 21
343.159493164063
 31
0.0
 0
LINE
 5
5E6
100
AcDbEntity
 8
Layer8
100
AcDbLine
 39
0.25
 370
106
 10
86.3209
 20
339.904493164063
 30
0.0
 11
86.3209
 21
339.693493164062
 31
0.0
 0
LINE
 5
5E7
100
AcDbEntity
 8
Layer8
100
AcDbLine
 39
0.25
 370
106
 10
85.5869
 20
341.164493164062
 30
0.0
 11
85.5869
 21
339.904493164063
 31
0.0
 0
LINE
 5
5E8
100
AcDbEntity
 8
Layer8
100
AcDbLine
 39
0.25
 370
106
 10
85.5869
 20
339.904493164063
 30
0.0
 11
85.5869
 21
340.112493164062
 31
0.0
 0
LINE
 5
5E9
100
AcDbEntity
 8
Layer8
100
AcDbLine
 39
0.25
 370
106
 10
85.5869
 20
340.112493164062
 30
0.0
 11
85.9029
 21
340.112493164062
 31
0.0
 0
LINE
 5
5EA
100
AcDbEntity
 8
Layer8
100
AcDbLine
 39
0.25
 370
106
 10
86.0059
 20
340.112493164062
 30
0.0
 11
86.2159
 21
340.112493164062
 31
0.0
 0
LINE
 5
5EB
100
AcDbEntity
 8
Layer8
100
AcDbLine
 39
0.25
 370
106
 10
86.2159
 20
340.112493164062
 30
0.0
 11
86.3209
 21
340.010493164063
 31
0.0
 0
LINE
 5
5EC
100
AcDbEntity
 8
Layer8
100
AcDbLine
 39
0.25
 370
106
 10
86.3209
 20
340.010493164063
 30
0.0
 11
86.3209
 21
339.904493164063
 31
0.0
 0
LINE
 5
5ED
100
AcDbEntity
 8
Layer8
100
AcDbLine
 39
0.25
 370
106
 10
85.5869
 20
343.054493164062
 30
0.0
 11
85.5869
 21
343.473493164062
 31
0.0
 0
LINE
 5
5EE
100
AcDbEntity
 8
Layer8
100
AcDbLine
 39
0.25
 370
106
 10
85.5869
 20
343.473493164062
 30
0.0
 11
85.6909
 21
343.789493164062
 31
0.0
 0
LINE
 5
5EF
100
AcDbEntity
 8
Layer8
100
AcDbLine
 39
0.25
 370
106
 10
85.6909
 20
343.789493164062
 30
0.0
 11
85.7959
 21
343.892493164063
 31
0.0
 0
LINE
 5
5F0
100
AcDbEntity
 8
Layer8
100
AcDbLine
 39
0.25
 370
106
 10
85.7959
 20
343.892493164063
 30
0.0
 11
85.9029
 21
343.892493164063
 31
0.0
 0
LINE
 5
5F1
100
AcDbEntity
 8
Layer8
100
AcDbLine
 39
0.25
 370
106
 10
86.0059
 20
343.892493164063
 30
0.0
 11
85.9029
 21
343.892493164063
 31
0.0
 0
LINE
 5
5F2
100
AcDbEntity
 8
Layer8
100
AcDbLine
 39
0.25
 370
106
 10
86.0059
 20
343.892493164063
 30
0.0
 11
86.1099
 21
343.892493164063
 31
0.0
 0
LINE
 5
5F3
100
AcDbEntity
 8
Layer8
100
AcDbLine
 39
0.25
 370
106
 10
86.1099
 20
343.892493164063
 30
0.0
 11
86.2159
 21
343.789493164062
 31
0.0
 0
LINE
 5
5F4
100
AcDbEntity
 8
Layer8
100
AcDbLine
 39
0.25
 370
106
 10
86.2159
 20
343.789493164062
 30
0.0
 11
86.3209
 21
343.578493164062
 31
0.0
 0
LINE
 5
5F5
100
AcDbEntity
 8
Layer8
100
AcDbLine
 39
0.25
 370
106
 10
86.3209
 20
343.578493164062
 30
0.0
 11
86.3209
 21
343.159493164063
 31
0.0
 0
LINE
 5
5F6
100
AcDbEntity
 8
Layer8
100
AcDbLine
 39
0.25
 370
106
 10
86.3209
 20
343.054493164062
 30
0.0
 11
86.3209
 21
342.737493164062
 31
0.0
 0
LINE
 5
5F7
100
AcDbEntity
 8
Layer8
100
AcDbLine
 39
0.25
 370
106
 10
86.3209
 20
342.737493164062
 30
0.0
 11
86.2159
 21
342.424493164062
 31
0.0
 0
LINE
 5
5F8
100
AcDbEntity
 8
Layer8
100
AcDbLine
 39
0.25
 370
106
 10
86.2159
 20
342.424493164062
 30
0.0
 11
86.2159
 21
342.318493164062
 31
0.0
 0
LINE
 5
5F9
100
AcDbEntity
 8
Layer8
100
AcDbLine
 39
0.25
 370
106
 10
86.2159
 20
342.318493164062
 30
0.0
 11
86.0059
 21
342.318493164062
 31
0.0
 0
LINE
 5
5FA
100
AcDbEntity
 8
Layer8
100
AcDbLine
 39
0.25
 370
106
 10
85.9029
 20
342.318493164062
 30
0.0
 11
85.7959
 21
342.318493164062
 31
0.0
 0
LINE
 5
5FB
100
AcDbEntity
 8
Layer8
100
AcDbLine
 39
0.25
 370
106
 10
85.7959
 20
342.318493164062
 30
0.0
 11
85.6909
 21
342.424493164062
 31
0.0
 0
LINE
 5
5FC
100
AcDbEntity
 8
Layer8
100
AcDbLine
 39
0.25
 370
106
 10
85.6909
 20
342.424493164062
 30
0.0
 11
85.5869
 21
342.632493164063
 31
0.0
 0
LINE
 5
5FD
100
AcDbEntity
 8
Layer8
100
AcDbLine
 39
0.25
 370
106
 10
85.5869
 20
342.632493164063
 30
0.0
 11
85.5869
 21
343.054493164062
 31
0.0
 0
LINE
 5
5FE
100
AcDbEntity
 8
Layer8
100
AcDbLine
 39
0.25
 370
106
 10
85.5869
 20
343.054493164062
 30
0.0
 11
85.5869
 21
341.270493164062
 31
0.0
 0
LINE
 5
5FF
100
AcDbEntity
 8
Layer8
100
AcDbLine
 39
0.25
 370
106
 10
86.3209
 20
341.164493164062
 30
0.0
 11
86.2159
 21
340.221493164063
 31
0.0
 0
LINE
 5
600
100
AcDbEntity
 8
Layer8
100
AcDbLine
 39
0.25
 370
106
 10
86.2159
 20
340.221493164063
 30
0.0
 11
85.9029
 21
340.112493164062
 31
0.0
 0
LINE
 5
601
100
AcDbEntity
 8
Layer8
100
AcDbLine
 39
0.25
 370
106
 10
85.9029
 20
340.112493164062
 30
0.0
 11
85.6909
 21
340.221493164063
 31
0.0
 0
LINE
 5
602
100
AcDbEntity
 8
Layer8
100
AcDbLine
 39
0.25
 370
106
 10
85.6909
 20
340.221493164063
 30
0.0
 11
85.5869
 21
341.689493164062
 31
0.0
 0
LINE
 5
603
100
AcDbEntity
 8
Layer8
100
AcDbLine
 39
0.25
 370
106
 10
85.5869
 20
341.689493164062
 30
0.0
 11
85.6909
 21
342.213493164062
 31
0.0
 0
LINE
 5
604
100
AcDbEntity
 8
Layer8
100
AcDbLine
 39
0.25
 370
106
 10
85.6909
 20
342.213493164062
 30
0.0
 11
85.9029
 21
342.318493164062
 31
0.0
 0
LINE
 5
605
100
AcDbEntity
 8
Layer8
100
AcDbLine
 39
0.25
 370
106
 10
86.0059
 20
342.318493164062
 30
0.0
 11
85.9029
 21
342.318493164062
 31
0.0
 0
LINE
 5
606
100
AcDbEntity
 8
Layer8
100
AcDbLine
 39
0.25
 370
106
 10
86.0059
 20
342.318493164062
 30
0.0
 11
86.1099
 21
342.318493164062
 31
0.0
 0
LINE
 5
607
100
AcDbEntity
 8
Layer8
100
AcDbLine
 39
0.25
 370
106
 10
86.1099
 20
342.318493164062
 30
0.0
 11
86.1099
 21
342.213493164062
 31
0.0
 0
LINE
 5
608
100
AcDbEntity
 8
Layer8
100
AcDbLine
 39
0.25
 370
106
 10
86.1099
 20
342.213493164062
 30
0.0
 11
86.2159
 21
342.213493164062
 31
0.0
 0
LINE
 5
609
100
AcDbEntity
 8
Layer8
100
AcDbLine
 39
0.25
 370
106
 10
86.2159
 20
342.213493164062
 30
0.0
 11
86.2159
 21
342.108493164063
 31
0.0
 0
LINE
 5
60A
100
AcDbEntity
 8
Layer8
100
AcDbLine
 39
0.25
 370
106
 10
86.2159
 20
342.108493164063
 30
0.0
 11
86.3209
 21
341.794493164062
 31
0.0
 0
LINE
 5
60B
100
AcDbEntity
 8
Layer8
100
AcDbLine
 39
0.25
 370
106
 10
86.3209
 20
341.794493164062
 30
0.0
 11
86.3209
 21
341.270493164062
 31
0.0
 0
LINE
 5
60C
100
AcDbEntity
 8
Layer8
100
AcDbLine
 39
0.25
 370
106
 10
86.6349
 20
339.064493164062
 30
0.0
 11
86.3209
 21
339.064493164062
 31
0.0
 0
LINE
 5
60D
100
AcDbEntity
 8
Layer8
100
AcDbLine
 39
0.25
 370
106
 10
86.3209
 20
344.419493164062
 30
0.0
 11
86.3209
 21
344.208493164062
 31
0.0
 0
LINE
 5
60E
100
AcDbEntity
 8
Layer8
100
AcDbLine
 39
0.25
 370
106
 10
86.6349
 20
344.314493164062
 30
0.0
 11
86.3209
 21
344.314493164062
 31
0.0
 0
LINE
 5
60F
100
AcDbEntity
 8
Layer8
100
AcDbLine
 39
0.25
 370
106
 10
86.3209
 20
339.485493164062
 30
0.0
 11
86.3209
 21
339.064493164062
 31
0.0
 0
LINE
 5
610
100
AcDbEntity
 8
Layer8
100
AcDbLine
 39
0.25
 370
106
 10
86.6349
 20
339.064493164062
 30
0.0
 11
86.3209
 21
339.064493164062
 31
0.0
 0
LINE
 5
611
100
AcDbEntity
 8
Layer8
100
AcDbLine
 39
0.25
 370
106
 10
86.6349
 20
339.380493164063
 30
0.0
 11
86.3209
 21
339.380493164063
 31
0.0
 0
LINE
 5
612
100
AcDbEntity
 8
Layer8
100
AcDbLine
 39
0.25
 370
106
 10
86.3209
 20
344.208493164062
 30
0.0
 11
86.3209
 21
343.578493164062
 31
0.0
 0
LINE
 5
613
100
AcDbEntity
 8
Layer8
100
AcDbLine
 39
0.25
 370
106
 10
86.6349
 20
344.208493164062
 30
0.0
 11
86.3209
 21
344.208493164062
 31
0.0
 0
LINE
 5
614
100
AcDbEntity
 8
Layer8
100
AcDbLine
 39
0.25
 370
106
 10
86.6349
 20
343.578493164062
 30
0.0
 11
86.3209
 21
343.578493164062
 31
0.0
 0
LINE
 5
615
100
AcDbEntity
 8
Layer8
100
AcDbLine
 39
0.25
 370
106
 10
86.3209
 20
340.323493164062
 30
0.0
 11
86.3209
 21
339.485493164062
 31
0.0
 0
LINE
 5
616
100
AcDbEntity
 8
Layer8
100
AcDbLine
 39
0.25
 370
106
 10
86.6349
 20
339.485493164062
 30
0.0
 11
86.3209
 21
339.485493164062
 31
0.0
 0
LINE
 5
617
100
AcDbEntity
 8
Layer8
100
AcDbLine
 39
0.25
 370
106
 10
86.6349
 20
340.221493164063
 30
0.0
 11
86.3209
 21
340.221493164063
 31
0.0
 0
LINE
 5
618
100
AcDbEntity
 8
Layer8
100
AcDbLine
 39
0.25
 370
106
 10
86.3209
 20
343.578493164062
 30
0.0
 11
86.3209
 21
342.632493164063
 31
0.0
 0
LINE
 5
619
100
AcDbEntity
 8
Layer8
100
AcDbLine
 39
0.25
 370
106
 10
86.6349
 20
343.578493164062
 30
0.0
 11
86.3209
 21
343.578493164062
 31
0.0
 0
LINE
 5
61A
100
AcDbEntity
 8
Layer8
100
AcDbLine
 39
0.25
 370
106
 10
86.3209
 20
342.632493164063
 30
0.0
 11
86.3209
 21
342.529493164063
 31
0.0
 0
LINE
 5
61B
100
AcDbEntity
 8
Layer8
100
AcDbLine
 39
0.25
 370
106
 10
86.6349
 20
342.632493164063
 30
0.0
 11
86.3209
 21
342.632493164063
 31
0.0
 0
LINE
 5
61C
100
AcDbEntity
 8
Layer8
100
AcDbLine
 39
0.25
 370
106
 10
86.3209
 20
341.372493164062
 30
0.0
 11
86.3209
 21
340.323493164062
 31
0.0
 0
LINE
 5
61D
100
AcDbEntity
 8
Layer8
100
AcDbLine
 39
0.25
 370
106
 10
86.6349
 20
340.323493164062
 30
0.0
 11
86.3209
 21
340.323493164062
 31
0.0
 0
LINE
 5
61E
100
AcDbEntity
 8
Layer8
100
AcDbLine
 39
0.25
 370
106
 10
86.6349
 20
341.270493164062
 30
0.0
 11
86.3209
 21
341.270493164062
 31
0.0
 0
LINE
 5
61F
100
AcDbEntity
 8
Layer8
100
AcDbLine
 39
0.25
 370
106
 10
86.3209
 20
342.529493164063
 30
0.0
 11
86.3209
 21
341.372493164062
 31
0.0
 0
LINE
 5
620
100
AcDbEntity
 8
Layer8
100
AcDbLine
 39
0.25
 370
106
 10
86.6349
 20
341.372493164062
 30
0.0
 11
86.3209
 21
341.372493164062
 31
0.0
 0
LINE
 5
621
100
AcDbEntity
 8
Layer8
100
AcDbLine
 39
0.25
 370
106
 10
86.6349
 20
342.529493164063
 30
0.0
 11
86.3209
 21
342.529493164063
 31
0.0
 0
LINE
 5
622
100
AcDbEntity
 8
Layer8
100
AcDbLine
 39
0.25
 370
106
 10
196.5319
 20
300.858493164063
 30
0.0
 11
195.5869
 21
300.858493164063
 31
0.0
 0
LINE
 5
623
100
AcDbEntity
 8
Layer8
100
AcDbLine
 39
0.25
 370
106
 10
195.5869
 20
302.117493164062
 30
0.0
 11
196.5319
 21
302.117493164062
 31
0.0
 0
LINE
 5
624
100
AcDbEntity
 8
Layer8
100
AcDbLine
 39
0.25
 370
106
 10
196.5319
 20
302.117493164062
 30
0.0
 11
196.5319
 21
302.012493164063
 31
0.0
 0
LINE
 5
625
100
AcDbEntity
 8
Layer8
100
AcDbLine
 39
0.25
 370
106
 10
196.5319
 20
302.012493164063
 30
0.0
 11
195.5869
 21
302.012493164063
 31
0.0
 0
ARC
 5
626
100
AcDbEntity
 8
Layer8
100
AcDbCircle
 39
0.25
 370
106
 10
194.993164184865
 20
378.697606265982
 30
0.0
 40
1.53933336051929
100
AcDbArc
 50
1.5965068534029
 51
79.5675793663626
 0
LINE
 5
627
100
AcDbEntity
 8
Layer8
100
AcDbLine
 39
0.25
 370
106
 10
195.2719
 20
379.578493164062
 30
0.0
 11
195.2719
 21
380.211493164063
 31
0.0
 0
LINE
 5
628
100
AcDbEntity
 8
Layer8
100
AcDbLine
 39
0.25
 370
106
 10
195.2719
 20
380.211493164063
 30
0.0
 11
193.1709
 21
380.841493164063
 31
0.0
 0
LINE
 5
629
100
AcDbEntity
 8
Layer8
100
AcDbLine
 39
0.25
 370
106
 10
195.2719
 20
379.578493164062
 30
0.0
 11
192.9639
 21
380.211493164063
 31
0.0
 0
LINE
 5
62A
100
AcDbEntity
 8
Layer8
100
AcDbLine
 39
0.25
 370
106
 10
195.2719
 20
379.578493164062
 30
0.0
 11
196.0059
 21
379.159493164063
 31
0.0
 0
LINE
 5
62B
100
AcDbEntity
 8
Layer8
100
AcDbLine
 39
0.25
 370
106
 10
196.0059
 20
379.159493164063
 30
0.0
 11
196.3209
 21
378.846493164063
 31
0.0
 0
LINE
 5
62C
100
AcDbEntity
 8
Layer8
100
AcDbLine
 39
0.25
 370
106
 10
196.3209
 20
378.846493164063
 30
0.0
 11
196.5319
 21
377.794493164062
 31
0.0
 0
LINE
 5
62D
100
AcDbEntity
 8
Layer8
100
AcDbLine
 39
0.25
 370
106
 10
196.5319
 20
377.794493164062
 30
0.0
 11
196.3209
 21
377.375493164063
 31
0.0
 0
LINE
 5
62E
100
AcDbEntity
 8
Layer8
100
AcDbLine
 39
0.25
 370
106
 10
196.3209
 20
377.375493164063
 30
0.0
 11
195.7959
 21
376.854493164062
 31
0.0
 0
LINE
 5
62F
100
AcDbEntity
 8
Layer8
100
AcDbLine
 39
0.25
 370
106
 10
195.7959
 20
376.854493164062
 30
0.0
 11
194.5359
 21
376.640493164062
 31
0.0
 0
LINE
 5
630
100
AcDbEntity
 8
Layer8
100
AcDbLine
 39
0.25
 370
106
 10
194.5359
 20
376.640493164062
 30
0.0
 11
193.6979
 21
376.854493164062
 31
0.0
 0
LINE
 5
631
100
AcDbEntity
 8
Layer8
100
AcDbLine
 39
0.25
 370
106
 10
193.6979
 20
376.854493164062
 30
0.0
 11
190.6549
 21
379.895493164062
 31
0.0
 0
LINE
 5
632
100
AcDbEntity
 8
Layer8
100
AcDbLine
 39
0.25
 370
106
 10
190.5489
 20
382.203493164062
 30
0.0
 11
190.5489
 21
384.093493164062
 31
0.0
 0
LINE
 5
633
100
AcDbEntity
 8
Layer8
100
AcDbLine
 39
0.25
 370
106
 10
192.9639
 20
380.211493164063
 30
0.0
 11
192.9639
 21
383.149493164063
 31
0.0
 0
LINE
 5
634
100
AcDbEntity
 8
Layer8
100
AcDbLine
 39
0.25
 370
106
 10
190.5489
 20
383.987493164062
 30
0.0
 11
190.6549
 21
383.885493164063
 31
0.0
 0
LINE
 5
635
100
AcDbEntity
 8
Layer8
100
AcDbLine
 39
0.25
 370
106
 10
190.6549
 20
383.885493164063
 30
0.0
 11
190.6549
 21
383.674493164062
 31
0.0
 0
LINE
 5
636
100
AcDbEntity
 8
Layer8
100
AcDbLine
 39
0.25
 370
106
 10
190.6549
 20
383.674493164062
 30
0.0
 11
190.5489
 21
383.358493164063
 31
0.0
 0
LINE
 5
637
100
AcDbEntity
 8
Layer8
100
AcDbLine
 39
0.25
 370
106
 10
193.3809
 20
386.823493164062
 30
0.0
 11
190.5489
 21
383.987493164062
 31
0.0
 0
ARC
 5
638
100
AcDbEntity
 8
Layer8
100
AcDbCircle
 39
0.25
 370
106
 10
194.834405752586
 20
385.088442551056
 30
0.0
 40
2.26342209993485
100
AcDbArc
 50
64.8622038924686
 51
129.953953425742
 0
LINE
 5
639
100
AcDbEntity
 8
Layer8
100
AcDbLine
 39
0.25
 370
106
 10
193.3809
 20
386.193493164062
 30
0.0
 11
193.3809
 21
386.823493164062
 31
0.0
 0
LINE
 5
63A
100
AcDbEntity
 8
Layer8
100
AcDbLine
 39
0.25
 370
106
 10
195.7959
 20
387.137493164063
 30
0.0
 11
196.5319
 21
386.193493164062
 31
0.0
 0
LINE
 5
63B
100
AcDbEntity
 8
Layer8
100
AcDbLine
 39
0.25
 370
106
 10
196.5319
 20
386.193493164062
 30
0.0
 11
196.5319
 21
385.877493164062
 31
0.0
 0
LINE
 5
63C
100
AcDbEntity
 8
Layer8
100
AcDbLine
 39
0.25
 370
106
 10
192.9639
 20
383.149493164063
 30
0.0
 11
190.5489
 21
383.358493164063
 31
0.0
 0
LINE
 5
63D
100
AcDbEntity
 8
Layer8
100
AcDbLine
 39
0.25
 370
106
 10
193.3809
 20
386.193493164062
 30
0.0
 11
190.5489
 21
383.358493164063
 31
0.0
 0
ARC
 5
63E
100
AcDbEntity
 8
Layer8
100
AcDbCircle
 39
0.25
 370
106
 10
194.855493996923
 20
385.353570318672
 30
0.0
 40
1.68962289694168
100
AcDbArc
 50
-60.3285843968584
 51
7.17118534012304
 0
LINE
 5
63F
100
AcDbEntity
 8
Layer8
100
AcDbLine
 39
0.25
 370
106
 10
193.3809
 20
386.193493164062
 30
0.0
 11
194.1179
 21
386.612493164062
 31
0.0
 0
LINE
 5
640
100
AcDbEntity
 8
Layer8
100
AcDbLine
 39
0.25
 370
106
 10
194.1179
 20
386.612493164062
 30
0.0
 11
194.5359
 21
386.718493164062
 31
0.0
 0
LINE
 5
641
100
AcDbEntity
 8
Layer8
100
AcDbLine
 39
0.25
 370
106
 10
194.5359
 20
386.718493164062
 30
0.0
 11
195.7959
 21
386.507493164063
 31
0.0
 0
LINE
 5
642
100
AcDbEntity
 8
Layer8
100
AcDbLine
 39
0.25
 370
106
 10
195.7959
 20
386.507493164063
 30
0.0
 11
196.5319
 21
385.564493164062
 31
0.0
 0
LINE
 5
643
100
AcDbEntity
 8
Layer8
100
AcDbLine
 39
0.25
 370
106
 10
195.6919
 20
383.885493164063
 30
0.0
 11
192.9639
 21
383.149493164063
 31
0.0
 0
ARC
 5
644
100
AcDbEntity
 8
Layer8
100
AcDbCircle
 39
0.25
 370
106
 10
194.714607142859
 20
305.63499316407
 30
0.0
 40
1.81802243623319
100
AcDbArc
 50
-72.1492858365012
 51
1.62326237692649
 0
LINE
 5
645
100
AcDbEntity
 8
Layer8
100
AcDbLine
 39
0.25
 370
106
 10
195.2719
 20
303.904493164063
 30
0.0
 11
195.2719
 21
304.007493164063
 31
0.0
 0
LINE
 5
646
100
AcDbEntity
 8
Layer8
100
AcDbLine
 39
0.25
 370
106
 10
195.2719
 20
303.904493164063
 30
0.0
 11
192.9639
 21
303.169493164062
 31
0.0
 0
LINE
 5
647
100
AcDbEntity
 8
Layer8
100
AcDbLine
 39
0.25
 370
106
 10
193.3809
 20
306.843493164062
 30
0.0
 11
190.7579
 21
303.796493164063
 31
0.0
 0
LINE
 5
648
100
AcDbEntity
 8
Layer8
100
AcDbLine
 39
0.25
 370
106
 10
195.2719
 20
304.007493164063
 30
0.0
 11
195.6919
 21
304.218493164062
 31
0.0
 0
LINE
 5
649
100
AcDbEntity
 8
Layer8
100
AcDbLine
 39
0.25
 370
106
 10
195.6919
 20
304.218493164062
 30
0.0
 11
196.3209
 21
304.848493164062
 31
0.0
 0
LINE
 5
64A
100
AcDbEntity
 8
Layer8
100
AcDbLine
 39
0.25
 370
106
 10
196.3209
 20
304.848493164062
 30
0.0
 11
196.5319
 21
306.108493164063
 31
0.0
 0
LINE
 5
64B
100
AcDbEntity
 8
Layer8
100
AcDbLine
 39
0.25
 370
106
 10
196.5319
 20
306.108493164063
 30
0.0
 11
196.1119
 21
306.945493164063
 31
0.0
 0
LINE
 5
64C
100
AcDbEntity
 8
Layer8
100
AcDbLine
 39
0.25
 370
106
 10
196.1119
 20
306.945493164063
 30
0.0
 11
195.7959
 21
307.262493164063
 31
0.0
 0
LINE
 5
64D
100
AcDbEntity
 8
Layer8
100
AcDbLine
 39
0.25
 370
106
 10
195.7959
 20
307.262493164063
 30
0.0
 11
194.5359
 21
307.470493164062
 31
0.0
 0
LINE
 5
64E
100
AcDbEntity
 8
Layer8
100
AcDbLine
 39
0.25
 370
106
 10
194.5359
 20
307.470493164062
 30
0.0
 11
193.6979
 21
307.156493164063
 31
0.0
 0
LINE
 5
64F
100
AcDbEntity
 8
Layer8
100
AcDbLine
 39
0.25
 370
106
 10
193.6979
 20
307.156493164063
 30
0.0
 11
193.3809
 21
306.843493164062
 31
0.0
 0
LINE
 5
650
100
AcDbEntity
 8
Layer8
100
AcDbLine
 39
0.25
 370
106
 10
195.2719
 20
304.007493164063
 30
0.0
 11
192.9639
 21
303.272493164063
 31
0.0
 0
LINE
 5
651
100
AcDbEntity
 8
Layer8
100
AcDbLine
 39
0.25
 370
106
 10
193.3809
 20
296.240493164063
 30
0.0
 11
190.6549
 21
299.495493164063
 31
0.0
 0
ARC
 5
652
100
AcDbEntity
 8
Layer8
100
AcDbCircle
 39
0.25
 370
106
 10
194.799969593378
 20
297.58131277851
 30
0.0
 40
1.95232060618565
100
AcDbArc
 50
-136.624048078735
 51
-47.7795367984722
 0
LINE
 5
653
100
AcDbEntity
 8
Layer8
100
AcDbLine
 39
0.25
 370
106
 10
196.1119
 20
296.135493164063
 30
0.0
 11
196.5319
 21
296.976493164063
 31
0.0
 0
LINE
 5
654
100
AcDbEntity
 8
Layer8
100
AcDbLine
 39
0.25
 370
106
 10
196.5319
 20
296.976493164063
 30
0.0
 11
196.5319
 21
297.395493164062
 31
0.0
 0
LINE
 5
655
100
AcDbEntity
 8
Layer8
100
AcDbLine
 39
0.25
 370
106
 10
193.3809
 20
296.240493164063
 30
0.0
 11
190.6549
 21
299.495493164063
 31
0.0
 0
LINE
 5
656
100
AcDbEntity
 8
Layer8
100
AcDbLine
 39
0.25
 370
106
 10
195.2719
 20
299.179493164062
 30
0.0
 11
192.9639
 21
299.914493164062
 31
0.0
 0
ARC
 5
657
100
AcDbEntity
 8
Layer8
100
AcDbCircle
 39
0.25
 370
106
 10
194.800429127898
 20
297.685507770567
 30
0.0
 40
1.9514156557187
100
AcDbArc
 50
-136.671836084453
 51
-47.7736458288285
 0
LINE
 5
658
100
AcDbEntity
 8
Layer8
100
AcDbLine
 39
0.25
 370
106
 10
196.1119
 20
296.240493164063
 30
0.0
 11
196.5319
 21
297.078493164062
 31
0.0
 0
LINE
 5
659
100
AcDbEntity
 8
Layer8
100
AcDbLine
 39
0.25
 370
106
 10
196.5319
 20
297.078493164062
 30
0.0
 11
196.3209
 21
298.341493164063
 31
0.0
 0
LINE
 5
65A
100
AcDbEntity
 8
Layer8
100
AcDbLine
 39
0.25
 370
106
 10
196.3209
 20
298.341493164063
 30
0.0
 11
195.6919
 21
298.968493164062
 31
0.0
 0
LINE
 5
65B
100
AcDbEntity
 8
Layer8
100
AcDbLine
 39
0.25
 370
106
 10
195.6919
 20
298.968493164062
 30
0.0
 11
195.2719
 21
299.179493164062
 31
0.0
 0
LINE
 5
65C
100
AcDbEntity
 8
Layer8
100
AcDbLine
 39
0.25
 370
106
 10
190.7579
 20
303.588493164062
 30
0.0
 11
192.9639
 21
303.272493164063
 31
0.0
 0
LINE
 5
65D
100
AcDbEntity
 8
Layer8
100
AcDbLine
 39
0.25
 370
106
 10
192.9639
 20
299.914493164062
 30
0.0
 11
192.9639
 21
303.272493164063
 31
0.0
 0
LINE
 5
65E
100
AcDbEntity
 8
Layer8
100
AcDbLine
 39
0.25
 370
106
 10
192.9639
 20
299.914493164062
 30
0.0
 11
190.7579
 21
299.598493164062
 31
0.0
 0
LINE
 5
65F
100
AcDbEntity
 8
Layer8
100
AcDbLine
 39
0.25
 370
106
 10
196.5319
 20
385.983493164063
 30
0.0
 11
196.5319
 21
386.088493164062
 31
0.0
 0
LINE
 5
660
100
AcDbEntity
 8
Layer8
100
AcDbLine
 39
0.25
 370
106
 10
193.3809
 20
387.348493164062
 30
0.0
 11
190.7579
 21
384.093493164062
 31
0.0
 0
ARC
 5
661
100
AcDbEntity
 8
Layer8
100
AcDbCircle
 39
0.25
 370
106
 10
194.726800594008
 20
386.177740800634
 30
0.0
 40
1.81552086460754
100
AcDbArc
 50
-6.14199171172758
 51
82.6869244598105
 0
LINE
 5
662
100
AcDbEntity
 8
Layer8
100
AcDbLine
 39
0.25
 370
106
 10
194.9579
 20
387.978493164062
 30
0.0
 11
194.1179
 21
387.767493164063
 31
0.0
 0
LINE
 5
663
100
AcDbEntity
 8
Layer8
100
AcDbLine
 39
0.25
 370
106
 10
194.1179
 20
387.767493164063
 30
0.0
 11
193.3809
 21
387.348493164062
 31
0.0
 0
LINE
 5
664
100
AcDbEntity
 8
Layer8
100
AcDbLine
 39
0.25
 370
106
 10
193.3809
 20
376.640493164062
 30
0.0
 11
190.7579
 21
379.789493164062
 31
0.0
 0
LINE
 5
665
100
AcDbEntity
 8
Layer8
100
AcDbLine
 39
0.25
 370
106
 10
193.3809
 20
376.640493164062
 30
0.0
 11
194.1179
 21
376.115493164063
 31
0.0
 0
LINE
 5
666
100
AcDbEntity
 8
Layer8
100
AcDbLine
 39
0.25
 370
106
 10
194.1179
 20
376.115493164063
 30
0.0
 11
194.5359
 21
376.013493164062
 31
0.0
 0
LINE
 5
667
100
AcDbEntity
 8
Layer8
100
AcDbLine
 39
0.25
 370
106
 10
194.5359
 20
376.013493164062
 30
0.0
 11
195.3779
 21
376.115493164063
 31
0.0
 0
LINE
 5
668
100
AcDbEntity
 8
Layer8
100
AcDbLine
 39
0.25
 370
106
 10
195.3779
 20
376.115493164063
 30
0.0
 11
196.1119
 21
376.640493164062
 31
0.0
 0
LINE
 5
669
100
AcDbEntity
 8
Layer8
100
AcDbLine
 39
0.25
 370
106
 10
196.1119
 20
376.640493164062
 30
0.0
 11
196.5319
 21
377.375493164063
 31
0.0
 0
LINE
 5
66A
100
AcDbEntity
 8
Layer8
100
AcDbLine
 39
0.25
 370
106
 10
196.5319
 20
377.375493164063
 30
0.0
 11
196.5319
 21
377.794493164062
 31
0.0
 0
LINE
 5
66B
100
AcDbEntity
 8
Layer8
100
AcDbLine
 39
0.25
 370
106
 10
193.3809
 20
376.640493164062
 30
0.0
 11
190.7579
 21
379.789493164062
 31
0.0
 0
LINE
 5
66C
100
AcDbEntity
 8
Layer8
100
AcDbLine
 39
0.25
 370
106
 10
193.3809
 20
376.640493164062
 30
0.0
 11
194.1179
 21
376.115493164063
 31
0.0
 0
LINE
 5
66D
100
AcDbEntity
 8
Layer8
100
AcDbLine
 39
0.25
 370
106
 10
194.1179
 20
376.115493164063
 30
0.0
 11
194.5359
 21
376.013493164062
 31
0.0
 0
LINE
 5
66E
100
AcDbEntity
 8
Layer8
100
AcDbLine
 39
0.25
 370
106
 10
194.5359
 20
376.013493164062
 30
0.0
 11
195.3779
 21
376.115493164063
 31
0.0
 0
LINE
 5
66F
100
AcDbEntity
 8
Layer8
100
AcDbLine
 39
0.25
 370
106
 10
195.3779
 20
376.115493164063
 30
0.0
 11
196.1119
 21
376.640493164062
 31
0.0
 0
LINE
 5
670
100
AcDbEntity
 8
Layer8
100
AcDbLine
 39
0.25
 370
106
 10
196.1119
 20
376.640493164062
 30
0.0
 11
196.5319
 21
377.375493164063
 31
0.0
 0
LINE
 5
671
100
AcDbEntity
 8
Layer8
100
AcDbLine
 39
0.25
 370
106
 10
196.5319
 20
377.375493164063
 30
0.0
 11
196.5319
 21
378.005493164063
 31
0.0
 0
LINE
 5
672
100
AcDbEntity
 8
Layer8
100
AcDbLine
 39
0.25
 370
106
 10
85.0609
 20
343.054493164062
 30
0.0
 11
84.6419
 21
343.054493164062
 31
0.0
 0
LINE
 5
673
100
AcDbEntity
 8
Layer8
100
AcDbLine
 39
0.25
 370
106
 10
84.6419
 20
340.429493164062
 30
0.0
 11
85.0609
 21
340.429493164062
 31
0.0
 0
ARC
 5
674
100
AcDbEntity
 8
Layer8
100
AcDbCircle
 39
0.25
 370
106
 10
88.3787503648557
 20
326.181781055541
 30
0.0
 40
1.7456712506232
100
AcDbArc
 50
177.382808453285
 51
-102.500603564429
 0
LINE
 5
675
100
AcDbEntity
 8
Layer8
100
AcDbLine
 39
0.25
 370
106
 10
88.0009
 20
324.477493164062
 30
0.0
 11
88.3159
 21
324.477493164062
 31
0.0
 0
LINE
 5
676
100
AcDbEntity
 8
Layer8
100
AcDbLine
 39
0.25
 370
106
 10
88.3159
 20
359.006493164062
 30
0.0
 11
88.0009
 21
359.006493164062
 31
0.0
 0
LINE
 5
677
100
AcDbEntity
 8
Layer8
100
AcDbLine
 39
0.25
 370
106
 10
88.0009
 20
359.006493164062
 30
0.0
 11
87.3699
 21
358.798493164063
 31
0.0
 0
LINE
 5
678
100
AcDbEntity
 8
Layer8
100
AcDbLine
 39
0.25
 370
106
 10
87.3699
 20
358.798493164063
 30
0.0
 11
87.1599
 21
358.481493164063
 31
0.0
 0
LINE
 5
679
100
AcDbEntity
 8
Layer8
100
AcDbLine
 39
0.25
 370
106
 10
87.1599
 20
358.481493164063
 30
0.0
 11
86.8459
 21
358.273493164062
 31
0.0
 0
LINE
 5
67A
100
AcDbEntity
 8
Layer8
100
AcDbLine
 39
0.25
 370
106
 10
86.8459
 20
358.273493164062
 30
0.0
 11
86.6349
 21
357.641493164062
 31
0.0
 0
LINE
 5
67B
100
AcDbEntity
 8
Layer8
100
AcDbLine
 39
0.25
 370
106
 10
86.6349
 20
357.641493164062
 30
0.0
 11
86.6349
 21
357.225493164062
 31
0.0
 0
LINE
 5
67C
100
AcDbEntity
 8
Layer8
100
AcDbLine
 39
0.25
 370
106
 10
142.7899
 20
359.533493164062
 30
0.0
 11
142.4749
 21
359.533493164062
 31
0.0
 0
LINE
 5
67D
100
AcDbEntity
 8
Layer8
100
AcDbLine
 39
0.25
 370
106
 10
142.7899
 20
359.533493164062
 30
0.0
 11
88.3159
 21
359.006493164062
 31
0.0
 0
LINE
 5
67E
100
AcDbEntity
 8
Layer8
100
AcDbLine
 39
0.25
 370
106
 10
88.3159
 20
324.477493164062
 30
0.0
 11
142.8969
 21
323.949493164062
 31
0.0
 0
LINE
 5
67F
100
AcDbEntity
 8
Layer8
100
AcDbLine
 39
0.25
 370
106
 10
142.8969
 20
323.949493164062
 30
0.0
 11
143.1049
 21
323.847493164062
 31
0.0
 0
LINE
 5
680
100
AcDbEntity
 8
Layer8
100
AcDbLine
 39
0.25
 370
106
 10
143.1049
 20
323.847493164062
 30
0.0
 11
143.5249
 21
323.319493164062
 31
0.0
 0
LINE
 5
681
100
AcDbEntity
 8
Layer8
100
AcDbLine
 39
0.25
 370
106
 10
143.5249
 20
360.266493164062
 30
0.0
 11
143.5249
 21
360.163493164063
 31
0.0
 0
LINE
 5
682
100
AcDbEntity
 8
Layer8
100
AcDbLine
 39
0.25
 370
106
 10
143.5249
 20
360.163493164063
 30
0.0
 11
142.8969
 21
359.533493164062
 31
0.0
 0
LINE
 5
683
100
AcDbEntity
 8
Layer8
100
AcDbLine
 39
0.25
 370
106
 10
142.8969
 20
359.533493164062
 30
0.0
 11
142.7899
 21
359.533493164062
 31
0.0
 0
ARC
 5
684
100
AcDbEntity
 8
Layer8
100
AcDbCircle
 39
0.25
 370
106
 10
195.198284511284
 20
342.215574738927
 30
0.0
 40
55.0200015061339
100
AcDbArc
 50
-159.913389785257
 51
-127.115512822775
 0
ARC
 5
685
100
AcDbEntity
 8
Layer8
100
AcDbCircle
 39
0.25
 370
106
 10
191.738838208276
 20
336.606861494137
 30
0.0
 40
48.4640260290527
100
AcDbArc
 50
-127.855372545228
 51
-102.043152824257
 0
ARC
 5
686
100
AcDbEntity
 8
Layer8
100
AcDbCircle
 39
0.25
 370
106
 10
194.63996548778
 20
341.509519613938
 30
0.0
 40
54.4479014892233
100
AcDbArc
 50
103.827545536621
 51
159.849091332698
 0
LINE
 5
687
100
AcDbEntity
 8
Layer8
100
AcDbLine
 39
0.25
 370
106
 10
181.6269
 20
289.209493164063
 30
0.0
 11
181.6269
 21
289.104493164062
 31
0.0
 0
LINE
 5
688
100
AcDbEntity
 8
Layer8
100
AcDbLine
 39
0.25
 370
106
 10
181.6269
 20
289.104493164062
 30
0.0
 11
181.7309
 21
289.104493164062
 31
0.0
 0
LINE
 5
689
100
AcDbEntity
 8
Layer8
100
AcDbLine
 39
0.25
 370
106
 10
181.7309
 20
289.104493164062
 30
0.0
 11
181.7309
 21
288.998493164062
 31
0.0
 0
LINE
 5
68A
100
AcDbEntity
 8
Layer8
100
AcDbLine
 39
0.25
 370
106
 10
181.7309
 20
288.998493164062
 30
0.0
 11
181.8369
 21
288.998493164062
 31
0.0
 0
LINE
 5
68B
100
AcDbEntity
 8
Layer8
100
AcDbLine
 39
0.25
 370
106
 10
181.8369
 20
288.998493164062
 30
0.0
 11
181.8369
 21
288.890493164062
 31
0.0
 0
LINE
 5
68C
100
AcDbEntity
 8
Layer8
100
AcDbLine
 39
0.25
 370
106
 10
181.8369
 20
394.695493164063
 30
0.0
 11
181.8369
 21
394.590493164062
 31
0.0
 0
LINE
 5
68D
100
AcDbEntity
 8
Layer8
100
AcDbLine
 39
0.25
 370
106
 10
181.8369
 20
394.590493164062
 30
0.0
 11
181.6269
 21
394.379493164062
 31
0.0
 0
LINE
 5
68E
100
AcDbEntity
 8
Layer8
100
AcDbLine
 39
0.25
 370
106
 10
190.4439
 20
396.793493164063
 30
0.0
 11
182.1519
 21
397.215493164062
 31
0.0
 0
LINE
 5
68F
100
AcDbEntity
 8
Layer8
100
AcDbLine
 39
0.25
 370
106
 10
182.1519
 20
286.271493164062
 30
0.0
 11
190.4439
 21
286.690493164063
 31
0.0
 0
LINE
 5
690
100
AcDbEntity
 8
Layer8
100
AcDbLine
 39
0.25
 370
106
 10
182.1519
 20
397.215493164062
 30
0.0
 11
181.8369
 21
397.215493164062
 31
0.0
 0
LINE
 5
691
100
AcDbEntity
 8
Layer8
100
AcDbLine
 39
0.25
 370
106
 10
181.8369
 20
286.373493164062
 30
0.0
 11
181.9399
 21
286.271493164062
 31
0.0
 0
LINE
 5
692
100
AcDbEntity
 8
Layer8
100
AcDbLine
 39
0.25
 370
106
 10
181.9399
 20
286.271493164062
 30
0.0
 11
182.1519
 21
286.271493164062
 31
0.0
 0
LINE
 5
693
100
AcDbEntity
 8
Layer8
100
AcDbLine
 39
0.25
 370
106
 10
190.7579
 20
396.480493164062
 30
0.0
 11
190.7579
 21
396.585493164062
 31
0.0
 0
LINE
 5
694
100
AcDbEntity
 8
Layer8
100
AcDbLine
 39
0.25
 370
106
 10
190.7579
 20
396.585493164062
 30
0.0
 11
190.6549
 21
396.691493164062
 31
0.0
 0
LINE
 5
695
100
AcDbEntity
 8
Layer8
100
AcDbLine
 39
0.25
 370
106
 10
190.6549
 20
396.691493164062
 30
0.0
 11
190.6549
 21
396.793493164063
 31
0.0
 0
LINE
 5
696
100
AcDbEntity
 8
Layer8
100
AcDbLine
 39
0.25
 370
106
 10
190.6549
 20
396.793493164063
 30
0.0
 11
190.4439
 21
396.793493164063
 31
0.0
 0
LINE
 5
697
100
AcDbEntity
 8
Layer8
100
AcDbLine
 39
0.25
 370
106
 10
190.4439
 20
286.690493164063
 30
0.0
 11
190.5489
 21
286.690493164063
 31
0.0
 0
LINE
 5
698
100
AcDbEntity
 8
Layer8
100
AcDbLine
 39
0.25
 370
106
 10
190.5489
 20
286.690493164063
 30
0.0
 11
190.6549
 21
286.792493164062
 31
0.0
 0
LINE
 5
699
100
AcDbEntity
 8
Layer8
100
AcDbLine
 39
0.25
 370
106
 10
190.6549
 20
286.792493164062
 30
0.0
 11
190.7579
 21
286.901493164062
 31
0.0
 0
LINE
 5
69A
100
AcDbEntity
 8
Layer8
100
AcDbLine
 39
0.25
 370
106
 10
190.7579
 20
286.901493164062
 30
0.0
 11
190.7579
 21
287.003493164062
 31
0.0
 0
LINE
 5
69B
100
AcDbEntity
 8
Layer8
100
AcDbLine
 39
0.25
 370
106
 10
185.1949
 20
384.093493164062
 30
0.0
 11
184.5649
 21
383.779493164063
 31
0.0
 0
LINE
 5
69C
100
AcDbEntity
 8
Layer8
100
AcDbLine
 39
0.25
 370
106
 10
184.5649
 20
383.779493164063
 30
0.0
 11
182.9909
 21
383.568493164062
 31
0.0
 0
LINE
 5
69D
100
AcDbEntity
 8
Layer8
100
AcDbLine
 39
0.25
 370
106
 10
182.9909
 20
300.017493164063
 30
0.0
 11
183.9349
 21
299.914493164062
 31
0.0
 0
LINE
 5
69E
100
AcDbEntity
 8
Layer8
100
AcDbLine
 39
0.25
 370
106
 10
183.9349
 20
299.914493164062
 30
0.0
 11
185.1949
 21
299.495493164063
 31
0.0
 0
LINE
 5
69F
100
AcDbEntity
 8
Layer8
100
AcDbLine
 39
0.25
 370
106
 10
189.0799
 20
298.549493164062
 30
0.0
 11
190.5489
 21
298.549493164062
 31
0.0
 0
LINE
 5
6A0
100
AcDbEntity
 8
Layer8
100
AcDbLine
 39
0.25
 370
106
 10
190.5489
 20
298.549493164062
 30
0.0
 11
190.5489
 21
298.654493164063
 31
0.0
 0
LINE
 5
6A1
100
AcDbEntity
 8
Layer8
100
AcDbLine
 39
0.25
 370
106
 10
190.5489
 20
298.654493164063
 30
0.0
 11
190.6549
 21
298.654493164063
 31
0.0
 0
LINE
 5
6A2
100
AcDbEntity
 8
Layer8
100
AcDbLine
 39
0.25
 370
106
 10
190.6549
 20
298.654493164063
 30
0.0
 11
190.6549
 21
298.760493164063
 31
0.0
 0
LINE
 5
6A3
100
AcDbEntity
 8
Layer8
100
AcDbLine
 39
0.25
 370
106
 10
190.6549
 20
298.760493164063
 30
0.0
 11
190.7579
 21
298.760493164063
 31
0.0
 0
LINE
 5
6A4
100
AcDbEntity
 8
Layer8
100
AcDbLine
 39
0.25
 370
106
 10
190.7579
 20
298.760493164063
 30
0.0
 11
190.7579
 21
298.865493164063
 31
0.0
 0
LINE
 5
6A5
100
AcDbEntity
 8
Layer8
100
AcDbLine
 39
0.25
 370
106
 10
190.7579
 20
384.726493164063
 30
0.0
 11
190.5489
 21
384.934493164062
 31
0.0
 0
LINE
 5
6A6
100
AcDbEntity
 8
Layer8
100
AcDbLine
 39
0.25
 370
106
 10
190.5489
 20
384.934493164062
 30
0.0
 11
190.4439
 21
384.934493164062
 31
0.0
 0
LINE
 5
6A7
100
AcDbEntity
 8
Layer8
100
AcDbLine
 39
0.25
 370
106
 10
188.9729
 20
385.039493164062
 30
0.0
 11
187.0859
 21
384.726493164063
 31
0.0
 0
LINE
 5
6A8
100
AcDbEntity
 8
Layer8
100
AcDbLine
 39
0.25
 370
106
 10
187.0859
 20
384.726493164063
 30
0.0
 11
185.1949
 21
384.093493164062
 31
0.0
 0
LINE
 5
6A9
100
AcDbEntity
 8
Layer8
100
AcDbLine
 39
0.25
 370
106
 10
190.4439
 20
384.934493164062
 30
0.0
 11
188.9729
 21
385.039493164062
 31
0.0
 0
LINE
 5
6AA
100
AcDbEntity
 8
Layer8
100
AcDbLine
 39
0.25
 370
106
 10
185.1949
 20
299.495493164063
 30
0.0
 11
187.2949
 21
298.760493164063
 31
0.0
 0
LINE
 5
6AB
100
AcDbEntity
 8
Layer8
100
AcDbLine
 39
0.25
 370
106
 10
187.2949
 20
298.760493164063
 30
0.0
 11
188.2389
 21
298.549493164062
 31
0.0
 0
LINE
 5
6AC
100
AcDbEntity
 8
Layer8
100
AcDbLine
 39
0.25
 370
106
 10
188.2389
 20
298.549493164062
 30
0.0
 11
189.0799
 21
298.549493164062
 31
0.0
 0
LINE
 5
6AD
100
AcDbEntity
 8
Layer8
100
AcDbLine
 39
0.25
 370
106
 10
190.7579
 20
298.760493164063
 30
0.0
 11
190.7579
 21
299.179493164062
 31
0.0
 0
LINE
 5
6AE
100
AcDbEntity
 8
Layer8
100
AcDbLine
 39
0.25
 370
106
 10
188.1329
 20
300.333493164062
 30
0.0
 11
188.0299
 21
300.230493164062
 31
0.0
 0
LINE
 5
6AF
100
AcDbEntity
 8
Layer8
100
AcDbLine
 39
0.25
 370
106
 10
188.0299
 20
300.230493164062
 30
0.0
 11
187.6079
 21
300.230493164062
 31
0.0
 0
LINE
 5
6B0
100
AcDbEntity
 8
Layer8
100
AcDbLine
 39
0.25
 370
106
 10
185.0909
 20
380.943493164062
 30
0.0
 11
183.8309
 21
380.524493164063
 31
0.0
 0
LINE
 5
6B1
100
AcDbEntity
 8
Layer8
100
AcDbLine
 39
0.25
 370
106
 10
183.8309
 20
380.524493164063
 30
0.0
 11
182.5709
 21
380.316493164062
 31
0.0
 0
LINE
 5
6B2
100
AcDbEntity
 8
Layer8
100
AcDbLine
 39
0.25
 370
106
 10
187.8189
 20
381.995493164063
 30
0.0
 11
184.9859
 21
380.943493164062
 31
0.0
 0
LINE
 5
6B3
100
AcDbEntity
 8
Layer8
100
AcDbLine
 39
0.25
 370
106
 10
182.9909
 20
302.958493164062
 30
0.0
 11
184.8799
 21
302.539493164062
 31
0.0
 0
LINE
 5
6B4
100
AcDbEntity
 8
Layer8
100
AcDbLine
 39
0.25
 370
106
 10
184.8799
 20
302.539493164062
 30
0.0
 11
186.7699
 21
301.698493164062
 31
0.0
 0
LINE
 5
6B5
100
AcDbEntity
 8
Layer8
100
AcDbLine
 39
0.25
 370
106
 10
186.7699
 20
301.698493164062
 30
0.0
 11
187.8189
 21
300.858493164063
 31
0.0
 0
LINE
 5
6B6
100
AcDbEntity
 8
Layer8
100
AcDbLine
 39
0.25
 370
106
 10
187.8189
 20
300.858493164063
 30
0.0
 11
188.1329
 21
300.333493164062
 31
0.0
 0
LINE
 5
6B7
100
AcDbEntity
 8
Layer8
100
AcDbLine
 39
0.25
 370
106
 10
190.7579
 20
381.995493164063
 30
0.0
 11
190.5489
 21
382.309493164062
 31
0.0
 0
LINE
 5
6B8
100
AcDbEntity
 8
Layer8
100
AcDbLine
 39
0.25
 370
106
 10
190.5489
 20
382.309493164062
 30
0.0
 11
188.9729
 21
382.309493164062
 31
0.0
 0
LINE
 5
6B9
100
AcDbEntity
 8
Layer8
100
AcDbLine
 39
0.25
 370
106
 10
188.9729
 20
382.309493164062
 30
0.0
 11
187.8189
 21
381.995493164063
 31
0.0
 0
ARC
 5
6BA
100
AcDbEntity
 8
Layer8
100
AcDbCircle
 39
0.25
 370
106
 10
-135.645870921251
 20
338.055502548399
 30
0.0
 40
328.105075841158
100
AcDbArc
 50
-6.01153451403714
 51
0.652940276325149
 0
ARC
 5
6BB
100
AcDbEntity
 8
Layer8
100
AcDbCircle
 39
0.25
 370
106
 10
-153.340793081414
 20
344.60739347294
 30
0.0
 40
345.790134326066
100
AcDbArc
 50
-0.466089334084563
 51
5.83961132097722
 0
LINE
 5
6BC
100
AcDbEntity
 8
Layer8
100
AcDbLine
 39
0.25
 370
106
 10
180.2619
 20
305.791493164063
 30
0.0
 11
173.7549
 21
307.575493164062
 31
0.0
 0
LINE
 5
6BD
100
AcDbEntity
 8
Layer8
100
AcDbLine
 39
0.25
 370
106
 10
173.7549
 20
376.013493164062
 30
0.0
 11
180.2619
 21
377.794493164062
 31
0.0
 0
LINE
 5
6BE
100
AcDbEntity
 8
Layer8
100
AcDbLine
 39
0.25
 370
106
 10
179.9479
 20
383.568493164062
 30
0.0
 11
179.6339
 21
383.779493164063
 31
0.0
 0
LINE
 5
6BF
100
AcDbEntity
 8
Layer8
100
AcDbLine
 39
0.25
 370
106
 10
180.7869
 20
383.149493164063
 30
0.0
 11
180.6819
 21
383.149493164063
 31
0.0
 0
LINE
 5
6C0
100
AcDbEntity
 8
Layer8
100
AcDbLine
 39
0.25
 370
106
 10
180.6819
 20
383.149493164063
 30
0.0
 11
180.3679
 21
383.255493164063
 31
0.0
 0
LINE
 5
6C1
100
AcDbEntity
 8
Layer8
100
AcDbLine
 39
0.25
 370
106
 10
180.3679
 20
383.255493164063
 30
0.0
 11
180.1579
 21
383.466493164063
 31
0.0
 0
LINE
 5
6C2
100
AcDbEntity
 8
Layer8
100
AcDbLine
 39
0.25
 370
106
 10
180.1579
 20
383.466493164063
 30
0.0
 11
180.0529
 21
383.466493164063
 31
0.0
 0
ARC
 5
6C3
100
AcDbEntity
 8
Layer8
100
AcDbCircle
 39
0.25
 370
106
 10
177.691957074065
 20
381.620434898347
 30
0.0
 40
2.9039068377522
100
AcDbArc
 50
48.030525775284
 51
121.610443978689
 0
LINE
 5
6C4
100
AcDbEntity
 8
Layer8
100
AcDbLine
 39
0.25
 370
106
 10
176.1699
 20
384.093493164062
 30
0.0
 11
175.4339
 21
383.149493164063
 31
0.0
 0
LINE
 5
6C5
100
AcDbEntity
 8
Layer8
100
AcDbLine
 39
0.25
 370
106
 10
175.4339
 20
383.149493164063
 30
0.0
 11
175.3309
 21
382.730493164062
 31
0.0
 0
LINE
 5
6C6
100
AcDbEntity
 8
Layer8
100
AcDbLine
 39
0.25
 370
106
 10
195.2719
 20
380.841493164063
 30
0.0
 11
195.5869
 21
381.049493164062
 31
0.0
 0
LINE
 5
6C7
100
AcDbEntity
 8
Layer8
100
AcDbLine
 39
0.25
 370
106
 10
195.5869
 20
382.833493164062
 30
0.0
 11
195.2719
 21
383.149493164063
 31
0.0
 0
LINE
 5
6C8
100
AcDbEntity
 8
Layer8
100
AcDbLine
 39
0.25
 370
106
 10
195.2719
 20
383.149493164063
 30
0.0
 11
193.1709
 21
383.149493164063
 31
0.0
 0
LINE
 5
6C9
100
AcDbEntity
 8
Layer8
100
AcDbLine
 39
0.25
 370
106
 10
190.5489
 20
383.149493164063
 30
0.0
 11
180.7869
 21
383.149493164063
 31
0.0
 0
LINE
 5
6CA
100
AcDbEntity
 8
Layer8
100
AcDbLine
 39
0.25
 370
106
 10
180.7869
 20
380.841493164063
 30
0.0
 11
184.6709
 21
380.841493164063
 31
0.0
 0
LINE
 5
6CB
100
AcDbEntity
 8
Layer8
100
AcDbLine
 39
0.25
 370
106
 10
192.9639
 20
380.841493164063
 30
0.0
 11
195.2719
 21
380.841493164063
 31
0.0
 0
LINE
 5
6CC
100
AcDbEntity
 8
Layer8
100
AcDbLine
 39
0.25
 370
106
 10
180.1579
 20
380.524493164063
 30
0.0
 11
180.2619
 21
380.630493164063
 31
0.0
 0
LINE
 5
6CD
100
AcDbEntity
 8
Layer8
100
AcDbLine
 39
0.25
 370
106
 10
180.2619
 20
380.630493164063
 30
0.0
 11
180.5769
 21
380.733493164063
 31
0.0
 0
LINE
 5
6CE
100
AcDbEntity
 8
Layer8
100
AcDbLine
 39
0.25
 370
106
 10
180.5769
 20
380.733493164063
 30
0.0
 11
180.7869
 21
380.841493164063
 31
0.0
 0
LINE
 5
6CF
100
AcDbEntity
 8
Layer8
100
AcDbLine
 39
0.25
 370
106
 10
175.3309
 20
382.730493164062
 30
0.0
 11
175.3309
 21
381.154493164063
 31
0.0
 0
LINE
 5
6D0
100
AcDbEntity
 8
Layer8
100
AcDbLine
 39
0.25
 370
106
 10
179.8429
 20
299.914493164062
 30
0.0
 11
180.0529
 21
300.017493164063
 31
0.0
 0
LINE
 5
6D1
100
AcDbEntity
 8
Layer8
100
AcDbLine
 39
0.25
 370
106
 10
179.6339
 20
299.703493164062
 30
0.0
 11
179.7359
 21
299.809493164062
 31
0.0
 0
LINE
 5
6D2
100
AcDbEntity
 8
Layer8
100
AcDbLine
 39
0.25
 370
106
 10
179.7359
 20
299.809493164062
 30
0.0
 11
179.9479
 21
299.914493164062
 31
0.0
 0
LINE
 5
6D3
100
AcDbEntity
 8
Layer8
100
AcDbLine
 39
0.25
 370
106
 10
180.0529
 20
300.017493164063
 30
0.0
 11
180.2619
 21
300.230493164062
 31
0.0
 0
LINE
 5
6D4
100
AcDbEntity
 8
Layer8
100
AcDbLine
 39
0.25
 370
106
 10
180.2619
 20
300.230493164062
 30
0.0
 11
180.5769
 21
300.333493164062
 31
0.0
 0
LINE
 5
6D5
100
AcDbEntity
 8
Layer8
100
AcDbLine
 39
0.25
 370
106
 10
180.5769
 20
300.333493164062
 30
0.0
 11
180.7869
 21
300.333493164062
 31
0.0
 0
ARC
 5
6D6
100
AcDbEntity
 8
Layer8
100
AcDbCircle
 39
0.25
 370
106
 10
177.61249287794
 20
301.525767707608
 30
0.0
 40
2.48365975738944
100
AcDbArc
 50
-156.728276894826
 51
-99.1182716390587
 0
LINE
 5
6D7
100
AcDbEntity
 8
Layer8
100
AcDbLine
 39
0.25
 370
106
 10
175.3309
 20
300.752493164062
 30
0.0
 11
175.3309
 21
300.544493164062
 31
0.0
 0
LINE
 5
6D8
100
AcDbEntity
 8
Layer8
100
AcDbLine
 39
0.25
 370
106
 10
177.2189
 20
299.073493164062
 30
0.0
 11
178.6869
 21
299.179493164062
 31
0.0
 0
LINE
 5
6D9
100
AcDbEntity
 8
Layer8
100
AcDbLine
 39
0.25
 370
106
 10
178.6869
 20
299.179493164062
 30
0.0
 11
179.6339
 21
299.703493164062
 31
0.0
 0
LINE
 5
6DA
100
AcDbEntity
 8
Layer8
100
AcDbLine
 39
0.25
 370
106
 10
195.2719
 20
300.333493164062
 30
0.0
 11
195.5869
 21
300.649493164063
 31
0.0
 0
LINE
 5
6DB
100
AcDbEntity
 8
Layer8
100
AcDbLine
 39
0.25
 370
106
 10
195.5869
 20
302.434493164062
 30
0.0
 11
195.2719
 21
302.747493164062
 31
0.0
 0
LINE
 5
6DC
100
AcDbEntity
 8
Layer8
100
AcDbLine
 39
0.25
 370
106
 10
195.2719
 20
302.747493164062
 30
0.0
 11
192.9639
 21
302.747493164062
 31
0.0
 0
LINE
 5
6DD
100
AcDbEntity
 8
Layer8
100
AcDbLine
 39
0.25
 370
106
 10
184.2519
 20
302.747493164062
 30
0.0
 11
180.7869
 21
302.747493164062
 31
0.0
 0
LINE
 5
6DE
100
AcDbEntity
 8
Layer8
100
AcDbLine
 39
0.25
 370
106
 10
180.7869
 20
300.333493164062
 30
0.0
 11
188.1329
 21
300.333493164062
 31
0.0
 0
LINE
 5
6DF
100
AcDbEntity
 8
Layer8
100
AcDbLine
 39
0.25
 370
106
 10
192.9639
 20
300.333493164062
 30
0.0
 11
195.2719
 21
300.333493164062
 31
0.0
 0
LINE
 5
6E0
100
AcDbEntity
 8
Layer8
100
AcDbLine
 39
0.25
 370
106
 10
180.7869
 20
302.747493164062
 30
0.0
 11
180.6819
 21
302.747493164062
 31
0.0
 0
LINE
 5
6E1
100
AcDbEntity
 8
Layer8
100
AcDbLine
 39
0.25
 370
106
 10
180.6819
 20
302.747493164062
 30
0.0
 11
180.3679
 21
302.853493164062
 31
0.0
 0
LINE
 5
6E2
100
AcDbEntity
 8
Layer8
100
AcDbLine
 39
0.25
 370
106
 10
180.3679
 20
302.853493164062
 30
0.0
 11
180.1579
 21
302.958493164062
 31
0.0
 0
LINE
 5
6E3
100
AcDbEntity
 8
Layer8
100
AcDbLine
 39
0.25
 370
106
 10
175.3309
 20
302.328493164062
 30
0.0
 11
175.3309
 21
300.858493164063
 31
0.0
 0
LINE
 5
6E4
100
AcDbEntity
 8
Layer8
100
AcDbLine
 39
0.25
 370
106
 10
178.8969
 20
380.211493164063
 30
0.0
 11
178.8969
 21
380.524493164063
 31
0.0
 0
LINE
 5
6E5
100
AcDbEntity
 8
Layer8
100
AcDbLine
 39
0.25
 370
106
 10
176.5889
 20
380.524493164063
 30
0.0
 11
176.5889
 21
380.211493164063
 31
0.0
 0
LINE
 5
6E6
100
AcDbEntity
 8
Layer8
100
AcDbLine
 39
0.25
 370
106
 10
176.5889
 20
303.169493164062
 30
0.0
 11
176.5889
 21
302.958493164062
 31
0.0
 0
LINE
 5
6E7
100
AcDbEntity
 8
Layer8
100
AcDbLine
 39
0.25
 370
106
 10
178.8969
 20
302.958493164062
 30
0.0
 11
178.8969
 21
303.169493164062
 31
0.0
 0
LINE
 5
6E8
100
AcDbEntity
 8
Layer8
100
AcDbLine
 39
0.25
 370
106
 10
85.5869
 20
343.262493164063
 30
0.0
 11
85.3759
 21
343.262493164063
 31
0.0
 0
LINE
 5
6E9
100
AcDbEntity
 8
Layer8
100
AcDbLine
 39
0.25
 370
106
 10
85.3759
 20
343.262493164063
 30
0.0
 11
85.0609
 21
342.948493164062
 31
0.0
 0
LINE
 5
6EA
100
AcDbEntity
 8
Layer8
100
AcDbLine
 39
0.25
 370
106
 10
85.3759
 20
340.323493164062
 30
0.0
 11
85.5869
 21
340.323493164062
 31
0.0
 0
LINE
 5
6EB
100
AcDbEntity
 8
Layer8
100
AcDbLine
 39
0.25
 370
106
 10
85.0609
 20
340.534493164063
 30
0.0
 11
85.3759
 21
340.323493164062
 31
0.0
 0
LINE
 5
6EC
100
AcDbEntity
 8
Layer8
100
AcDbLine
 39
0.25
 370
106
 10
86.3209
 20
339.064493164062
 30
0.0
 11
86.6349
 21
339.064493164062
 31
0.0
 0
LINE
 5
6ED
100
AcDbEntity
 8
Layer8
100
AcDbLine
 39
0.25
 370
106
 10
86.6349
 20
344.419493164062
 30
0.0
 11
86.3209
 21
344.419493164062
 31
0.0
 0
LINE
 5
6EE
100
AcDbEntity
 8
Layer8
100
AcDbLine
 39
0.25
 370
106
 10
196.5319
 20
302.117493164062
 30
0.0
 11
196.5319
 21
302.226493164063
 31
0.0
 0
LINE
 5
6EF
100
AcDbEntity
 8
Layer8
100
AcDbLine
 39
0.25
 370
106
 10
196.5319
 20
300.858493164063
 30
0.0
 11
196.5319
 21
302.117493164062
 31
0.0
 0
LINE
 5
6F0
100
AcDbEntity
 8
Layer8
100
AcDbLine
 39
0.25
 370
106
 10
196.5319
 20
378.110493164063
 30
0.0
 11
196.5319
 21
378.740493164063
 31
0.0
 0
LINE
 5
6F1
100
AcDbEntity
 8
Layer8
100
AcDbLine
 39
0.25
 370
106
 10
190.5489
 20
379.895493164062
 30
0.0
 11
192.9639
 21
380.211493164063
 31
0.0
 0
LINE
 5
6F2
100
AcDbEntity
 8
Layer8
100
AcDbLine
 39
0.25
 370
106
 10
190.6549
 20
384.093493164062
 30
0.0
 11
190.5489
 21
384.093493164062
 31
0.0
 0
LINE
 5
6F3
100
AcDbEntity
 8
Layer8
100
AcDbLine
 39
0.25
 370
106
 10
196.5319
 20
385.247493164062
 30
0.0
 11
196.5319
 21
385.877493164062
 31
0.0
 0
LINE
 5
6F4
100
AcDbEntity
 8
Layer8
100
AcDbLine
 39
0.25
 370
106
 10
196.5319
 20
305.686493164062
 30
0.0
 11
196.5319
 21
305.791493164063
 31
0.0
 0
LINE
 5
6F5
100
AcDbEntity
 8
Layer8
100
AcDbLine
 39
0.25
 370
106
 10
196.5319
 20
297.395493164062
 30
0.0
 11
196.5319
 21
297.500493164063
 31
0.0
 0
ARC
 5
6F6
100
AcDbEntity
 8
Layer8
100
AcDbCircle
 39
0.25
 370
106
 10
156.072865514043
 20
343.097410762276
 30
0.0
 40
40.9681683562298
100
AcDbArc
 50
83.9247678563675
 51
156.154792315719
 0
ARC
 5
6F7
100
AcDbEntity
 8
Layer8
100
AcDbCircle
 39
0.25
 370
106
 10
156.106923440953
 20
343.145508293089
 30
0.0
 40
40.890297922029
100
AcDbArc
 50
-28.5903648727006
 51
28.3375270944201
 0
ARC
 5
6F8
100
AcDbEntity
 8
Layer8
100
AcDbCircle
 39
0.25
 370
106
 10
156.211431618492
 20
343.41887865372
 30
0.0
 40
41.1983055420153
100
AcDbArc
 50
-152.043538645976
 51
-88.3289823199234
 0
HATCH
 5
6F9
100
AcDbEntity
 8
Layer22
100
AcDbHatch
 10
 0.0
 20
 0.0
 30
 0.0
 210
 0.0
 220
 0.0
 230
 1.0
 2
SOLID
 70
 1
 71
 1
 91
1              
 92
 0
 93
42             
 72
 1
 10
28.4167
 20
15.6755931640625
 11
32.4547
 21
15.6755931640625
 72
 1
 10
32.4547
 20
15.6755931640625
 11
32.3337
 21
24.5565931640625
 72
 1
 10
32.3337
 20
24.5565931640625
 11
32.322588671875
 21
25.2383841796875
 72
 1
 10
32.322588671875
 20
25.2383841796875
 11
32.310059375
 21
25.9702962890625
 72
 1
 10
32.310059375
 20
25.9702962890625
 11
32.294694140625
 21
26.7351380859375
 72
 1
 10
32.294694140625
 20
26.7351380859375
 11
32.275075
 21
27.5157181640625
 72
 1
 10
32.275075
 20
27.5157181640625
 11
32.249783984375
 21
28.2948451171875
 72
 1
 10
32.249783984375
 20
28.2948451171875
 11
32.217403125
 21
29.0553275390625
 72
 1
 10
32.217403125
 20
29.0553275390625
 11
32.176514453125
 21
29.7799740234375
 72
 1
 10
32.176514453125
 20
29.7799740234375
 11
32.1257
 21
30.4515931640625
 72
 1
 10
32.1257
 20
30.4515931640625
 11
32.311823046875
 21
29.8957591796875
 72
 1
 10
32.311823046875
 20
29.8957591796875
 11
32.569559375
 21
29.2089212890625
 72
 1
 10
32.569559375
 20
29.2089212890625
 11
32.886709765625
 21
28.4142005859375
 72
 1
 10
32.886709765625
 20
28.4142005859375
 11
33.251075
 21
27.5347181640625
 72
 1
 10
33.251075
 20
27.5347181640625
 11
33.650455859375
 21
26.5935951171875
 72
 1
 10
33.650455859375
 20
26.5935951171875
 11
34.072653125
 21
25.6139525390625
 72
 1
 10
34.072653125
 20
25.6139525390625
 11
34.505467578125
 21
24.6189115234375
 72
 1
 10
34.505467578125
 20
24.6189115234375
 11
34.9367
 21
23.6315931640625
 72
 1
 10
34.9367
 20
23.6315931640625
 11
38.4967
 21
15.6755931640625
 72
 1
 10
38.4967
 20
15.6755931640625
 11
42.8627
 21
15.6755931640625
 72
 1
 10
42.8627
 20
15.6755931640625
 11
42.8627
 21
36.4615931640625
 72
 1
 10
42.8627
 20
36.4615931640625
 11
38.8847
 21
36.4615931640625
 72
 1
 10
38.8847
 20
36.4615931640625
 11
38.9747
 21
27.9675931640625
 72
 1
 10
38.9747
 20
27.9675931640625
 11
38.991049609375
 21
27.3763099609375
 72
 1
 10
38.991049609375
 20
27.3763099609375
 11
39.017371875
 21
26.6965150390625
 72
 1
 10
39.017371875
 20
26.6965150390625
 11
39.052201953125
 21
25.9549154296875
 72
 1
 10
39.052201953125
 20
25.9549154296875
 11
39.094075
 21
25.1782181640625
 72
 1
 10
39.094075
 20
25.1782181640625
 11
39.141526171875
 21
24.3931302734375
 72
 1
 10
39.141526171875
 20
24.3931302734375
 11
39.193090625
 21
23.6263587890625
 72
 1
 10
39.193090625
 20
23.6263587890625
 11
39.247303515625
 21
22.9046107421875
 72
 1
 10
39.247303515625
 20
22.9046107421875
 11
39.3027
 21
22.2545931640625
 72
 1
 10
39.3027
 20
22.2545931640625
 11
39.1280046875
 21
22.8462298828125
 72
 1
 10
39.1280046875
 20
22.8462298828125
 11
38.918575
 21
23.4947494140625
 72
 1
 10
38.918575
 20
23.4947494140625
 11
38.6761453125
 21
24.1924408203125
 72
 1
 10
38.6761453125
 20
24.1924408203125
 11
38.40245
 21
24.9315931640625
 72
 1
 10
38.40245
 20
24.9315931640625
 11
38.0992234375
 21
25.7044955078125
 72
 1
 10
38.0992234375
 20
25.7044955078125
 11
37.7682
 21
26.5034369140624
 72
 1
 10
37.7682
 20
26.5034369140624
 11
37.4111140625
 21
27.3207064453125
 72
 1
 10
37.4111140625
 20
27.3207064453125
 11
37.0297
 21
28.1485931640625
 72
 1
 10
37.0297
 20
28.1485931640625
 11
33.0537
 21
36.4615931640625
 72
 1
 10
33.0537
 20
36.4615931640625
 11
28.4167
 21
36.4615931640625
 72
 1
 10
28.4167
 20
36.4615931640625
 11
28.4167
 21
15.6755931640625
 97
 1
 330
6FA
 75
 0
 76
 1
 98
 1
 10
 0.0
 20
 0.0
 0
HATCH
 5
6FB
100
AcDbEntity
 8
Layer22
100
AcDbHatch
 10
 0.0
 20
 0.0
 30
 0.0
 210
 0.0
 220
 0.0
 230
 1.0
 2
SOLID
 70
 1
 71
 1
 91
1              
 92
 0
 93
12             
 72
 1
 10
45.3708
 20
36.4618931640625
 11
45.3708
 21
15.6758931640625
 72
 1
 10
45.3708
 20
15.6758931640625
 11
57.4848
 21
15.6758931640625
 72
 1
 10
57.4848
 20
15.6758931640625
 11
57.4848
 21
19.2648931640625
 72
 1
 10
57.4848
 20
19.2648931640625
 11
49.6198
 21
19.2648931640625
 72
 1
 10
49.6198
 20
19.2648931640625
 11
49.6198
 21
24.8268931640625
 72
 1
 10
49.6198
 20
24.8268931640625
 11
55.5098
 21
24.8268931640625
 72
 1
 10
55.5098
 20
24.8268931640625
 11
55.5098
 21
28.2378931640625
 72
 1
 10
55.5098
 20
28.2378931640625
 11
49.5578
 21
28.2378931640625
 72
 1
 10
49.5578
 20
28.2378931640625
 11
49.5578
 21
33.0518931640625
 72
 1
 10
49.5578
 20
33.0518931640625
 11
56.6758
 21
33.0518931640625
 72
 1
 10
56.6758
 20
33.0518931640625
 11
57.2148
 21
36.4618931640625
 72
 1
 10
57.2148
 20
36.4618931640625
 11
45.3708
 21
36.4618931640625
 97
 1
 330
6FC
 75
 0
 76
 1
 98
 1
 10
 0.0
 20
 0.0
 0
HATCH
 5
6FD
100
AcDbEntity
 8
Layer22
100
AcDbHatch
 10
 0.0
 20
 0.0
 30
 0.0
 210
 0.0
 220
 0.0
 230
 1.0
 2
SOLID
 70
 1
 71
 1
 91
1              
 92
 0
 93
49             
 72
 1
 10
59.0382
 20
15.6755931640625
 11
63.2552
 21
15.6755931640625
 72
 1
 10
63.2552
 20
15.6755931640625
 11
63.9722
 21
26.5325931640625
 72
 1
 10
63.9722
 20
26.5325931640625
 11
64.004198046875
 21
27.0092865234375
 72
 1
 10
64.004198046875
 20
27.0092865234375
 11
64.033184375
 21
27.4770150390625
 72
 1
 10
64.033184375
 20
27.4770150390625
 11
64.058772265625
 21
27.9378763671875
 72
 1
 10
64.058772265625
 20
27.9378763671875
 11
64.080575
 21
28.3939681640625
 72
 1
 10
64.080575
 20
28.3939681640625
 11
64.098205859375
 21
28.8473880859376
 72
 1
 10
64.098205859375
 20
28.8473880859376
 11
64.111278125
 21
29.3002337890625
 72
 1
 10
64.111278125
 20
29.3002337890625
 11
64.119405078125
 21
29.7546029296876
 72
 1
 10
64.119405078125
 20
29.7546029296876
 11
64.1222
 21
30.2125931640625
 72
 1
 10
64.1222
 20
30.2125931640625
 11
67.9212
 21
15.6755931640625
 72
 1
 10
67.9212
 20
15.6755931640625
 11
71.6002
 21
15.6755931640625
 72
 1
 10
71.6002
 20
15.6755931640625
 11
72.854303515625
 21
20.0415638671875
 72
 1
 10
72.854303515625
 20
20.0415638671875
 11
73.799653125
 21
23.3371087890625
 72
 1
 10
73.799653125
 20
23.3371087890625
 11
74.483557421875
 21
25.7311771484375
 72
 1
 10
74.483557421875
 20
25.7311771484375
 11
74.953325
 21
27.3927181640625
 72
 1
 10
74.953325
 20
27.3927181640625
 11
75.256264453125
 21
28.4906810546875
 72
 1
 10
75.256264453125
 20
28.4906810546875
 11
75.439684375
 21
29.1940150390625
 72
 1
 10
75.439684375
 20
29.1940150390625
 11
75.550893359375
 21
29.6716693359375
 72
 1
 10
75.550893359375
 20
29.6716693359375
 11
75.6372
 21
30.0925931640625
 72
 1
 10
75.6372
 20
30.0925931640625
 11
75.67832109375
 21
29.1549955078125
 72
 1
 10
75.67832109375
 20
29.1549955078125
 11
75.78673125
 21
27.3724994140625
 72
 1
 10
75.78673125
 20
27.3724994140625
 11
75.94000078125
 21
25.0440501953125
 72
 1
 10
75.94000078125
 20
25.0440501953125
 11
76.1157
 21
22.4685931640625
 72
 1
 10
76.1157
 20
22.4685931640625
 11
76.29139921875
 21
19.9450736328124
 72
 1
 10
76.29139921875
 20
19.9450736328124
 11
76.44466875
 21
17.7724369140625
 72
 1
 10
76.44466875
 20
17.7724369140625
 11
76.55307890625
 21
16.2496283203125
 72
 1
 10
76.55307890625
 20
16.2496283203125
 11
76.5942
 21
15.6755931640625
 72
 1
 10
76.5942
 20
15.6755931640625
 11
80.7222
 21
15.6755931640625
 72
 1
 10
80.7222
 20
15.6755931640625
 11
78.8682
 21
36.4615931640625
 72
 1
 10
78.8682
 20
36.4615931640625
 11
73.3942
 21
36.4615931640625
 72
 1
 10
73.3942
 20
36.4615931640625
 11
72.288362109375
 21
32.3328509765625
 72
 1
 10
72.288362109375
 20
32.3328509765625
 11
71.454809375
 21
29.2170306640625
 72
 1
 10
71.454809375
 20
29.2170306640625
 11
70.851858203125
 21
26.9549916015625
 72
 1
 10
70.851858203125
 20
26.9549916015625
 11
70.437825
 21
25.3875931640625
 72
 1
 10
70.437825
 20
25.3875931640625
 11
70.171026171875
 21
24.3556947265625
 72
 1
 10
70.171026171875
 20
24.3556947265625
 11
70.009778125
 21
23.7001556640625
 72
 1
 10
70.009778125
 20
23.7001556640625
 11
69.912397265625
 21
23.2618353515625
 72
 1
 10
69.912397265625
 20
23.2618353515625
 11
69.8372
 21
22.8815931640625
 72
 1
 10
69.8372
 20
22.8815931640625
 11
69.637334765625
 21
23.7746126953125
 72
 1
 10
69.637334765625
 20
23.7746126953125
 11
69.223028125
 21
25.4582494140625
 72
 1
 10
69.223028125
 20
25.4582494140625
 11
68.668588671875
 21
27.6521205078125
 72
 1
 10
68.668588671875
 20
27.6521205078125
 11
68.048325
 21
30.0758431640625
 72
 1
 10
68.048325
 20
30.0758431640625
 11
67.436545703125
 21
32.4490345703125
 72
 1
 10
67.436545703125
 20
32.4490345703125
 11
66.907559375
 21
34.4913119140625
 72
 1
 10
66.907559375
 20
34.4913119140625
 11
66.535674609375
 21
35.9222923828125
 72
 1
 10
66.535674609375
 20
35.9222923828125
 11
66.3952
 21
36.4615931640625
 72
 1
 10
66.3952
 20
36.4615931640625
 11
60.9832
 21
36.4615931640625
 72
 1
 10
60.9832
 20
36.4615931640625
 11
59.0382
 21
15.6755931640625
 97
 1
 330
6FE
 75
 0
 76
 1
 98
 1
 10
 0.0
 20
 0.0
 0
HATCH
 5
6FF
100
AcDbEntity
 8
Layer22
100
AcDbHatch
 10
 0.0
 20
 0.0
 30
 0.0
 210
 0.0
 220
 0.0
 230
 1.0
 2
SOLID
 70
 1
 71
 1
 91
2              
 92
 0
 93
56             
 72
 1
 10
94.6111
 20
30.8697931640625
 11
94.736672265625
 21
30.4148751953125
 72
 1
 10
94.736672265625
 20
30.4148751953125
 11
94.845615625
 21
29.9235119140625
 72
 1
 10
94.845615625
 20
29.9235119140625
 11
94.937894921875
 21
29.3929142578125
 72
 1
 10
94.937894921875
 20
29.3929142578125
 11
95.013475
 21
28.8202931640625
 72
 1
 10
95.013475
 20
28.8202931640625
 11
95.072320703125
 21
28.2028595703125
 72
 1
 10
95.072320703125
 20
28.2028595703125
 11
95.114396875
 21
27.5378244140625
 72
 1
 10
95.114396875
 20
27.5378244140625
 11
95.139668359375
 21
26.8223986328125
 72
 1
 10
95.139668359375
 20
26.8223986328125
 11
95.1481
 21
26.0537931640625
 72
 1
 10
95.1481
 20
26.0537931640625
 11
95.089797265625
 21
24.2118869140625
 72
 1
 10
95.089797265625
 20
24.2118869140625
 11
94.911365625
 21
22.6484181640625
 72
 1
 10
94.911365625
 20
22.6484181640625
 11
94.607519921875
 21
21.3532619140625
 72
 1
 10
94.607519921875
 20
21.3532619140625
 11
94.172975
 21
20.3162931640625
 72
 1
 10
94.172975
 20
20.3162931640625
 11
93.602445703125
 21
19.5273869140625
 72
 1
 10
93.602445703125
 20
19.5273869140625
 11
92.890646875
 21
18.9764181640625
 72
 1
 10
92.890646875
 20
18.9764181640625
 11
92.032293359375
 21
18.6532619140625
 72
 1
 10
92.032293359375
 20
18.6532619140625
 11
91.0221
 21
18.5477931640625
 72
 1
 10
91.0221
 20
18.5477931640625
 11
90.65873671875
 21
18.5589572265625
 72
 1
 10
90.65873671875
 20
18.5589572265625
 11
90.30988125
 21
18.5924806640625
 72
 1
 10
90.30988125
 20
18.5924806640625
 11
89.97588515625
 21
18.6484103515625
 72
 1
 10
89.97588515625
 20
18.6484103515625
 11
89.6571
 21
18.7267931640625
 72
 1
 10
89.6571
 20
18.7267931640625
 11
89.35387734375
 21
18.8276759765625
 72
 1
 10
89.35387734375
 20
18.8276759765625
 11
89.06656875
 21
18.9511056640625
 72
 1
 10
89.06656875
 20
18.9511056640625
 11
88.79552578125
 21
19.0971291015625
 72
 1
 10
88.79552578125
 20
19.0971291015625
 11
88.5411
 21
19.2657931640625
 72
 1
 10
88.5411
 20
19.2657931640625
 11
88.108449609375
 21
19.6732599609375
 72
 1
 10
88.108449609375
 20
19.6732599609375
 11
87.732459375
 21
20.2025900390624
 72
 1
 10
87.732459375
 20
20.2025900390624
 11
87.413445703125
 21
20.8548029296875
 72
 1
 10
87.413445703125
 20
20.8548029296875
 11
87.151725
 21
21.6309181640625
 72
 1
 10
87.151725
 20
21.6309181640625
 11
86.947613671875
 21
22.5319552734374
 72
 1
 10
86.947613671875
 20
22.5319552734374
 11
86.801428125
 21
23.5589337890625
 72
 1
 10
86.801428125
 20
23.5589337890625
 11
86.713484765625
 21
24.7128732421875
 72
 1
 10
86.713484765625
 20
24.7128732421875
 11
86.6841
 21
25.9947931640625
 72
 1
 10
86.6841
 20
25.9947931640625
 11
86.6996390625
 21
26.9049123046875
 72
 1
 10
86.6996390625
 20
26.9049123046875
 11
86.746725
 21
27.7529337890625
 72
 1
 10
86.746725
 20
27.7529337890625
 11
86.8260609375
 21
28.5413537109375
 72
 1
 10
86.8260609375
 20
28.5413537109375
 11
86.93835
 21
29.2726681640626
 72
 1
 10
86.93835
 20
29.2726681640626
 11
87.0842953125
 21
29.9493732421876
 72
 1
 10
87.0842953125
 20
29.9493732421876
 11
87.2646
 21
30.5739650390625
 72
 1
 10
87.2646
 20
30.5739650390625
 11
87.4799671875
 21
31.1489396484374
 72
 1
 10
87.4799671875
 20
31.1489396484374
 11
87.7311
 21
31.6767931640625
 72
 1
 10
87.7311
 20
31.6767931640625
 11
87.97562734375
 21
32.0727111328125
 72
 1
 10
87.97562734375
 20
32.0727111328125
 11
88.27825625
 21
32.4283869140625
 72
 1
 10
88.27825625
 20
32.4283869140625
 11
88.63268203125
 21
32.7399533203125
 72
 1
 10
88.63268203125
 20
32.7399533203125
 11
89.0326
 21
33.0035431640625
 72
 1
 10
89.0326
 20
33.0035431640625
 11
89.47170546875
 21
33.2152892578125
 72
 1
 10
89.47170546875
 20
33.2152892578125
 11
89.94369375
 21
33.3713244140624
 72
 1
 10
89.94369375
 20
33.3713244140624
 11
90.44226015625
 21
33.4677814453124
 72
 1
 10
90.44226015625
 20
33.4677814453124
 11
90.9611
 21
33.5007931640625
 72
 1
 10
90.9611
 20
33.5007931640625
 11
91.740430078125
 21
33.4307267578125
 72
 1
 10
91.740430078125
 20
33.4307267578125
 11
92.419740625
 21
33.2370744140625
 72
 1
 10
92.419740625
 20
33.2370744140625
 11
93.002887109375
 21
32.9446564453125
 72
 1
 10
93.002887109375
 20
32.9446564453125
 11
93.493725
 21
32.5782931640625
 72
 1
 10
93.493725
 20
32.5782931640625
 11
93.896109765625
 21
32.1628048828125
 72
 1
 10
93.896109765625
 20
32.1628048828125
 11
94.213896875
 21
31.7230119140625
 72
 1
 10
94.213896875
 20
31.7230119140625
 11
94.450941796875
 21
31.2837345703126
 72
 1
 10
94.450941796875
 20
31.2837345703126
 11
94.6111
 21
30.8697931640625
 97
 1
 330
700
 92
 0
 93
56             
 72
 1
 10
86.7151
 20
35.7147931640625
 11
85.662570703125
 21
35.0094123046875
 72
 1
 10
85.662570703125
 20
35.0094123046875
 11
84.731178125
 21
34.1337462890625
 72
 1
 10
84.731178125
 20
34.1337462890625
 11
83.926840234375
 21
33.1001349609375
 72
 1
 10
83.926840234375
 20
33.1001349609375
 11
83.255475
 21
31.9209181640625
 72
 1
 10
83.255475
 20
31.9209181640625
 11
82.723000390625
 21
30.6084357421875
 72
 1
 10
82.723000390625
 20
30.6084357421875
 11
82.335334375
 21
29.1750275390625
 72
 1
 10
82.335334375
 20
29.1750275390625
 11
82.098394921875
 21
27.6330333984375
 72
 1
 10
82.098394921875
 20
27.6330333984375
 11
82.0181
 21
25.9947931640625
 72
 1
 10
82.0181
 20
25.9947931640625
 11
82.055914453125
 21
24.8704513671875
 72
 1
 10
82.055914453125
 20
24.8704513671875
 11
82.169115625
 21
23.7877462890625
 72
 1
 10
82.169115625
 20
23.7877462890625
 11
82.357340234375
 21
22.7486583984375
 72
 1
 10
82.357340234375
 20
22.7486583984375
 11
82.620225
 21
21.7551681640625
 72
 1
 10
82.620225
 20
21.7551681640625
 11
82.957406640625
 21
20.8092560546875
 72
 1
 10
82.957406640625
 20
20.8092560546875
 11
83.368521875
 21
19.9129025390625
 72
 1
 10
83.368521875
 20
19.9129025390625
 11
83.853207421875
 21
19.0680880859375
 72
 1
 10
83.853207421875
 20
19.0680880859375
 11
84.4111
 21
18.2767931640625
 72
 1
 10
84.4111
 20
18.2767931640625
 11
85.027848046875
 21
17.5588322265625
 72
 1
 10
85.027848046875
 20
17.5588322265625
 11
85.694459375
 21
16.9489181640625
 72
 1
 10
85.694459375
 20
16.9489181640625
 11
86.418609765625
 21
16.4432541015625
 72
 1
 10
86.418609765625
 20
16.4432541015625
 11
87.207975
 21
16.0380431640625
 72
 1
 10
87.207975
 20
16.0380431640625
 11
88.070230859375
 21
15.7294884765625
 72
 1
 10
88.070230859375
 20
15.7294884765625
 11
89.013053125
 21
15.5137931640625
 72
 1
 10
89.013053125
 20
15.5137931640625
 11
90.044117578125
 21
15.3871603515624
 72
 1
 10
90.044117578125
 20
15.3871603515624
 11
91.1711
 21
15.3457931640625
 72
 1
 10
91.1711
 20
15.3457931640625
 11
91.796336328125
 21
15.3587833984375
 72
 1
 10
91.796336328125
 20
15.3587833984375
 11
92.375928125
 21
15.3989025390625
 72
 1
 10
92.375928125
 20
15.3989025390625
 11
92.917574609375
 21
15.4678732421875
 72
 1
 10
92.917574609375
 20
15.4678732421875
 11
93.428975
 21
15.5674181640625
 72
 1
 10
93.428975
 20
15.5674181640625
 11
93.917828515625
 21
15.6992599609375
 72
 1
 10
93.917828515625
 20
15.6992599609375
 11
94.391834375
 21
15.8651212890625
 72
 1
 10
94.391834375
 20
15.8651212890625
 11
94.858691796875
 21
16.0667248046875
 72
 1
 10
94.858691796875
 20
16.0667248046875
 11
95.3261
 21
16.3057931640625
 72
 1
 10
95.3261
 20
16.3057931640625
 11
96.38508046875
 21
17.0172443359375
 72
 1
 10
96.38508046875
 20
17.0172443359375
 11
97.31419375
 21
17.8926525390625
 72
 1
 10
97.31419375
 20
17.8926525390625
 11
98.10994765625
 21
18.9245998046875
 72
 1
 10
98.10994765625
 20
18.9245998046875
 11
98.76885
 21
20.1056681640625
 72
 1
 10
98.76885
 20
20.1056681640625
 11
99.28740859375
 21
21.4284396484375
 72
 1
 10
99.28740859375
 20
21.4284396484375
 11
99.66213125
 21
22.8854962890625
 72
 1
 10
99.66213125
 20
22.8854962890625
 11
99.88952578125
 21
24.4694201171876
 72
 1
 10
99.88952578125
 20
24.4694201171876
 11
99.9661
 21
26.1727931640625
 72
 1
 10
99.9661
 20
26.1727931640625
 11
99.8086859375
 21
28.4987404296875
 72
 1
 10
99.8086859375
 20
28.4987404296875
 11
99.3465375
 21
30.5736837890625
 72
 1
 10
99.3465375
 20
30.5736837890625
 11
98.5947953125
 21
32.3794005859375
 72
 1
 10
98.5947953125
 20
32.3794005859375
 11
97.5686
 21
33.8976681640625
 72
 1
 10
97.5686
 20
33.8976681640625
 11
96.2830921875
 21
35.1102638671875
 72
 1
 10
96.2830921875
 20
35.1102638671875
 11
94.7534125
 21
35.9989650390625
 72
 1
 10
94.7534125
 20
35.9989650390625
 11
92.9947015625
 21
36.5455490234375
 72
 1
 10
92.9947015625
 20
36.5455490234375
 11
91.0221
 21
36.7317931640625
 72
 1
 10
91.0221
 20
36.7317931640625
 11
90.440535546875
 21
36.7150822265625
 72
 1
 10
90.440535546875
 20
36.7150822265625
 11
89.864959375
 21
36.6654181640624
 72
 1
 10
89.864959375
 20
36.6654181640624
 11
89.298547265625
 21
36.5835041015625
 72
 1
 10
89.298547265625
 20
36.5835041015625
 11
88.744475
 21
36.4700431640625
 72
 1
 10
88.744475
 20
36.4700431640625
 11
88.205918359375
 21
36.3257384765625
 72
 1
 10
88.205918359375
 20
36.3257384765625
 11
87.686053125
 21
36.1512931640625
 72
 1
 10
87.686053125
 20
36.1512931640625
 11
87.188055078125
 21
35.9474103515625
 72
 1
 10
87.188055078125
 20
35.9474103515625
 11
86.7151
 21
35.7147931640625
 97
 1
 330
701
 75
 0
 76
 1
 98
 1
 10
 0.0
 20
 0.0
 0
LINE
 5
702
100
AcDbEntity
 8
Layer8
100
AcDbLine
 39
0.25
 370
106
 10
196.5319
 20
386.088493164062
 30
0.0
 11
196.5319
 21
386.193493164062
 31
0.0
 0
TEXT
 5
703
100
AcDbEntity
 8
Layer8
100
AcDbText
 40
9.6
 41
0.61000
 72
0
 50
0
  1
Ø 28
  7
STANDARD
 10
162.7856
 20
75.6450931640625
 30
0.0
 11
162.7856
 21
75.6450931640625
 31
0.0
100
AcDbText
 73
  1
 0
TEXT
 5
704
100
AcDbEntity
 8
Layer8
100
AcDbText
 40
9.6
 41
0.61000
 72
0
 50
0
  1
38
  7
STANDARD
 10
148.7612
 20
425.227193164063
 30
0.0
 11
148.7612
 21
425.227193164063
 31
0.0
100
AcDbText
 73
  1
 0
TEXT
 5
705
100
AcDbEntity
 8
Layer8
100
AcDbText
 40
9.6
 41
0.61000
 72
0
 50
0
  1
90fl
  7
STANDARD
 10
54.1412
 20
212.307725464063
 30
0.0
 11
54.1412
 21
212.307725464063
 31
0.0
100
AcDbText
 73
  1
 0
TEXT
 5
706
100
AcDbEntity
 8
Layer8
100
AcDbText
 40
9.6
 41
0.61000
 72
0
 50
-270
  1
43
  7
STANDARD
 10
41.5537
 20
156.996693164062
 30
0.0
 11
41.5537
 21
156.996693164062
 31
0.0
100
AcDbText
 73
  1
 0
TEXT
 5
707
100
AcDbEntity
 8
Layer8
100
AcDbText
 40
9.6
 41
0.61000
 72
0
 50
-270
  1
Ø 37
  7
STANDARD
 10
250.4465111
 20
331.644693164062
 30
0.0
 11
250.4465111
 21
331.644693164062
 31
0.0
100
AcDbText
 73
  1
  0
ENDSEC
  0
SECTION
  2
OBJECTS
  0
DICTIONARY
  5
19
100
AcDbDictionary
  3
ACAD_GROUP
350
1A
  3
ACAD_MLINESTYLE
350
1B
  0
DICTIONARY
  5
1A
102
{ACAD_REACTORS
330
19
102
}
100
AcDbDictionary
  0
DICTIONARY
  5
1B
102
{ACAD_REACTORS
330
19
102
}
100
AcDbDictionary
  3
STANDARD
350
1C
  0
MLINESTYLE
  5
1C
102
{ACAD_REACTORS
330
1B
102
}
100
AcDbMlineStyle
  2
STANDARD
 70
     0
  3

 62
     0
 51
90.0
 52
90.0
 71
     2
 49
0.5
 62
   256
  6
BYLAYER
 49
-0.5
 62
   256
  6
BYLAYER
  0
ENDSEC
  0
EOF
