 999
SCAN2CAD Date : 01/26/16
 999
SCAN2CAD ScalePixelX : 1
 999
SCAN2CAD ScalePixelY : 1
 999
SCAN2CAD TileXOffset : 0
 999
SCAN2CAD TileYOffset : 0
 999
SCAN2CAD MeasureType : 1
 999
SCAN2CAD DotsPerInch : 0
 999
SCAN2CAD GeScalePixX : 1
 999
SCAN2CAD GeScalePixY : 1
 999
SCAN2CAD GeRasTiePtX : 0
 999
SCAN2CAD GeRasTiePtY : 0
 999
SCAN2CAD ScalRasDist : 1
 999
SCAN2CAD ScalVecDist : 1
 999
SCAN2CAD ScalUnitTyp : 0
 999
SCAN2CAD ScalDistFac : 1
 999
SCAN2CAD ScalAdjustX : 1
 999
SCAN2CAD ScalAdjustY : 1
 999
SCAN2CAD MeasureMeth : 1
 999
SCAN2CAD OgDrawScale : 1
 999
SCAN2CAD OgDrawUType : 0
 999
SCAN2CAD ToDrawScale : 1
 999
SCAN2CAD ToDrawUType : 0
  0
SECTION
  2
HEADER
  9
$ACADVER
  1
AC1014
  9
$ACADMAINTVER
 70
     0
  9
$DWGCODEPAGE
  3
ANSI_1252
  9
$INSBASE
 10
0.0
 20
0.0
 30
0.0
 9
$EXTMIN
 10
26.3693
 20
18.618390234375
 30
0.0
 9
$EXTMAX
 10
170.4059
 20
412.528590234375
 30
0.0
 9
$LIMMIN
 10
0
 20
0
 9
$LIMMAX
 10
199
 20
441
  9
$ORTHOMODE
 70
     0
  9
$REGENMODE
 70
     1
  9
$FILLMODE
 70
     1
  9
$QTEXTMODE
 70
     0
  9
$MIRRTEXT
 70
     1
  9
$DRAGMODE
 70
     2
  9
$LTSCALE
 40
1.0
  9
$OSMODE
 70
     0
  9
$ATTMODE
 70
     1
  9
$TEXTSIZE
 40
0.2
  9
$TRACEWID
 40
0.05
  9
$TEXTSTYLE
  7
STANDARD
  9
$CLAYER
  8
0
  9
$CELTYPE
  6
CONTINUOUS
  9
$CECOLOR
 62
   256
  9
$CELTSCALE
 40
1.0
  9
$DELOBJ
 70
     1
  9
$DISPSILH
 70
     0
  9
$DIMSCALE
 40
1.0
  9
$DIMASZ
 40
0.18
  9
$DIMEXO
 40
0.0625
  9
$DIMDLI
 40
0.38
  9
$DIMRND
 40
0.0
  9
$DIMDLE
 40
0.0
  9
$DIMEXE
 40
0.18
  9
$DIMTP
 40
0.0
  9
$DIMTM
 40
0.0
  9
$DIMTXT
 40
0.18
  9
$DIMCEN
 40
0.09
  9
$DIMTSZ
 40
0.0
  9
$DIMTOL
 70
     0
  9
$DIMLIM
 70
     0
  9
$DIMTIH
 70
     1
  9
$DIMTOH
 70
     1
  9
$DIMSE1
 70
     0
  9
$DIMSE2
 70
     0
  9
$DIMTAD
 70
     0
  9
$DIMZIN
 70
     0
  9
$DIMBLK
  1

  9
$DIMASO
 70
     1
  9
$DIMSHO
 70
     1
  9
$DIMPOST
  1

  9
$DIMAPOST
  1

  9
$DIMALT
 70
     0
  9
$DIMALTD
 70
     2
  9
$DIMALTF
 40
25.4
  9
$DIMLFAC
 40
1.0
  9
$DIMTOFL
 70
     0
  9
$DIMTVP
 40
0.0
  9
$DIMTIX
 70
     0
  9
$DIMSOXD
 70
     0
  9
$DIMSAH
 70
     0
  9
$DIMBLK1
  1

  9
$DIMBLK2
  1

  9
$DIMSTYLE
  2
STANDARD
  9
$DIMCLRD
 70
     0
  9
$DIMCLRE
 70
     0
  9
$DIMCLRT
 70
     0
  9
$DIMTFAC
 40
1.0
  9
$DIMGAP
 40
0.09
  9
$DIMJUST
 70
     0
  9
$DIMSD1
 70
     0
  9
$DIMSD2
 70
     0
  9
$DIMTOLJ
 70
     1
  9
$DIMTZIN
 70
     0
  9
$DIMALTZ
 70
     0
  9
$DIMALTTZ
 70
     0
  9
$DIMFIT
 70
     3
  9
$DIMUPT
 70
     0
  9
$DIMUNIT
 70
     2
  9
$DIMDEC
 70
     4
  9
$DIMTDEC
 70
     4
  9
$DIMALTU
 70
     2
  9
$DIMALTTD
 70
     2
  9
$DIMTXSTY
  7
STANDARD
  9
$DIMAUNIT
 70
     0
  9
$LUNITS
 70
     2
  9
$LUPREC
 70
     4
  9
$SKETCHINC
 40
0.1
  9
$FILLETRAD
 40
0.0
  9
$AUNITS
 70
     0
  9
$AUPREC
 70
     0
  9
$MENU
  1
acad
  9
$ELEVATION
 40
0.0
  9
$PELEVATION
 40
0.0
  9
$THICKNESS
 40
0.0
  9
$LIMCHECK
 70
     0
  9
$BLIPMODE
 70
     1
  9
$CHAMFERA
 40
0.0
  9
$CHAMFERB
 40
0.0
  9
$CHAMFERC
 40
0.0
  9
$CHAMFERD
 40
0.0
  9
$SKPOLY
 70
     0
  9
$TDCREATE
 40
0.000000000
  9
$TDUPDATE
 40
0.000000000
  9
$TDINDWG
 40
0.0000000000
  9
$TDUSRTIMER
 40
0.0000000000
  9
$USRTIMER
 70
     1
  9
$ANGBASE
 50
0.0
  9
$ANGDIR
 70
     0
  9
$PDMODE
 70
     0
  9
$PDSIZE
 40
0.0
  9
$PLINEWID
 40
0.0
  9
$COORDS
 70
     0
  9
$SPLFRAME
 70
     0
  9
$SPLINETYPE
 70
     6
  9
$SPLINESEGS
 70
     8
  9
$ATTDIA
 70
     0
  9
$ATTREQ
 70
     1
  9
$HANDLING
 70
     1
  9
$HANDSEED
  5
      D0
  9
$SURFTAB1
 70
     6
  9
$SURFTAB2
 70
     6
  9
$SURFTYPE
 70
     6
  9
$SURFU
 70
     6
  9
$SURFV
 70
     6
  9
$UCSNAME
  2

  9
$UCSORG
 10
0.0
 20
0.0
 30
0.0
  9
$UCSXDIR
 10
1.0
 20
0.0
 30
0.0
  9
$UCSYDIR
 10
0.0
 20
1.0
 30
0.0
  9
$PUCSNAME
  2

  9
$PUCSORG
 10
0.0
 20
0.0
 30
0.0
  9
$PUCSXDIR
 10
1.0
 20
0.0
 30
0.0
  9
$PUCSYDIR
 10
0.0
 20
1.0
 30
0.0
  9
$USERI1
 70
     0
  9
$USERI2
 70
     0
  9
$USERI3
 70
     0
  9
$USERI4
 70
     0
  9
$USERI5
 70
     0
  9
$USERR1
 40
0.0
  9
$USERR2
 40
0.0
  9
$USERR3
 40
0.0
  9
$USERR4
 40
0.0
  9
$USERR5
 40
0.0
  9
$WORLDVIEW
 70
     1
  9
$SHADEDGE
 70
     3
  9
$SHADEDIF
 70
    70
  9
$TILEMODE
 70
     1
  9
$MAXACTVP
 70
    16
  9
$PINSBASE
 10
0.0
 20
0.0
 30
0.0
  9
$PLIMCHECK
 70
     0
 9
$PEXTMIN
 10
26.3693
 20
18.618390234375
 30
0.0
 9
$PEXTMAX
 10
170.4059
 20
412.528590234375
 30
0.0
 9
$PLIMMIN
 10
0
 20
0
 9
$PLIMMAX
 10
199
 20
441
  9
$UNITMODE
 70
     0
  9
$VISRETAIN
 70
     0
  9
$PLINEGEN
 70
     1
  9
$PSLTSCALE
 70
     0
  9
$TREEDEPTH
 70
  3020
  9
$PICKSTYLE
 70
     1
  9
$CMLSTYLE
  2
STANDARD
  9
$CMLJUST
 70
     0
  9
$CMLSCALE
 40
1.0
  9
$PROXYGRAPHICS
 70
     0
  9
$MEASUREMENT
 70
     0
  0
ENDSEC
  0
SECTION
  2
CLASSES
  0
CLASS
  1
LWPOLYLINE
  2
AcDbPolyline
  3
"AutoCAD"
 90
        0
280
     0
281
     1
  0
CLASS
  1
IMAGE
  2
AcDbRasterImage
  3
ISM
 90
      127
280
     0
281
     1
  0
CLASS
  1
OLE2FRAME
  2
AcDbOle2Frame
  3
""
 90
        0
280
     0
281
     1
  0
CLASS
  1
HATCH
  2
AcDbHatch
  3
"ACAD_SEDONA"
 90
        0
280
     0
281
     1
  0
CLASS
  1
DICTIONARYVAR
  2
AcDbDictionaryVar
  3
"AutoCAD"
 90
        0
280
     0
281
     0
  0
CLASS
  1
RASTERVARIABLES
  2
AcDbRasterVariables
  3
ISM
 90
        0
280
     0
281
     0
  0
CLASS
  1
IMAGEDEF
  2
AcDbRasterImageDef
  3
ISM
 90
        0
280
     0
281
     0
  0
CLASS
  1
IMAGEDEF_REACTOR
  2
AcDbRasterImageDefReactor
  3
ISM
 90
        1
280
     0
281
     0
  0
CLASS
  1
IDBUFFER
  2
AcDbIdBuffer
  3
"Acad"
 90
        0
280
     0
281
     0
  0
CLASS
  1
SPATIAL_FILTER
  2
AcDbSpatialFilter
  3
"Acad"
 90
        0
280
     0
281
     0
  0
CLASS
  1
XRECORD
  2
AcDbXrecord
  3
"<Built In>"
 90
        0
280
     0
281
     0
  0
CLASS
  1
SORTENTSTABLE
  2
AcDbSortentsTable
  3
"AutoCAD"
 90
        0
280
     0
281
     0
  0
CLASS
  1
LAYER_INDEX
  2
AcDbLayerIndex
  3
"Acad"
 90
        0
280
     0
281
     0
  0
CLASS
  1
SPATIAL_INDEX
  2
AcDbSpatialIndex
  3
"Acad"
 90
        0
280
     0
281
     0
  0
CLASS
  1
OBJECT_PTR
  2
CAseDLPNTableRecord
  3
"ASE-LPNTableRecord"
 90
        1
280
     0
281
     0
  0
ENDSEC
  0
SECTION
  2
TABLES
  0
TABLE
  2
VPORT
  5
7
100
AcDbSymbolTable
 70
     1
  0
VPORT
  5
15
100
AcDbSymbolTableRecord
100
AcDbViewportTableRecord
 2
*ACTIVE
 70
     0
 10
0
 20
0
 11
1.0
 21
1.0
 12
0.0
 22
0.0
 13
0.0
 23
0.0
 14
1.0
 24
1.0
 15
0.0
 25
0.0
 16
0.0
 26
0.0
 36
1.0
 17
98.3876
 27
215.573490234375
 37
0.0
 40
397.9102
 41
0.372035197891384
 42
50.0
 43
0.0
 44
0.0
 50
0.0
 51
0.0
 71
     0
 72
   100
 73
     1
 74
     1
 75
     0
 76
     0
 77
     0
 78
     0
   0
ENDTAB
  0
TABLE
  2
LTYPE
  5
4
100
AcDbSymbolTable
 70
3
  0
LTYPE
  5
11
100
AcDbSymbolTableRecord
100
AcDbLinetypeTableRecord
  2
BYBLOCK
 70
     0
  3

 72
    65
 73
     0
 40
0.0
  0
LTYPE
  5
12
100
AcDbSymbolTableRecord
100
AcDbLinetypeTableRecord
  2
BYLAYER
 70
     0
  3

 72
    65
 73
     0
 40
0.0
  0
LTYPE
  5
80
330
5
100
AcDbSymbolTableRecord
100
AcDbLinetypeTableRecord
  2
CONTINUOUS
 70
     0
  3
Continuous
 72
    65
 73
     0
 40
0.0
  0
LTYPE
  5
81
330
5
100
AcDbSymbolTableRecord
100
AcDbLinetypeTableRecord
  2
DASH
 70
     0
  3
Dash
 72
    65
 73
     2
 40
48.0
 49
24.0
 74
     0
 49
-24.0
 74
     0
  0
LTYPE
  5
82
330
5
100
AcDbSymbolTableRecord
100
AcDbLinetypeTableRecord
  2
DASHDOT
 70
     0
  3
DashDot
 72
    65
 73
     4
 40
48.0
 49
24.0
 74
     0
 49
 -12.0
 74
     0
 49
0.0
 74
     0
 49
 -12.0
 74
     0	
  0
ENDTAB
  0
TABLE
  2
LAYER
  5
2
100
AcDbSymbolTable
 70
4              
  0
LAYER
  5
83
100
AcDbSymbolTableRecord
100
AcDbLayerTableRecord
  2
0
 70
     0
 62
     7
  6
CONTINUOUS
 0
LAYER
  5
84
100
AcDbSymbolTableRecord
100
AcDbLayerTableRecord
 2
Layer0
 70
 64
 62
 7
 6
CONTINUOUS
 0
LAYER
  5
85
100
AcDbSymbolTableRecord
100
AcDbLayerTableRecord
 2
Layer8
 70
 64
 62
 8
 6
CONTINUOUS
 0
LAYER
  5
86
100
AcDbSymbolTableRecord
100
AcDbLayerTableRecord
 2
Layer22
 70
 64
 62
 22
 6
CONTINUOUS
  0
ENDTAB
  0
TABLE
  2
STYLE
  5
3
100
AcDbSymbolTable
 70
1              
 0
STYLE
 5
17
100
AcDbSymbolTableRecord
100
AcDbTextStyleTableRecord
 2
STANDARD
 70
 0
 40
 0.0
 41
 1.0
 50
 0.0
 71
  0
 42
 8.0
 3
 txt
 4

  0
ENDTAB
  0
TABLE
  2
VIEW
  5
5
100
AcDbSymbolTable
 70
     0
  0
ENDTAB
  0
TABLE
  2
UCS
  5
6
100
AcDbSymbolTable
 70
     0
  0
ENDTAB
  0
TABLE
  2
APPID
  5
8
100
AcDbSymbolTable
 70
     1
  0
APPID
  5
16
100
AcDbSymbolTableRecord
100
AcDbRegAppTableRecord
  2
ACAD
 70
     0
  0
ENDTAB
  0
TABLE
  2
DIMSTYLE
  5
9
100
AcDbSymbolTable
 70
     1
  0
DIMSTYLE
105
18
100
AcDbSymbolTableRecord
100
AcDbDimStyleTableRecord
  2
STANDARD
 70
     0
  3

  4

  5

  6

  7

 40
1.0
 41
0.18
 42
0.0625
 43
0.38
 44
0.18
 45
0.0
 46
0.0
 47
0.0
 48
0.0
140
0.18
141
0.09
142
0.0
143
25.4
144
1.0
145
0.0
146
1.0
147
0.09
 71
     0
 72
     0
 73
     1
 74
     1
 75
     0
 76
     0
 77
     0
 78
     0
170
     0
171
     2
172
     0
173
     0
174
     0
175
     0
176
     0
177
     0
178
     0
270
     2
271
     4
272
     4
273
     2
274
     2
340
17
275
     0
280
     0
281
     0
282
     0
283
     1
284
     0
285
     0
286
     0
287
     0
288
     0
  0
ENDTAB
  0
TABLE
  2
BLOCK_RECORD
  5
1
100
AcDbSymbolTable
 70
     0
  0
BLOCK_RECORD
  5
A
100
AcDbSymbolTableRecord
100
AcDbBlockTableRecord
  2
*MODEL_SPACE
  0
BLOCK_RECORD
  5
B
100
AcDbSymbolTableRecord
100
AcDbBlockTableRecord
  2
*PAPER_SPACE
  0
ENDTAB
  0
ENDSEC
  0
SECTION
  2
BLOCKS
  0
BLOCK
  5
D
100
AcDbEntity
  8
0
100
AcDbBlockBegin
  2
*MODEL_SPACE
 70
     0
 10
0.0
 20
0.0
 30
0.0
  3
*MODEL_SPACE
  1

  0
ENDBLK
  5
E
100
AcDbEntity
  8
0
100
AcDbBlockEnd
  0
BLOCK
  5
F
100
AcDbEntity
 67
     1
  8
0
100
AcDbBlockBegin
  2
*PAPER_SPACE
 70
     0
 10
0.0
 20
0.0
 30
0.0
  3
*PAPER_SPACE
  1

  0
ENDBLK
  5
10
100
AcDbEntity
 67
     1
  8
0
100
AcDbBlockEnd
 0
ENDSEC
 0
SECTION
 2
ENTITIES
 0
HATCH
 5
87
100
AcDbEntity
 8
Layer8
100
AcDbHatch
 10
 0.0
 20
 0.0
 30
 0.0
 210
 0.0
 220
 0.0
 230
 1.0
 2
SOLID
 70
 1
 71
 1
 91
3              
 92
 0
 93
54             
 72
 1
 10
72.1414
 20
79.850390234375
 11
71.893308203125
 21
80.232952734375
 72
 1
 10
71.893308203125
 20
80.232952734375
 11
71.695290625
 21
80.666327734375
 72
 1
 10
71.695290625
 20
80.666327734375
 11
71.542108984375
 21
81.142171484375
 72
 1
 10
71.542108984375
 20
81.142171484375
 11
71.428525
 21
81.6521402343749
 72
 1
 10
71.428525
 20
81.6521402343749
 11
71.349300390625
 21
82.1878902343749
 72
 1
 10
71.349300390625
 20
82.1878902343749
 11
71.299196875
 21
82.741077734375
 72
 1
 10
71.299196875
 20
82.741077734375
 11
71.272976171875
 21
83.3033589843749
 72
 1
 10
71.272976171875
 20
83.3033589843749
 11
71.2654
 21
83.866390234375
 72
 1
 10
71.2654
 20
83.866390234375
 11
71.28702890625
 21
84.76843515625
 72
 1
 10
71.28702890625
 20
84.76843515625
 11
71.36418125
 21
85.6527496093751
 72
 1
 10
71.36418125
 20
85.6527496093751
 11
71.51525546875
 21
86.487728125
 72
 1
 10
71.51525546875
 20
86.487728125
 11
71.75865
 21
87.241765234375
 72
 1
 10
71.75865
 20
87.241765234375
 11
72.11276328125
 21
87.88325546875
 72
 1
 10
72.11276328125
 20
87.88325546875
 11
72.59599375
 21
88.380593359375
 72
 1
 10
72.59599375
 20
88.380593359375
 11
73.22673984375
 21
88.7021734375
 72
 1
 10
73.22673984375
 20
88.7021734375
 11
74.0234
 21
88.816390234375
 72
 1
 10
74.0234
 20
88.816390234375
 11
74.228249609375
 21
88.810737890625
 72
 1
 10
74.228249609375
 20
88.810737890625
 11
74.420384375
 21
88.793671484375
 72
 1
 10
74.420384375
 20
88.793671484375
 11
74.600683203125
 21
88.765026953125
 72
 1
 10
74.600683203125
 20
88.765026953125
 11
74.770025
 21
88.724640234375
 72
 1
 10
74.770025
 20
88.724640234375
 11
74.929288671875
 21
88.672347265625
 72
 1
 10
74.929288671875
 20
88.672347265625
 11
75.079353125
 21
88.6079839843751
 72
 1
 10
75.079353125
 20
88.6079839843751
 11
75.221097265625
 21
88.5313863281251
 72
 1
 10
75.221097265625
 20
88.5313863281251
 11
75.3554
 21
88.442390234375
 72
 1
 10
75.3554
 20
88.442390234375
 11
75.6424
 21
89.231390234375
 72
 1
 10
75.6424
 20
89.231390234375
 11
76.2914
 21
88.936390234375
 72
 1
 10
76.2914
 20
88.936390234375
 11
75.9084
 21
87.909390234375
 72
 1
 10
75.9084
 20
87.909390234375
 11
76.148941015625
 21
87.51865390625
 72
 1
 10
76.148941015625
 20
87.51865390625
 11
76.343228125
 21
87.082062109375
 72
 1
 10
76.343228125
 20
87.082062109375
 11
76.495632421875
 21
86.606165625
 72
 1
 10
76.495632421875
 20
86.606165625
 11
76.610525
 21
86.097515234375
 72
 1
 10
76.610525
 20
86.097515234375
 11
76.692276953125
 21
85.56266171875
 72
 1
 10
76.692276953125
 20
85.56266171875
 11
76.745259375
 21
85.008155859375
 72
 1
 10
76.745259375
 20
85.008155859375
 11
76.773843359375
 21
84.4405484375
 72
 1
 10
76.773843359375
 20
84.4405484375
 11
76.7824
 21
83.866390234375
 72
 1
 10
76.7824
 20
83.866390234375
 11
76.760769140625
 21
82.96368515625
 72
 1
 10
76.760769140625
 20
82.96368515625
 11
76.683603125
 21
82.078874609375
 72
 1
 10
76.683603125
 20
82.078874609375
 11
76.532491796875
 21
81.243540625
 72
 1
 10
76.532491796875
 20
81.243540625
 11
76.289025
 21
80.489265234375
 72
 1
 10
76.289025
 20
80.489265234375
 11
75.934792578125
 21
79.84763046875
 72
 1
 10
75.934792578125
 20
79.84763046875
 11
75.451384375
 21
79.350218359375
 72
 1
 10
75.451384375
 20
79.350218359375
 11
74.820390234375
 21
79.0286109375
 72
 1
 10
74.820390234375
 20
79.0286109375
 11
74.0234
 21
78.914390234375
 72
 1
 10
74.0234
 20
78.914390234375
 11
73.833913671875
 21
78.9201265625
 72
 1
 10
73.833913671875
 20
78.9201265625
 11
73.651071875
 21
78.937405859375
 72
 1
 10
73.651071875
 20
78.937405859375
 11
73.475050390625
 21
78.96633359375
 72
 1
 10
73.475050390625
 20
78.96633359375
 11
73.306025
 21
79.007015234375
 72
 1
 10
73.306025
 20
79.007015234375
 11
73.144171484375
 21
79.05955625
 72
 1
 10
73.144171484375
 20
79.05955625
 11
72.989665625
 21
79.124062109375
 72
 1
 10
72.989665625
 20
79.124062109375
 11
72.842683203125
 21
79.20063828125
 72
 1
 10
72.842683203125
 20
79.20063828125
 11
72.7034
 21
79.289390234375
 72
 1
 10
72.7034
 20
79.289390234375
 11
72.3924
 21
78.461390234375
 72
 1
 10
72.3924
 20
78.461390234375
 11
71.7424
 21
78.782390234375
 72
 1
 10
71.7424
 20
78.782390234375
 11
72.1414
 21
79.850390234375
 97
 1
 330
88
 92
 0
 93
25             
 72
 1
 10
74.9834
 20
87.455390234375
 11
74.88923984375
 21
87.548948828125
 72
 1
 10
74.88923984375
 20
87.548948828125
 11
74.78755625
 21
87.630108984375
 72
 1
 10
74.78755625
 20
87.630108984375
 11
74.67841953125
 21
87.698847265625
 72
 1
 10
74.67841953125
 20
87.698847265625
 11
74.5619
 21
87.755140234375
 72
 1
 10
74.5619
 20
87.755140234375
 11
74.43806796875
 21
87.798964453125
 72
 1
 10
74.43806796875
 20
87.798964453125
 11
74.30699375
 21
87.830296484375
 72
 1
 10
74.30699375
 20
87.830296484375
 11
74.16874765625
 21
87.849112890625
 72
 1
 10
74.16874765625
 20
87.849112890625
 11
74.0234
 21
87.855390234375
 72
 1
 10
74.0234
 20
87.855390234375
 11
73.532202734375
 21
87.77426328125
 72
 1
 10
73.532202734375
 20
87.77426328125
 11
73.147446875
 21
87.541624609375
 72
 1
 10
73.147446875
 20
87.541624609375
 11
72.856511328125
 21
87.1735874999999
 72
 1
 10
72.856511328125
 20
87.1735874999999
 11
72.646775
 21
86.686265234375
 72
 1
 10
72.646775
 20
86.686265234375
 11
72.505616796875
 21
86.09577109375
 72
 1
 10
72.505616796875
 20
86.09577109375
 11
72.420415625
 21
85.418218359375
 72
 1
 10
72.420415625
 20
85.418218359375
 11
72.378550390625
 21
84.6697203125
 72
 1
 10
72.378550390625
 20
84.6697203125
 11
72.3674
 21
83.866390234375
 72
 1
 10
72.3674
 20
83.866390234375
 11
72.369819921875
 21
83.472858984375
 72
 1
 10
72.369819921875
 20
83.472858984375
 11
72.377946875
 21
83.093577734375
 72
 1
 10
72.377946875
 20
83.093577734375
 11
72.393081640625
 21
82.729015234375
 72
 1
 10
72.393081640625
 20
82.729015234375
 11
72.416525
 21
82.379640234375
 72
 1
 10
72.416525
 20
82.379640234375
 11
72.449577734375
 21
82.045921484375
 72
 1
 10
72.449577734375
 20
82.045921484375
 11
72.493540625
 21
81.7283277343751
 72
 1
 10
72.493540625
 20
81.7283277343751
 11
72.549714453125
 21
81.4273277343751
 72
 1
 10
72.549714453125
 20
81.4273277343751
 11
72.6194
 21
81.143390234375
 72
 1
 10
72.6194
 20
81.143390234375
 11
74.9834
 21
87.455390234375
 97
 1
 330
89
 92
 0
 93
25             
 72
 1
 10
73.0764
 20
80.276390234375
 11
73.16975546875
 21
80.1825015625
 72
 1
 10
73.16975546875
 20
80.1825015625
 11
73.26993125
 21
80.101093359375
 72
 1
 10
73.26993125
 20
80.101093359375
 11
73.37709140625
 21
80.0321773437499
 72
 1
 10
73.37709140625
 20
80.0321773437499
 11
73.4914
 21
79.975765234375
 72
 1
 10
73.4914
 20
79.975765234375
 11
73.61302109375
 21
79.93186875
 72
 1
 10
73.61302109375
 20
79.93186875
 11
73.74211875
 21
79.900499609375
 72
 1
 10
73.74211875
 20
79.900499609375
 11
73.87885703125
 21
79.88166953125
 72
 1
 10
73.87885703125
 20
79.88166953125
 11
74.0234
 21
79.875390234375
 72
 1
 10
74.0234
 20
79.875390234375
 11
74.5147984375
 21
79.956480078125
 72
 1
 10
74.5147984375
 20
79.956480078125
 11
74.8994625
 21
80.189046484375
 72
 1
 10
74.8994625
 20
80.189046484375
 11
75.1900953125
 21
80.557034765625
 72
 1
 10
75.1900953125
 20
80.557034765625
 11
75.3994
 21
81.044390234375
 72
 1
 10
75.3994
 20
81.044390234375
 11
75.5400796875
 21
81.635058203125
 72
 1
 10
75.5400796875
 20
81.635058203125
 11
75.6248375
 21
82.312983984375
 72
 1
 10
75.6248375
 20
82.312983984375
 11
75.6663765625
 21
83.062112890625
 72
 1
 10
75.6663765625
 20
83.062112890625
 11
75.6774
 21
83.866390234375
 72
 1
 10
75.6774
 20
83.866390234375
 11
75.674980078125
 21
84.260929296875
 72
 1
 10
75.674980078125
 20
84.260929296875
 11
75.666853125
 21
84.643890234375
 72
 1
 10
75.666853125
 20
84.643890234375
 11
75.651718359375
 21
85.013538671875
 72
 1
 10
75.651718359375
 20
85.013538671875
 11
75.628275
 21
85.368140234375
 72
 1
 10
75.628275
 20
85.368140234375
 11
75.595222265625
 21
85.705960546875
 72
 1
 10
75.595222265625
 20
85.705960546875
 11
75.551259375
 21
86.025265234375
 72
 1
 10
75.551259375
 20
86.025265234375
 11
75.495085546875
 21
86.324319921875
 72
 1
 10
75.495085546875
 20
86.324319921875
 11
75.4254
 21
86.601390234375
 72
 1
 10
75.4254
 20
86.601390234375
 11
73.0764
 21
80.276390234375
 97
 1
 330
8A
 75
 0
 76
 1
 98
 1
 10
 0.0
 20
 0.0
 0
LINE
 5
8B
100
AcDbEntity
 8
Layer8
100
AcDbLine
 39
0.25
 370
106
 10
30.7918
 20
94.272190234375
 30
0.0
 11
30.7918
 21
72.615190234375
 31
0.0
 0
HATCH
 5
8C
100
AcDbEntity
 8
Layer8
100
AcDbHatch
 10
 0.0
 20
 0.0
 30
 0.0
 210
 0.0
 220
 0.0
 230
 1.0
 2
SOLID
 70
 1
 71
 1
 91
2              
 92
 0
 93
11             
 72
 1
 10
156.7625
 20
329.145290234375
 11
156.7625
 21
330.153290234375
 72
 1
 10
156.7625
 20
330.153290234375
 11
162.9645
 21
330.153290234375
 72
 1
 10
162.9645
 20
330.153290234375
 11
162.9645
 21
331.114290234375
 72
 1
 10
162.9645
 20
331.114290234375
 11
163.9255
 21
331.114290234375
 72
 1
 10
163.9255
 20
331.114290234375
 11
163.9255
 21
330.153290234375
 72
 1
 10
163.9255
 20
330.153290234375
 11
166.2085
 21
330.153290234375
 72
 1
 10
166.2085
 20
330.153290234375
 11
166.2085
 21
329.145290234375
 72
 1
 10
166.2085
 20
329.145290234375
 11
163.9255
 21
329.145290234375
 72
 1
 10
163.9255
 20
329.145290234375
 11
163.9255
 21
326.075290234375
 72
 1
 10
163.9255
 20
326.075290234375
 11
162.8725
 21
326.075290234375
 72
 1
 10
162.8725
 20
326.075290234375
 11
156.7625
 21
329.145290234375
 97
 1
 330
8D
 92
 0
 93
4              
 72
 1
 10
162.9645
 20
326.989290234375
 11
162.9645
 21
329.145290234375
 72
 1
 10
162.9645
 20
329.145290234375
 11
158.6055
 21
329.145290234375
 72
 1
 10
158.6055
 20
329.145290234375
 11
158.6055
 21
329.122290234375
 72
 1
 10
158.6055
 20
329.122290234375
 11
162.9645
 21
326.989290234375
 97
 1
 330
8E
 75
 0
 76
 1
 98
 1
 10
 0.0
 20
 0.0
 0
HATCH
 5
8F
100
AcDbEntity
 8
Layer8
100
AcDbHatch
 10
 0.0
 20
 0.0
 30
 0.0
 210
 0.0
 220
 0.0
 230
 1.0
 2
SOLID
 70
 1
 71
 1
 91
1              
 92
 0
 93
72             
 72
 1
 10
156.948
 20
332.854290234375
 11
156.948
 21
336.645290234375
 72
 1
 10
156.948
 20
336.645290234375
 11
157.988
 21
336.645290234375
 72
 1
 10
157.988
 20
336.645290234375
 11
157.988
 21
333.661290234375
 72
 1
 10
157.988
 20
333.661290234375
 11
160.726
 21
333.322290234375
 72
 1
 10
160.726
 20
333.322290234375
 11
160.751
 21
333.346290234375
 72
 1
 10
160.751
 20
333.346290234375
 11
160.586541015625
 21
333.487091015625
 72
 1
 10
160.586541015625
 20
333.487091015625
 11
160.443515625
 21
333.645446484375
 72
 1
 10
160.443515625
 20
333.645446484375
 11
160.322076171875
 21
333.819036328125
 72
 1
 10
160.322076171875
 20
333.819036328125
 11
160.222375
 21
334.005540234375
 72
 1
 10
160.222375
 20
334.005540234375
 11
160.144564453125
 21
334.202637890625
 72
 1
 10
160.144564453125
 20
334.202637890625
 11
160.088796875
 21
334.408008984375
 72
 1
 10
160.088796875
 20
334.408008984375
 11
160.055224609375
 21
334.619333203125
 72
 1
 10
160.055224609375
 20
334.619333203125
 11
160.044
 21
334.834290234375
 72
 1
 10
160.044
 20
334.834290234375
 11
160.096095703125
 21
335.294676953125
 72
 1
 10
160.096095703125
 20
335.294676953125
 11
160.250390625
 21
335.709571484375
 72
 1
 10
160.250390625
 20
335.709571484375
 11
160.503896484375
 21
336.074075390625
 72
 1
 10
160.503896484375
 20
336.074075390625
 11
160.853625
 21
336.383290234375
 72
 1
 10
160.853625
 20
336.383290234375
 11
161.296587890625
 21
336.632317578125
 72
 1
 10
161.296587890625
 20
336.632317578125
 11
161.829796875
 21
336.816258984375
 72
 1
 10
161.829796875
 20
336.816258984375
 11
162.450263671875
 21
336.930216015625
 72
 1
 10
162.450263671875
 20
336.930216015625
 11
163.155
 21
336.969290234375
 72
 1
 10
163.155
 20
336.969290234375
 11
163.799818359375
 21
336.935958203125
 72
 1
 10
163.799818359375
 20
336.935958203125
 11
164.404171875
 21
336.832946484375
 72
 1
 10
164.404171875
 20
336.832946484375
 11
164.954033203125
 21
336.655731640625
 72
 1
 10
164.954033203125
 20
336.655731640625
 11
165.435375
 21
336.399790234375
 72
 1
 10
165.435375
 20
336.399790234375
 11
165.834169921875
 21
336.060598828125
 72
 1
 10
165.834169921875
 20
336.060598828125
 11
166.136390625
 21
335.633633984375
 72
 1
 10
166.136390625
 20
335.633633984375
 11
166.328009765625
 21
335.114372265625
 72
 1
 10
166.328009765625
 20
335.114372265625
 11
166.395
 21
334.498290234375
 72
 1
 10
166.395
 20
334.498290234375
 11
166.3138125
 21
333.820106640625
 72
 1
 10
166.3138125
 20
333.820106640625
 11
166.0933125
 21
333.285196484375
 72
 1
 10
166.0933125
 20
333.285196484375
 11
165.76809375
 21
332.877270703125
 72
 1
 10
165.76809375
 20
332.877270703125
 11
165.37275
 21
332.580040234375
 72
 1
 10
165.37275
 20
332.580040234375
 11
164.941875
 21
332.377216015625
 72
 1
 10
164.941875
 20
332.377216015625
 11
164.5100625
 21
332.252508984375
 72
 1
 10
164.5100625
 20
332.252508984375
 11
164.11190625
 21
332.189630078125
 72
 1
 10
164.11190625
 20
332.189630078125
 11
163.782
 21
332.172290234375
 72
 1
 10
163.782
 20
332.172290234375
 11
163.782
 21
333.227290234375
 72
 1
 10
163.782
 20
333.227290234375
 11
163.99763671875
 21
333.23671015625
 72
 1
 10
163.99763671875
 20
333.23671015625
 11
164.26003125
 21
333.271149609375
 72
 1
 10
164.26003125
 20
333.271149609375
 11
164.54591015625
 21
333.339878125
 72
 1
 10
164.54591015625
 20
333.339878125
 11
164.832
 21
333.452165234375
 72
 1
 10
164.832
 20
333.452165234375
 11
165.09502734375
 21
333.61728046875
 72
 1
 10
165.09502734375
 20
333.61728046875
 11
165.31171875
 21
333.844493359375
 72
 1
 10
165.31171875
 20
333.844493359375
 11
165.45880078125
 21
334.1430734375
 72
 1
 10
165.45880078125
 20
334.1430734375
 11
165.513
 21
334.522290234375
 72
 1
 10
165.513
 20
334.522290234375
 11
165.446927734375
 21
334.926878125
 72
 1
 10
165.446927734375
 20
334.926878125
 11
165.264546875
 21
335.246305859375
 72
 1
 10
165.264546875
 20
335.246305859375
 11
164.989611328125
 21
335.49019453125
 72
 1
 10
164.989611328125
 20
335.49019453125
 11
164.645875
 21
335.668165234375
 72
 1
 10
164.645875
 20
335.668165234375
 11
164.257091796875
 21
335.7898390625
 72
 1
 10
164.257091796875
 20
335.7898390625
 11
163.847015625
 21
335.864837109375
 72
 1
 10
163.847015625
 20
335.864837109375
 11
163.439400390625
 21
335.90278046875
 72
 1
 10
163.439400390625
 20
335.90278046875
 11
163.058
 21
335.913290234375
 72
 1
 10
163.058
 20
335.913290234375
 11
162.66837109375
 21
335.896294140625
 72
 1
 10
162.66837109375
 20
335.896294140625
 11
162.28696875
 21
335.842383984375
 72
 1
 10
162.28696875
 20
335.842383984375
 11
161.92726953125
 21
335.747176953125
 72
 1
 10
161.92726953125
 20
335.747176953125
 11
161.60275
 21
335.606290234375
 72
 1
 10
161.60275
 20
335.606290234375
 11
161.32688671875
 21
335.415341015625
 72
 1
 10
161.32688671875
 20
335.415341015625
 11
161.11315625
 21
335.169946484375
 72
 1
 10
161.11315625
 20
335.169946484375
 11
160.97503515625
 21
334.865723828125
 72
 1
 10
160.97503515625
 20
334.865723828125
 11
160.926
 21
334.498290234375
 72
 1
 10
160.926
 20
334.498290234375
 11
160.956130859375
 21
334.23689375
 72
 1
 10
160.956130859375
 20
334.23689375
 11
161.037484375
 21
334.002555859375
 72
 1
 10
161.037484375
 20
334.002555859375
 11
161.156501953125
 21
333.79767890625
 72
 1
 10
161.156501953125
 20
333.79767890625
 11
161.299625
 21
333.624665234375
 72
 1
 10
161.299625
 20
333.624665234375
 11
161.453294921875
 21
333.4859171875
 72
 1
 10
161.453294921875
 20
333.4859171875
 11
161.603953125
 21
333.383837109375
 72
 1
 10
161.603953125
 20
333.383837109375
 11
161.738041015625
 21
333.32082734375
 72
 1
 10
161.738041015625
 20
333.32082734375
 11
161.842
 21
333.299290234375
 72
 1
 10
161.842
 20
333.299290234375
 11
161.792
 21
332.387290234375
 72
 1
 10
161.792
 20
332.387290234375
 11
156.948
 21
332.854290234375
 97
 1
 330
90
 75
 0
 76
 1
 98
 1
 10
 0.0
 20
 0.0
 0
LINE
 5
91
100
AcDbEntity
 8
Layer8
100
AcDbLine
 39
0.25
 370
106
 10
133.1638
 20
94.272190234375
 30
0.0
 11
133.1638
 21
72.615190234375
 31
0.0
 0
LINE
 5
92
100
AcDbEntity
 8
Layer8
100
AcDbLine
 39
0.25
 370
106
 10
153.4109
 20
251.314190234375
 30
0.0
 11
170.4059
 21
251.314190234375
 31
0.0
 0
CIRCLE
 5
93
100
AcDbEntity
 8
Layer8
100
AcDbCircle
 39
0.25
 370
106
 10
80.8182
 20
160.842090234375
 30
0.0
 40
6.9345
 370
106
 0
CIRCLE
 5
94
100
AcDbEntity
 8
Layer8
100
AcDbCircle
 39
0.25
 370
106
 10
80.8176
 20
160.843090234375
 30
0.0
 40
37.18825
 370
106
 0
CIRCLE
 5
95
100
AcDbEntity
 8
Layer8
100
AcDbCircle
 39
0.25
 370
106
 10
80.8178
 20
160.842590234375
 30
0.0
 40
52.346
 370
106
 0
LINE
 5
96
100
AcDbEntity
 8
Layer8
100
AcDbLine
 39
0.25
 370
106
 10
153.4109
 20
412.528190234375
 30
0.0
 11
170.4059
 21
412.528190234375
 31
0.0
 0
LINE
 5
97
100
AcDbEntity
 8
Layer8
100
AcDbLine
 39
0.25
 370
106
 10
94.7644
 20
251.138490234375
 30
0.0
 11
99.5104
 21
251.138490234375
 31
0.0
 0
LINE
 5
98
100
AcDbEntity
 8
Layer8
100
AcDbLine
 39
0.25
 370
106
 10
77.617
 20
302.161890234375
 30
0.0
 11
85.14
 21
302.161890234375
 31
0.0
 0
LINE
 5
99
100
AcDbEntity
 8
Layer8
100
AcDbLine
 39
0.25
 370
106
 10
67.9558
 20
251.138490234375
 30
0.0
 11
94.7648
 21
251.138490234375
 31
0.0
 0
LINE
 5
9A
100
AcDbEntity
 8
Layer8
100
AcDbLine
 39
0.25
 370
106
 10
99.5105
 20
251.138490234375
 30
0.0
 11
99.6441666666667
 21
251.175156901042
 31
0.0
 0
LINE
 5
9B
100
AcDbEntity
 8
Layer8
100
AcDbLine
 39
0.25
 370
106
 10
99.6441666666667
 20
251.175156901042
 30
0.0
 11
99.7405
 21
251.271823567708
 31
0.0
 0
LINE
 5
9C
100
AcDbEntity
 8
Layer8
100
AcDbLine
 39
0.25
 370
106
 10
99.7405
 20
251.271823567708
 30
0.0
 11
99.7775
 21
251.408490234375
 31
0.0
 0
LINE
 5
9D
100
AcDbEntity
 8
Layer8
100
AcDbLine
 39
0.25
 370
106
 10
99.7775
 20
251.408490234375
 30
0.0
 11
99.7763518518519
 21
251.436193938079
 31
0.0
 0
LINE
 5
9E
100
AcDbEntity
 8
Layer8
100
AcDbLine
 39
0.25
 370
106
 10
99.7763518518519
 20
251.436193938079
 30
0.0
 11
99.7723148148148
 21
251.463453197338
 31
0.0
 0
LINE
 5
9F
100
AcDbEntity
 8
Layer8
100
AcDbLine
 39
0.25
 370
106
 10
99.7723148148148
 20
251.463453197338
 30
0.0
 11
99.7645
 21
251.490490234375
 31
0.0
 0
LINE
 5
A0
100
AcDbEntity
 8
Layer8
100
AcDbLine
 39
0.25
 370
106
 10
63.2195
 20
251.138490234375
 30
0.0
 11
99.5105
 21
251.138490234375
 31
0.0
 0
LINE
 5
A1
100
AcDbEntity
 8
Layer8
100
AcDbLine
 39
0.25
 370
106
 10
77.617
 20
302.161890234375
 30
0.0
 11
85.14
 21
302.161890234375
 31
0.0
 0
LINE
 5
A2
100
AcDbEntity
 8
Layer8
100
AcDbLine
 39
0.25
 370
106
 10
76.5476
 20
401.522190234375
 30
0.0
 11
86.2126
 21
401.522190234375
 31
0.0
 0
LINE
 5
A3
100
AcDbEntity
 8
Layer8
100
AcDbLine
 39
0.25
 370
106
 10
133.7498
 20
401.665790234375
 30
0.0
 11
29.0108
 21
401.665790234375
 31
0.0
 0
LINE
 5
A4
100
AcDbEntity
 8
Layer8
100
AcDbLine
 39
0.25
 370
106
 10
85.1404
 20
301.699990234375
 30
0.0
 11
85.1404
 21
302.161990234375
 31
0.0
 0
LINE
 5
A5
100
AcDbEntity
 8
Layer8
100
AcDbLine
 39
0.25
 370
106
 10
77.617
 20
302.161890234375
 30
0.0
 11
77.617
 21
301.699890234375
 31
0.0
 0
LINE
 5
A6
100
AcDbEntity
 8
Layer8
100
AcDbLine
 39
0.25
 370
106
 10
62.9627
 20
251.489990234375
 30
0.0
 11
62.9574037037037
 21
251.349879123264
 31
0.0
 0
LINE
 5
A7
100
AcDbEntity
 8
Layer8
100
AcDbLine
 39
0.25
 370
106
 10
62.9574037037037
 20
251.349879123264
 30
0.0
 11
63.0183296296296
 21
251.228434678819
 31
0.0
 0
LINE
 5
A8
100
AcDbEntity
 8
Layer8
100
AcDbLine
 39
0.25
 370
106
 10
63.0183296296296
 20
251.228434678819
 30
0.0
 11
63.1377
 21
251.150990234375
 31
0.0
 0
LINE
 5
A9
100
AcDbEntity
 8
Layer8
100
AcDbLine
 39
0.25
 370
106
 10
63.1377
 20
251.150990234375
 30
0.0
 11
63.1638481481482
 21
251.144064308449
 31
0.0
 0
LINE
 5
AA
100
AcDbEntity
 8
Layer8
100
AcDbLine
 39
0.25
 370
106
 10
63.1638481481482
 20
251.144064308449
 30
0.0
 11
63.1915518518519
 21
251.139582826968
 31
0.0
 0
LINE
 5
AB
100
AcDbEntity
 8
Layer8
100
AcDbLine
 39
0.25
 370
106
 10
63.1915518518519
 20
251.139582826968
 30
0.0
 11
63.2197
 21
251.137990234375
 31
0.0
 0
ARC
 5
AC
100
AcDbEntity
 8
Layer8
100
AcDbCircle
 39
0.25
 370
106
 10
45.7397462178418
 20
301.630648859848
 30
0.0
 40
31.8728171199904
100
AcDbArc
 50
-18.0760315145484
 51
0.114224449716249
 0
ARC
 5
AD
100
AcDbEntity
 8
Layer8
100
AcDbCircle
 39
0.25
 370
106
 10
117.519701023835
 20
301.713468031171
 30
0.0
 40
32.3772067629568
100
AcDbArc
 50
-179.965885369053
 51
-162.061075037058
 0
LINE
 5
AE
100
AcDbEntity
 8
Layer8
100
AcDbLine
 39
0.25
 370
106
 10
62.9675
 20
251.484190234375
 30
0.0
 11
76.0395
 21
291.741190234375
 31
0.0
 0
LINE
 5
AF
100
AcDbEntity
 8
Layer8
100
AcDbLine
 39
0.25
 370
106
 10
77.6125
 20
301.694190234375
 30
0.0
 11
85.1425
 21
301.694190234375
 31
0.0
 0
LINE
 5
B0
100
AcDbEntity
 8
Layer8
100
AcDbLine
 39
0.25
 370
106
 10
86.7165
 20
291.741190234375
 30
0.0
 11
98.5145
 21
255.438190234375
 31
0.0
 0
LINE
 5
B1
100
AcDbEntity
 8
Layer8
100
AcDbLine
 39
0.25
 370
106
 10
98.5145
 20
255.438190234375
 30
0.0
 11
98.3895
 21
255.438190234375
 31
0.0
 0
LINE
 5
B2
100
AcDbEntity
 8
Layer8
100
AcDbLine
 39
0.25
 370
106
 10
98.3895
 20
255.438190234375
 30
0.0
 11
99.7595
 21
251.484190234375
 31
0.0
 0
LINE
 5
B3
100
AcDbEntity
 8
Layer8
100
AcDbLine
 39
0.25
 370
106
 10
99.7595
 20
251.484190234375
 30
0.0
 11
62.9675
 21
251.484190234375
 31
0.0
 0
LINE
 5
B4
100
AcDbEntity
 8
Layer8
100
AcDbLine
 39
0.25
 370
106
 10
77.617
 20
401.522190234375
 30
0.0
 11
77.617
 21
302.162190234375
 31
0.0
 0
LINE
 5
B5
100
AcDbEntity
 8
Layer8
100
AcDbLine
 39
0.25
 370
106
 10
86.2127
 20
401.522190234375
 30
0.0
 11
86.3468111111111
 21
401.538856901042
 31
0.0
 0
LINE
 5
B6
100
AcDbEntity
 8
Layer8
100
AcDbLine
 39
0.25
 370
106
 10
86.3468111111111
 20
401.538856901042
 30
0.0
 11
86.4695888888889
 21
401.587523567708
 31
0.0
 0
LINE
 5
B7
100
AcDbEntity
 8
Layer8
100
AcDbLine
 39
0.25
 370
106
 10
86.4695888888889
 20
401.587523567708
 30
0.0
 11
86.5757
 21
401.666190234375
 31
0.0
 0
LINE
 5
B8
100
AcDbEntity
 8
Layer8
100
AcDbLine
 39
0.25
 370
106
 10
76.1814
 20
401.665790234375
 30
0.0
 11
76.2902888888889
 21
401.587123567708
 31
0.0
 0
LINE
 5
B9
100
AcDbEntity
 8
Layer8
100
AcDbLine
 39
0.25
 370
106
 10
76.2902888888889
 20
401.587123567708
 30
0.0
 11
76.4138444444445
 21
401.538456901042
 31
0.0
 0
LINE
 5
BA
100
AcDbEntity
 8
Layer8
100
AcDbLine
 39
0.25
 370
106
 10
76.4138444444445
 20
401.538456901042
 30
0.0
 11
76.5474
 21
401.521790234375
 31
0.0
 0
LINE
 5
BB
100
AcDbEntity
 8
Layer8
100
AcDbLine
 39
0.25
 370
106
 10
85.1404
 20
302.161890234375
 30
0.0
 11
85.1404
 21
401.521890234375
 31
0.0
 0
LINE
 5
BC
100
AcDbEntity
 8
Layer8
100
AcDbLine
 39
0.25
 370
106
 10
28.4715
 20
402.263490234375
 30
0.0
 11
29.0105
 21
401.665490234375
 31
0.0
 0
HATCH
 5
BD
100
AcDbEntity
 8
Layer8
100
AcDbHatch
 10
 0.0
 20
 0.0
 30
 0.0
 210
 0.0
 220
 0.0
 230
 1.0
 2
SOLID
 70
 1
 71
 1
 91
1              
 92
 0
 93
103            
 72
 1
 10
82.3162
 20
84.524190234375
 11
82.8872
 21
84.524190234375
 72
 1
 10
82.8872
 20
84.524190234375
 11
83.2278328125
 21
84.55611796875
 72
 1
 10
83.2278328125
 20
84.55611796875
 11
83.5186375
 21
84.648174609375
 72
 1
 10
83.5186375
 20
84.648174609375
 11
83.7609734375
 21
84.7947703125
 72
 1
 10
83.7609734375
 20
84.7947703125
 11
83.9562
 21
84.990315234375
 72
 1
 10
83.9562
 20
84.990315234375
 11
84.1056765625
 21
85.22921953125
 72
 1
 10
84.1056765625
 20
85.22921953125
 11
84.2107625
 21
85.5058933593749
 72
 1
 10
84.2107625
 20
85.5058933593749
 11
84.2728171875
 21
85.814746875
 72
 1
 10
84.2728171875
 20
85.814746875
 11
84.2932
 21
86.150190234375
 72
 1
 10
84.2932
 20
86.150190234375
 11
84.278151171875
 21
86.4553523437501
 72
 1
 10
84.278151171875
 20
86.4553523437501
 11
84.230934375
 21
86.7416121093751
 72
 1
 10
84.230934375
 20
86.7416121093751
 11
84.148444140625
 21
87.0022546875
 72
 1
 10
84.148444140625
 20
87.0022546875
 11
84.027575
 21
87.230565234375
 72
 1
 10
84.027575
 20
87.230565234375
 11
83.865221484375
 21
87.41982890625
 72
 1
 10
83.865221484375
 20
87.41982890625
 11
83.658278125
 21
87.563330859375
 72
 1
 10
83.658278125
 20
87.563330859375
 11
83.403639453125
 21
87.65435625
 72
 1
 10
83.403639453125
 20
87.65435625
 11
83.0982
 21
87.686190234375
 72
 1
 10
83.0982
 20
87.686190234375
 11
82.69718046875
 21
87.63625078125
 72
 1
 10
82.69718046875
 20
87.63625078125
 11
82.38529375
 21
87.498924609375
 72
 1
 10
82.38529375
 20
87.498924609375
 11
82.15154765625
 21
87.29295
 72
 1
 10
82.15154765625
 20
87.29295
 11
81.98495
 21
87.037065234375
 72
 1
 10
81.98495
 20
87.037065234375
 11
81.87450859375
 21
86.75000859375
 72
 1
 10
81.87450859375
 20
86.75000859375
 11
81.80923125
 21
86.450518359375
 72
 1
 10
81.80923125
 20
86.450518359375
 11
81.77812578125
 21
86.1573328125
 72
 1
 10
81.77812578125
 20
86.1573328125
 11
81.7702
 21
85.889190234375
 72
 1
 10
81.7702
 20
85.889190234375
 11
80.6242
 21
85.889190234375
 72
 1
 10
80.6242
 20
85.889190234375
 11
80.659455859375
 21
86.45211015625
 72
 1
 10
80.659455859375
 20
86.45211015625
 11
80.766934375
 21
86.963737109375
 72
 1
 10
80.766934375
 20
86.963737109375
 11
80.949201953125
 21
87.416746875
 72
 1
 10
80.949201953125
 20
87.416746875
 11
81.208825
 21
87.803815234375
 72
 1
 10
81.208825
 20
87.803815234375
 11
81.548369921875
 21
88.11761796875
 72
 1
 10
81.548369921875
 20
88.11761796875
 11
81.970403125
 21
88.350830859375
 72
 1
 10
81.970403125
 20
88.350830859375
 11
82.477491015625
 21
88.4961296875001
 72
 1
 10
82.477491015625
 20
88.4961296875001
 11
83.0722
 21
88.546190234375
 72
 1
 10
83.0722
 20
88.546190234375
 11
83.72745390625
 21
88.485893359375
 72
 1
 10
83.72745390625
 20
88.485893359375
 11
84.25541875
 21
88.318065234375
 72
 1
 10
84.25541875
 20
88.318065234375
 11
84.66839921875
 21
88.062299609375
 72
 1
 10
84.66839921875
 20
88.062299609375
 11
84.9787
 21
87.738190234375
 72
 1
 10
84.9787
 20
87.738190234375
 11
85.19862578125
 21
87.365330859375
 72
 1
 10
85.19862578125
 20
87.365330859375
 11
85.34048125
 21
86.963315234375
 72
 1
 10
85.34048125
 20
86.963315234375
 11
85.41657109375
 21
86.551737109375
 72
 1
 10
85.41657109375
 20
86.551737109375
 11
85.4392
 21
86.150190234375
 72
 1
 10
85.4392
 20
86.150190234375
 11
85.417787890625
 21
85.80601640625
 72
 1
 10
85.417787890625
 20
85.80601640625
 11
85.353028125
 21
85.480112109375
 72
 1
 10
85.353028125
 20
85.480112109375
 11
85.244135546875
 21
85.177153125
 72
 1
 10
85.244135546875
 20
85.177153125
 11
85.090325
 21
84.901815234375
 72
 1
 10
85.090325
 20
84.901815234375
 11
84.890811328125
 21
84.65877421875
 72
 1
 10
84.890811328125
 20
84.65877421875
 11
84.644809375
 21
84.452705859375
 72
 1
 10
84.644809375
 20
84.452705859375
 11
84.351533984375
 21
84.2882859375001
 72
 1
 10
84.351533984375
 20
84.2882859375001
 11
84.0102
 21
84.170190234375
 72
 1
 10
84.0102
 20
84.170190234375
 11
84.0102
 21
84.145190234375
 72
 1
 10
84.0102
 20
84.145190234375
 11
84.3820125
 21
84.045713671875
 72
 1
 10
84.3820125
 20
84.045713671875
 11
84.7152
 21
83.902502734375
 72
 1
 10
84.7152
 20
83.902502734375
 11
85.0063875
 21
83.713260546875
 72
 1
 10
85.0063875
 20
83.713260546875
 11
85.2522
 21
83.4756902343751
 72
 1
 10
85.2522
 20
83.4756902343751
 11
85.4492625
 21
83.187494921875
 72
 1
 10
85.4492625
 20
83.187494921875
 11
85.5942
 21
82.846377734375
 72
 1
 10
85.5942
 20
82.846377734375
 11
85.6836375
 21
82.450041796875
 72
 1
 10
85.6836375
 20
82.450041796875
 11
85.7142
 21
81.996190234375
 72
 1
 10
85.7142
 20
81.996190234375
 11
85.6744734375
 21
81.3916296875
 72
 1
 10
85.6744734375
 20
81.3916296875
 11
85.5546375
 21
80.842393359375
 72
 1
 10
85.5546375
 20
80.842393359375
 11
85.3537078125
 21
80.35627421875
 72
 1
 10
85.3537078125
 20
80.35627421875
 11
85.0707
 21
79.9410652343749
 72
 1
 10
85.0707
 20
79.9410652343749
 11
84.7046296875
 21
79.604559375
 72
 1
 10
84.7046296875
 20
79.604559375
 11
84.2545125
 21
79.354549609375
 72
 1
 10
84.2545125
 20
79.354549609375
 11
83.7193640625
 21
79.19882890625
 72
 1
 10
83.7193640625
 20
79.19882890625
 11
83.0982
 21
79.145190234375
 72
 1
 10
83.0982
 20
79.145190234375
 11
82.27535625
 21
79.238303515625
 72
 1
 10
82.27535625
 20
79.238303515625
 11
81.6452625
 21
79.487346484375
 72
 1
 10
81.6452625
 20
79.487346484375
 11
81.182325
 21
79.846873828125
 72
 1
 10
81.182325
 20
79.846873828125
 11
80.86095
 21
80.271440234375
 72
 1
 10
80.86095
 20
80.271440234375
 11
80.65554375
 21
80.715600390625
 72
 1
 10
80.65554375
 20
80.715600390625
 11
80.5405125
 21
81.133908984375
 72
 1
 10
80.5405125
 20
81.133908984375
 11
80.4902625
 21
81.480920703125
 72
 1
 10
80.4902625
 20
81.480920703125
 11
80.4792
 21
81.711190234375
 72
 1
 10
80.4792
 20
81.711190234375
 11
80.4792
 21
81.826190234375
 72
 1
 10
80.4792
 20
81.826190234375
 11
81.6272
 21
81.826190234375
 72
 1
 10
81.6272
 20
81.826190234375
 11
81.647709765625
 21
81.5053796875
 72
 1
 10
81.647709765625
 20
81.5053796875
 11
81.710653125
 21
81.185330859375
 72
 1
 10
81.710653125
 20
81.185330859375
 11
81.818151171875
 21
80.87899296875
 72
 1
 10
81.818151171875
 20
80.87899296875
 11
81.972325
 21
80.5993152343751
 72
 1
 10
81.972325
 20
80.5993152343751
 11
82.175295703125
 21
80.3592468750001
 72
 1
 10
82.175295703125
 20
80.3592468750001
 11
82.429184375
 21
80.171737109375
 72
 1
 10
82.429184375
 20
80.171737109375
 11
82.736112109375
 21
80.0497351562501
 72
 1
 10
82.736112109375
 20
80.0497351562501
 11
83.0982
 21
80.006190234375
 72
 1
 10
83.0982
 20
80.006190234375
 11
83.35664140625
 21
80.023721484375
 72
 1
 10
83.35664140625
 20
80.023721484375
 11
83.61491875
 21
80.083252734375
 72
 1
 10
83.61491875
 20
80.083252734375
 11
83.86246171875
 21
80.195190234375
 72
 1
 10
83.86246171875
 20
80.195190234375
 11
84.0887
 21
80.369940234375
 72
 1
 10
84.0887
 20
80.369940234375
 11
84.28306328125
 21
80.617908984375
 72
 1
 10
84.28306328125
 20
80.617908984375
 11
84.43498125
 21
80.949502734375
 72
 1
 10
84.43498125
 20
80.949502734375
 11
84.53388359375
 21
81.3751277343751
 72
 1
 10
84.53388359375
 20
81.3751277343751
 11
84.5692
 21
81.905190234375
 72
 1
 10
84.5692
 20
81.905190234375
 11
84.544537890625
 21
82.295401171875
 72
 1
 10
84.544537890625
 20
82.295401171875
 11
84.469778125
 21
82.642252734375
 72
 1
 10
84.469778125
 20
82.642252734375
 11
84.343760546875
 21
82.943073046875
 72
 1
 10
84.343760546875
 20
82.943073046875
 11
84.165325
 21
83.195190234375
 72
 1
 10
84.165325
 20
83.195190234375
 11
83.933311328125
 21
83.395932421875
 72
 1
 10
83.933311328125
 20
83.395932421875
 11
83.646559375
 21
83.542627734375
 72
 1
 10
83.646559375
 20
83.542627734375
 11
83.303908984375
 21
83.632604296875
 72
 1
 10
83.303908984375
 20
83.632604296875
 11
82.9042
 21
83.663190234375
 72
 1
 10
82.9042
 20
83.663190234375
 11
82.3162
 21
83.663190234375
 72
 1
 10
82.3162
 20
83.663190234375
 11
82.3162
 21
84.524190234375
 97
 1
 330
BE
 75
 0
 76
 1
 98
 1
 10
 0.0
 20
 0.0
 0
HATCH
 5
BF
100
AcDbEntity
 8
Layer8
100
AcDbHatch
 10
 0.0
 20
 0.0
 30
 0.0
 210
 0.0
 220
 0.0
 230
 1.0
 2
SOLID
 70
 1
 71
 1
 91
1              
 92
 0
 93
72             
 72
 1
 10
87.491
 20
88.363990234375
 11
91.604
 21
88.363990234375
 72
 1
 10
91.604
 20
88.363990234375
 11
91.604
 21
87.347990234375
 72
 1
 10
91.604
 20
87.347990234375
 11
88.363
 21
87.347990234375
 72
 1
 10
88.363
 20
87.347990234375
 11
87.999
 21
84.678990234375
 72
 1
 10
87.999
 20
84.678990234375
 11
88.023
 21
84.652990234375
 72
 1
 10
88.023
 20
84.652990234375
 11
88.175291015625
 21
84.81323046875
 72
 1
 10
88.175291015625
 20
84.81323046875
 11
88.346953125
 21
84.952599609375
 72
 1
 10
88.346953125
 20
84.952599609375
 11
88.535419921875
 21
85.0709453125
 72
 1
 10
88.535419921875
 20
85.0709453125
 11
88.738125
 21
85.168115234375
 72
 1
 10
88.738125
 20
85.168115234375
 11
88.952501953125
 21
85.24395703125
 72
 1
 10
88.952501953125
 20
85.24395703125
 11
89.175984375
 21
85.298318359375
 72
 1
 10
89.175984375
 20
85.298318359375
 11
89.406005859375
 21
85.331046875
 72
 1
 10
89.406005859375
 20
85.331046875
 11
89.64
 21
85.341990234375
 72
 1
 10
89.64
 20
85.341990234375
 11
90.138353515625
 21
85.2911953125
 72
 1
 10
90.138353515625
 20
85.2911953125
 11
90.588015625
 21
85.140755859375
 72
 1
 10
90.588015625
 20
85.140755859375
 11
90.983513671875
 21
84.89358984375
 72
 1
 10
90.983513671875
 20
84.89358984375
 11
91.319375
 21
84.552615234375
 72
 1
 10
91.319375
 20
84.552615234375
 11
91.590126953125
 21
84.12075
 72
 1
 10
91.590126953125
 20
84.12075
 11
91.790296875
 21
83.600912109375
 72
 1
 10
91.790296875
 20
83.600912109375
 11
91.914412109375
 21
82.99601953125
 72
 1
 10
91.914412109375
 20
82.99601953125
 11
91.957
 21
82.308990234375
 72
 1
 10
91.957
 20
82.308990234375
 11
91.92079296875
 21
81.679697265625
 72
 1
 10
91.92079296875
 20
81.679697265625
 11
91.80890625
 21
81.089521484375
 72
 1
 10
91.80890625
 20
81.089521484375
 11
91.61644140625
 21
80.552267578125
 72
 1
 10
91.61644140625
 20
80.552267578125
 11
91.3385
 21
80.081740234375
 72
 1
 10
91.3385
 20
80.081740234375
 11
90.97018359375
 21
79.691744140625
 72
 1
 10
90.97018359375
 20
79.691744140625
 11
90.50659375
 21
79.396083984375
 72
 1
 10
90.50659375
 20
79.396083984375
 11
89.94283203125
 21
79.208564453125
 72
 1
 10
89.94283203125
 20
79.208564453125
 11
89.274
 21
79.142990234375
 72
 1
 10
89.274
 20
79.142990234375
 11
88.53722265625
 21
79.222298828125
 72
 1
 10
88.53722265625
 20
79.222298828125
 11
87.95609375
 21
79.437708984375
 72
 1
 10
87.95609375
 20
79.437708984375
 11
87.51291796875
 21
79.755447265625
 72
 1
 10
87.51291796875
 20
79.755447265625
 11
87.19
 21
80.141740234375
 72
 1
 10
87.19
 20
80.141740234375
 11
86.96964453125
 21
80.562814453125
 72
 1
 10
86.96964453125
 20
80.562814453125
 11
86.83415625
 21
80.984896484375
 72
 1
 10
86.83415625
 20
80.984896484375
 11
86.76583984375
 21
81.374212890625
 72
 1
 10
86.76583984375
 20
81.374212890625
 11
86.747
 21
81.696990234375
 72
 1
 10
86.747
 20
81.696990234375
 11
87.89
 21
81.696990234375
 72
 1
 10
87.89
 20
81.696990234375
 11
87.900384765625
 21
81.486560546875
 72
 1
 10
87.900384765625
 20
81.486560546875
 11
87.938203125
 21
81.230427734375
 72
 1
 10
87.938203125
 20
81.230427734375
 11
88.013451171875
 21
80.951326171875
 72
 1
 10
88.013451171875
 20
80.951326171875
 11
88.136125
 21
80.671990234375
 72
 1
 10
88.136125
 20
80.671990234375
 11
88.316220703125
 21
80.415154296875
 72
 1
 10
88.316220703125
 20
80.415154296875
 11
88.563734375
 21
80.203552734375
 72
 1
 10
88.563734375
 20
80.203552734375
 11
88.888662109375
 21
80.059919921875
 72
 1
 10
88.888662109375
 20
80.059919921875
 11
89.301
 21
80.006990234375
 72
 1
 10
89.301
 20
80.006990234375
 11
89.738263671875
 21
80.07142578125
 72
 1
 10
89.738263671875
 20
80.07142578125
 11
90.084109375
 21
80.249287109375
 72
 1
 10
90.084109375
 20
80.249287109375
 11
90.348744140625
 21
80.51740625
 72
 1
 10
90.348744140625
 20
80.51740625
 11
90.542375
 21
80.852615234375
 72
 1
 10
90.542375
 20
80.852615234375
 11
90.675208984375
 21
81.23174609375
 72
 1
 10
90.675208984375
 20
81.23174609375
 11
90.757453125
 21
81.631630859375
 72
 1
 10
90.757453125
 20
81.631630859375
 11
90.799314453125
 21
82.0291015625
 72
 1
 10
90.799314453125
 20
82.0291015625
 11
90.811
 21
82.400990234375
 72
 1
 10
90.811
 20
82.400990234375
 11
90.792453125
 21
82.78129296875
 72
 1
 10
90.792453125
 20
82.78129296875
 11
90.7336875
 21
83.153662109375
 72
 1
 10
90.7336875
 20
83.153662109375
 11
90.630015625
 21
83.5049140625
 72
 1
 10
90.630015625
 20
83.5049140625
 11
90.47675
 21
83.821865234375
 72
 1
 10
90.47675
 20
83.821865234375
 11
90.269203125
 21
84.09133203125
 72
 1
 10
90.269203125
 20
84.09133203125
 11
90.0026875
 21
84.300130859375
 72
 1
 10
90.0026875
 20
84.300130859375
 11
89.672515625
 21
84.435078125
 72
 1
 10
89.672515625
 20
84.435078125
 11
89.274
 21
84.482990234375
 72
 1
 10
89.274
 20
84.482990234375
 11
88.989716796875
 21
84.45347265625
 72
 1
 10
88.989716796875
 20
84.45347265625
 11
88.734859375
 21
84.373787109375
 72
 1
 10
88.734859375
 20
84.373787109375
 11
88.512041015625
 21
84.257234375
 72
 1
 10
88.512041015625
 20
84.257234375
 11
88.323875
 21
84.117115234375
 72
 1
 10
88.323875
 20
84.117115234375
 11
88.172974609375
 21
83.96673046875
 72
 1
 10
88.172974609375
 20
83.96673046875
 11
88.061953125
 21
83.8193808593749
 72
 1
 10
88.061953125
 20
83.8193808593749
 11
87.993423828125
 21
83.6883671875
 72
 1
 10
87.993423828125
 20
83.6883671875
 11
87.97
 21
83.586990234375
 72
 1
 10
87.97
 20
83.586990234375
 11
86.981
 21
83.635990234375
 72
 1
 10
86.981
 20
83.635990234375
 11
87.491
 21
88.363990234375
 97
 1
 330
C0
 75
 0
 76
 1
 98
 1
 10
 0.0
 20
 0.0
 0
HATCH
 5
C1
100
AcDbEntity
 8
Layer22
100
AcDbHatch
 10
 0.0
 20
 0.0
 30
 0.0
 210
 0.0
 220
 0.0
 230
 1.0
 2
SOLID
 70
 1
 71
 1
 91
1              
 92
 0
 93
42             
 72
 1
 10
26.3693
 20
18.948190234375
 11
30.4073
 21
18.948190234375
 72
 1
 10
30.4073
 20
18.948190234375
 11
30.2863
 21
27.829190234375
 72
 1
 10
30.2863
 20
27.829190234375
 11
30.275188671875
 21
28.51098125
 72
 1
 10
30.275188671875
 20
28.51098125
 11
30.262659375
 21
29.242893359375
 72
 1
 10
30.262659375
 20
29.242893359375
 11
30.247294140625
 21
30.00773515625
 72
 1
 10
30.247294140625
 20
30.00773515625
 11
30.227675
 21
30.788315234375
 72
 1
 10
30.227675
 20
30.788315234375
 11
30.202383984375
 21
31.5674421875
 72
 1
 10
30.202383984375
 20
31.5674421875
 11
30.170003125
 21
32.327924609375
 72
 1
 10
30.170003125
 20
32.327924609375
 11
30.129114453125
 21
33.05257109375
 72
 1
 10
30.129114453125
 20
33.05257109375
 11
30.0783
 21
33.724190234375
 72
 1
 10
30.0783
 20
33.724190234375
 11
30.2641359375
 21
33.16835625
 72
 1
 10
30.2641359375
 20
33.16835625
 11
30.5217375
 21
32.4815183593749
 72
 1
 10
30.5217375
 20
32.4815183593749
 11
30.8388703125
 21
31.68679765625
 72
 1
 10
30.8388703125
 20
31.68679765625
 11
31.2033
 21
30.807315234375
 72
 1
 10
31.2033
 20
30.807315234375
 11
31.6027921875
 21
29.8661921875
 72
 1
 10
31.6027921875
 20
29.8661921875
 11
32.0251125
 21
28.886549609375
 72
 1
 10
32.0251125
 20
28.886549609375
 11
32.4580265625
 21
27.8915085937501
 72
 1
 10
32.4580265625
 20
27.8915085937501
 11
32.8893
 21
26.904190234375
 72
 1
 10
32.8893
 20
26.904190234375
 11
36.4493
 21
18.948190234375
 72
 1
 10
36.4493
 20
18.948190234375
 11
40.8153
 21
18.948190234375
 72
 1
 10
40.8153
 20
18.948190234375
 11
40.8153
 21
39.734190234375
 72
 1
 10
40.8153
 20
39.734190234375
 11
36.8373
 21
39.734190234375
 72
 1
 10
36.8373
 20
39.734190234375
 11
36.9273
 21
31.240190234375
 72
 1
 10
36.9273
 20
31.240190234375
 11
36.943649609375
 21
30.64890703125
 72
 1
 10
36.943649609375
 20
30.64890703125
 11
36.969971875
 21
29.969112109375
 72
 1
 10
36.969971875
 20
29.969112109375
 11
37.004801953125
 21
29.2275125
 72
 1
 10
37.004801953125
 20
29.2275125
 11
37.046675
 21
28.450815234375
 72
 1
 10
37.046675
 20
28.450815234375
 11
37.094126171875
 21
27.66572734375
 72
 1
 10
37.094126171875
 20
27.66572734375
 11
37.145690625
 21
26.898955859375
 72
 1
 10
37.145690625
 20
26.898955859375
 11
37.199903515625
 21
26.1772078125
 72
 1
 10
37.199903515625
 20
26.1772078125
 11
37.2553
 21
25.527190234375
 72
 1
 10
37.2553
 20
25.527190234375
 11
37.0806046875
 21
26.118826953125
 72
 1
 10
37.0806046875
 20
26.118826953125
 11
36.871175
 21
26.767346484375
 72
 1
 10
36.871175
 20
26.767346484375
 11
36.6287453125
 21
27.465037890625
 72
 1
 10
36.6287453125
 20
27.465037890625
 11
36.35505
 21
28.204190234375
 72
 1
 10
36.35505
 20
28.204190234375
 11
36.0518234375
 21
28.977092578125
 72
 1
 10
36.0518234375
 20
28.977092578125
 11
35.7208
 21
29.776033984375
 72
 1
 10
35.7208
 20
29.776033984375
 11
35.3637140625
 21
30.5933035156249
 72
 1
 10
35.3637140625
 20
30.5933035156249
 11
34.9823
 21
31.421190234375
 72
 1
 10
34.9823
 20
31.421190234375
 11
31.0063
 21
39.734190234375
 72
 1
 10
31.0063
 20
39.734190234375
 11
26.3693
 21
39.734190234375
 72
 1
 10
26.3693
 20
39.734190234375
 11
26.3693
 21
18.948190234375
 97
 1
 330
C2
 75
 0
 76
 1
 98
 1
 10
 0.0
 20
 0.0
 0
HATCH
 5
C3
100
AcDbEntity
 8
Layer22
100
AcDbHatch
 10
 0.0
 20
 0.0
 30
 0.0
 210
 0.0
 220
 0.0
 230
 1.0
 2
SOLID
 70
 1
 71
 1
 91
1              
 92
 0
 93
12             
 72
 1
 10
43.3234
 20
39.734490234375
 11
43.3234
 21
18.948490234375
 72
 1
 10
43.3234
 20
18.948490234375
 11
55.4374
 21
18.948490234375
 72
 1
 10
55.4374
 20
18.948490234375
 11
55.4374
 21
22.537490234375
 72
 1
 10
55.4374
 20
22.537490234375
 11
47.5724
 21
22.537490234375
 72
 1
 10
47.5724
 20
22.537490234375
 11
47.5724
 21
28.099490234375
 72
 1
 10
47.5724
 20
28.099490234375
 11
53.4624
 21
28.099490234375
 72
 1
 10
53.4624
 20
28.099490234375
 11
53.4624
 21
31.510490234375
 72
 1
 10
53.4624
 20
31.510490234375
 11
47.5104
 21
31.510490234375
 72
 1
 10
47.5104
 20
31.510490234375
 11
47.5104
 21
36.324490234375
 72
 1
 10
47.5104
 20
36.324490234375
 11
54.6284
 21
36.324490234375
 72
 1
 10
54.6284
 20
36.324490234375
 11
55.1674
 21
39.734490234375
 72
 1
 10
55.1674
 20
39.734490234375
 11
43.3234
 21
39.734490234375
 97
 1
 330
C4
 75
 0
 76
 1
 98
 1
 10
 0.0
 20
 0.0
 0
HATCH
 5
C5
100
AcDbEntity
 8
Layer22
100
AcDbHatch
 10
 0.0
 20
 0.0
 30
 0.0
 210
 0.0
 220
 0.0
 230
 1.0
 2
SOLID
 70
 1
 71
 1
 91
1              
 92
 0
 93
49             
 72
 1
 10
56.9908
 20
18.948190234375
 11
61.2078
 21
18.948190234375
 72
 1
 10
61.2078
 20
18.948190234375
 11
61.9248
 21
29.805190234375
 72
 1
 10
61.9248
 20
29.805190234375
 11
61.956798046875
 21
30.28188359375
 72
 1
 10
61.956798046875
 20
30.28188359375
 11
61.985784375
 21
30.749612109375
 72
 1
 10
61.985784375
 20
30.749612109375
 11
62.011372265625
 21
31.2104734375
 72
 1
 10
62.011372265625
 20
31.2104734375
 11
62.033175
 21
31.666565234375
 72
 1
 10
62.033175
 20
31.666565234375
 11
62.050805859375
 21
32.11998515625
 72
 1
 10
62.050805859375
 20
32.11998515625
 11
62.063878125
 21
32.572830859375
 72
 1
 10
62.063878125
 20
32.572830859375
 11
62.072005078125
 21
33.0272000000001
 72
 1
 10
62.072005078125
 20
33.0272000000001
 11
62.0748
 21
33.485190234375
 72
 1
 10
62.0748
 20
33.485190234375
 11
65.8738
 21
18.948190234375
 72
 1
 10
65.8738
 20
18.948190234375
 11
69.5528
 21
18.948190234375
 72
 1
 10
69.5528
 20
18.948190234375
 11
70.806903515625
 21
23.3141609375
 72
 1
 10
70.806903515625
 20
23.3141609375
 11
71.752253125
 21
26.609705859375
 72
 1
 10
71.752253125
 20
26.609705859375
 11
72.436157421875
 21
29.00377421875
 72
 1
 10
72.436157421875
 20
29.00377421875
 11
72.905925
 21
30.665315234375
 72
 1
 10
72.905925
 20
30.665315234375
 11
73.208864453125
 21
31.763278125
 72
 1
 10
73.208864453125
 20
31.763278125
 11
73.392284375
 21
32.466612109375
 72
 1
 10
73.392284375
 20
32.466612109375
 11
73.503493359375
 21
32.94426640625
 72
 1
 10
73.503493359375
 20
32.94426640625
 11
73.5898
 21
33.365190234375
 72
 1
 10
73.5898
 20
33.365190234375
 11
73.63092109375
 21
32.427592578125
 72
 1
 10
73.63092109375
 20
32.427592578125
 11
73.73933125
 21
30.645096484375
 72
 1
 10
73.73933125
 20
30.645096484375
 11
73.89260078125
 21
28.316647265625
 72
 1
 10
73.89260078125
 20
28.316647265625
 11
74.0683
 21
25.741190234375
 72
 1
 10
74.0683
 20
25.741190234375
 11
74.24399921875
 21
23.217670703125
 72
 1
 10
74.24399921875
 20
23.217670703125
 11
74.39726875
 21
21.045033984375
 72
 1
 10
74.39726875
 20
21.045033984375
 11
74.50567890625
 21
19.522225390625
 72
 1
 10
74.50567890625
 20
19.522225390625
 11
74.5468
 21
18.948190234375
 72
 1
 10
74.5468
 20
18.948190234375
 11
78.6748
 21
18.948190234375
 72
 1
 10
78.6748
 20
18.948190234375
 11
76.8208
 21
39.734190234375
 72
 1
 10
76.8208
 20
39.734190234375
 11
71.3468
 21
39.734190234375
 72
 1
 10
71.3468
 20
39.734190234375
 11
70.240962109375
 21
35.6054480468749
 72
 1
 10
70.240962109375
 20
35.6054480468749
 11
69.407409375
 21
32.4896277343749
 72
 1
 10
69.407409375
 20
32.4896277343749
 11
68.804458203125
 21
30.227588671875
 72
 1
 10
68.804458203125
 20
30.227588671875
 11
68.390425
 21
28.660190234375
 72
 1
 10
68.390425
 20
28.660190234375
 11
68.123626171875
 21
27.628291796875
 72
 1
 10
68.123626171875
 20
27.628291796875
 11
67.962378125
 21
26.972752734375
 72
 1
 10
67.962378125
 20
26.972752734375
 11
67.864997265625
 21
26.534432421875
 72
 1
 10
67.864997265625
 20
26.534432421875
 11
67.7898
 21
26.154190234375
 72
 1
 10
67.7898
 20
26.154190234375
 11
67.589934765625
 21
27.047209765625
 72
 1
 10
67.589934765625
 20
27.047209765625
 11
67.175628125
 21
28.730846484375
 72
 1
 10
67.175628125
 20
28.730846484375
 11
66.621188671875
 21
30.924717578125
 72
 1
 10
66.621188671875
 20
30.924717578125
 11
66.000925
 21
33.348440234375
 72
 1
 10
66.000925
 20
33.348440234375
 11
65.389145703125
 21
35.7216316406249
 72
 1
 10
65.389145703125
 20
35.7216316406249
 11
64.860159375
 21
37.7639089843749
 72
 1
 10
64.860159375
 20
37.7639089843749
 11
64.488274609375
 21
39.1948894531249
 72
 1
 10
64.488274609375
 20
39.1948894531249
 11
64.3478
 21
39.734190234375
 72
 1
 10
64.3478
 20
39.734190234375
 11
58.9358
 21
39.734190234375
 72
 1
 10
58.9358
 20
39.734190234375
 11
56.9908
 21
18.948190234375
 97
 1
 330
C6
 75
 0
 76
 1
 98
 1
 10
 0.0
 20
 0.0
 0
HATCH
 5
C7
100
AcDbEntity
 8
Layer22
100
AcDbHatch
 10
 0.0
 20
 0.0
 30
 0.0
 210
 0.0
 220
 0.0
 230
 1.0
 2
SOLID
 70
 1
 71
 1
 91
2              
 92
 0
 93
56             
 72
 1
 10
92.5637
 20
34.142390234375
 11
92.689272265625
 21
33.687472265625
 72
 1
 10
92.689272265625
 20
33.687472265625
 11
92.798215625
 21
33.196108984375
 72
 1
 10
92.798215625
 20
33.196108984375
 11
92.890494921875
 21
32.665511328125
 72
 1
 10
92.890494921875
 20
32.665511328125
 11
92.966075
 21
32.092890234375
 72
 1
 10
92.966075
 20
32.092890234375
 11
93.024920703125
 21
31.4754566406251
 72
 1
 10
93.024920703125
 20
31.4754566406251
 11
93.066996875
 21
30.810421484375
 72
 1
 10
93.066996875
 20
30.810421484375
 11
93.092268359375
 21
30.094995703125
 72
 1
 10
93.092268359375
 20
30.094995703125
 11
93.1007
 21
29.326390234375
 72
 1
 10
93.1007
 20
29.326390234375
 11
93.042397265625
 21
27.4844839843751
 72
 1
 10
93.042397265625
 20
27.4844839843751
 11
92.863965625
 21
25.921015234375
 72
 1
 10
92.863965625
 20
25.921015234375
 11
92.560119921875
 21
24.625858984375
 72
 1
 10
92.560119921875
 20
24.625858984375
 11
92.125575
 21
23.588890234375
 72
 1
 10
92.125575
 20
23.588890234375
 11
91.555045703125
 21
22.799983984375
 72
 1
 10
91.555045703125
 20
22.799983984375
 11
90.843246875
 21
22.249015234375
 72
 1
 10
90.843246875
 20
22.249015234375
 11
89.984893359375
 21
21.925858984375
 72
 1
 10
89.984893359375
 20
21.925858984375
 11
88.9747
 21
21.820390234375
 72
 1
 10
88.9747
 20
21.820390234375
 11
88.61133671875
 21
21.831554296875
 72
 1
 10
88.61133671875
 20
21.831554296875
 11
88.26248125
 21
21.865077734375
 72
 1
 10
88.26248125
 20
21.865077734375
 11
87.92848515625
 21
21.9210074218749
 72
 1
 10
87.92848515625
 20
21.9210074218749
 11
87.6097
 21
21.999390234375
 72
 1
 10
87.6097
 20
21.999390234375
 11
87.30647734375
 21
22.100273046875
 72
 1
 10
87.30647734375
 20
22.100273046875
 11
87.01916875
 21
22.223702734375
 72
 1
 10
87.01916875
 20
22.223702734375
 11
86.74812578125
 21
22.369726171875
 72
 1
 10
86.74812578125
 20
22.369726171875
 11
86.4937
 21
22.538390234375
 72
 1
 10
86.4937
 20
22.538390234375
 11
86.061049609375
 21
22.94585703125
 72
 1
 10
86.061049609375
 20
22.94585703125
 11
85.685059375
 21
23.475187109375
 72
 1
 10
85.685059375
 20
23.475187109375
 11
85.366045703125
 21
24.1274
 72
 1
 10
85.366045703125
 20
24.1274
 11
85.104325
 21
24.903515234375
 72
 1
 10
85.104325
 20
24.903515234375
 11
84.900213671875
 21
25.8045523437501
 72
 1
 10
84.900213671875
 20
25.8045523437501
 11
84.754028125
 21
26.831530859375
 72
 1
 10
84.754028125
 20
26.831530859375
 11
84.666084765625
 21
27.9854703125
 72
 1
 10
84.666084765625
 20
27.9854703125
 11
84.6367
 21
29.267390234375
 72
 1
 10
84.6367
 20
29.267390234375
 11
84.6522390625
 21
30.177509375
 72
 1
 10
84.6522390625
 20
30.177509375
 11
84.699325
 21
31.025530859375
 72
 1
 10
84.699325
 20
31.025530859375
 11
84.7786609375
 21
31.81395078125
 72
 1
 10
84.7786609375
 20
31.81395078125
 11
84.89095
 21
32.5452652343749
 72
 1
 10
84.89095
 20
32.5452652343749
 11
85.0368953125
 21
33.2219703125
 72
 1
 10
85.0368953125
 20
33.2219703125
 11
85.2172
 21
33.846562109375
 72
 1
 10
85.2172
 20
33.846562109375
 11
85.4325671875
 21
34.42153671875
 72
 1
 10
85.4325671875
 20
34.42153671875
 11
85.6837
 21
34.949390234375
 72
 1
 10
85.6837
 20
34.949390234375
 11
85.92822734375
 21
35.345308203125
 72
 1
 10
85.92822734375
 20
35.345308203125
 11
86.23085625
 21
35.7009839843751
 72
 1
 10
86.23085625
 20
35.7009839843751
 11
86.58528203125
 21
36.0125503906251
 72
 1
 10
86.58528203125
 20
36.0125503906251
 11
86.9852
 21
36.2761402343751
 72
 1
 10
86.9852
 20
36.2761402343751
 11
87.42430546875
 21
36.487886328125
 72
 1
 10
87.42430546875
 20
36.487886328125
 11
87.89629375
 21
36.643921484375
 72
 1
 10
87.89629375
 20
36.643921484375
 11
88.39486015625
 21
36.740378515625
 72
 1
 10
88.39486015625
 20
36.740378515625
 11
88.9137
 21
36.773390234375
 72
 1
 10
88.9137
 20
36.773390234375
 11
89.693030078125
 21
36.703323828125
 72
 1
 10
89.693030078125
 20
36.703323828125
 11
90.372340625
 21
36.5096714843751
 72
 1
 10
90.372340625
 20
36.5096714843751
 11
90.955487109375
 21
36.217253515625
 72
 1
 10
90.955487109375
 20
36.217253515625
 11
91.446325
 21
35.850890234375
 72
 1
 10
91.446325
 20
35.850890234375
 11
91.848709765625
 21
35.4354019531251
 72
 1
 10
91.848709765625
 20
35.4354019531251
 11
92.166496875
 21
34.9956089843751
 72
 1
 10
92.166496875
 20
34.9956089843751
 11
92.403541796875
 21
34.5563316406249
 72
 1
 10
92.403541796875
 20
34.5563316406249
 11
92.5637
 21
34.142390234375
 97
 1
 330
C8
 92
 0
 93
56             
 72
 1
 10
84.6677
 20
38.987390234375
 11
83.615170703125
 21
38.282009375
 72
 1
 10
83.615170703125
 20
38.282009375
 11
82.683778125
 21
37.406343359375
 72
 1
 10
82.683778125
 20
37.406343359375
 11
81.879440234375
 21
36.3727320312499
 72
 1
 10
81.879440234375
 20
36.3727320312499
 11
81.208075
 21
35.193515234375
 72
 1
 10
81.208075
 20
35.193515234375
 11
80.675600390625
 21
33.8810328125001
 72
 1
 10
80.675600390625
 20
33.8810328125001
 11
80.287934375
 21
32.447624609375
 72
 1
 10
80.287934375
 20
32.447624609375
 11
80.050994921875
 21
30.90563046875
 72
 1
 10
80.050994921875
 20
30.90563046875
 11
79.9707
 21
29.267390234375
 72
 1
 10
79.9707
 20
29.267390234375
 11
80.008514453125
 21
28.1430484375
 72
 1
 10
80.008514453125
 20
28.1430484375
 11
80.121715625
 21
27.060343359375
 72
 1
 10
80.121715625
 20
27.060343359375
 11
80.309940234375
 21
26.02125546875
 72
 1
 10
80.309940234375
 20
26.02125546875
 11
80.572825
 21
25.027765234375
 72
 1
 10
80.572825
 20
25.027765234375
 11
80.910006640625
 21
24.081853125
 72
 1
 10
80.910006640625
 20
24.081853125
 11
81.321121875
 21
23.1854996093749
 72
 1
 10
81.321121875
 20
23.1854996093749
 11
81.805807421875
 21
22.3406851562499
 72
 1
 10
81.805807421875
 20
22.3406851562499
 11
82.3637
 21
21.549390234375
 72
 1
 10
82.3637
 20
21.549390234375
 11
82.980448046875
 21
20.8314292968749
 72
 1
 10
82.980448046875
 20
20.8314292968749
 11
83.647059375
 21
20.221515234375
 72
 1
 10
83.647059375
 20
20.221515234375
 11
84.371209765625
 21
19.715851171875
 72
 1
 10
84.371209765625
 20
19.715851171875
 11
85.160575
 21
19.310640234375
 72
 1
 10
85.160575
 20
19.310640234375
 11
86.022830859375
 21
19.002085546875
 72
 1
 10
86.022830859375
 20
19.002085546875
 11
86.965653125
 21
18.7863902343749
 72
 1
 10
86.965653125
 20
18.7863902343749
 11
87.996717578125
 21
18.659757421875
 72
 1
 10
87.996717578125
 20
18.659757421875
 11
89.1237
 21
18.618390234375
 72
 1
 10
89.1237
 20
18.618390234375
 11
89.748936328125
 21
18.63138046875
 72
 1
 10
89.748936328125
 20
18.63138046875
 11
90.328528125
 21
18.671499609375
 72
 1
 10
90.328528125
 20
18.671499609375
 11
90.870174609375
 21
18.7404703125
 72
 1
 10
90.870174609375
 20
18.7404703125
 11
91.381575
 21
18.840015234375
 72
 1
 10
91.381575
 20
18.840015234375
 11
91.870428515625
 21
18.97185703125
 72
 1
 10
91.870428515625
 20
18.97185703125
 11
92.344434375
 21
19.1377183593751
 72
 1
 10
92.344434375
 20
19.1377183593751
 11
92.811291796875
 21
19.3393218749999
 72
 1
 10
92.811291796875
 20
19.3393218749999
 11
93.2787
 21
19.578390234375
 72
 1
 10
93.2787
 20
19.578390234375
 11
94.33768046875
 21
20.28984140625
 72
 1
 10
94.33768046875
 20
20.28984140625
 11
95.26679375
 21
21.165249609375
 72
 1
 10
95.26679375
 20
21.165249609375
 11
96.06254765625
 21
22.197196875
 72
 1
 10
96.06254765625
 20
22.197196875
 11
96.72145
 21
23.378265234375
 72
 1
 10
96.72145
 20
23.378265234375
 11
97.24000859375
 21
24.70103671875
 72
 1
 10
97.24000859375
 20
24.70103671875
 11
97.61473125
 21
26.158093359375
 72
 1
 10
97.61473125
 20
26.158093359375
 11
97.84212578125
 21
27.7420171875
 72
 1
 10
97.84212578125
 20
27.7420171875
 11
97.9187
 21
29.445390234375
 72
 1
 10
97.9187
 20
29.445390234375
 11
97.7612859375
 21
31.7713375
 72
 1
 10
97.7612859375
 20
31.7713375
 11
97.2991375
 21
33.846280859375
 72
 1
 10
97.2991375
 20
33.846280859375
 11
96.5473953125
 21
35.65199765625
 72
 1
 10
96.5473953125
 20
35.65199765625
 11
95.5212
 21
37.170265234375
 72
 1
 10
95.5212
 20
37.170265234375
 11
94.2356921875
 21
38.3828609375
 72
 1
 10
94.2356921875
 20
38.3828609375
 11
92.7060125
 21
39.271562109375
 72
 1
 10
92.7060125
 20
39.271562109375
 11
90.9473015625
 21
39.8181460937501
 72
 1
 10
90.9473015625
 20
39.8181460937501
 11
88.9747
 21
40.004390234375
 72
 1
 10
88.9747
 20
40.004390234375
 11
88.393135546875
 21
39.9876792968751
 72
 1
 10
88.393135546875
 20
39.9876792968751
 11
87.817559375
 21
39.938015234375
 72
 1
 10
87.817559375
 20
39.938015234375
 11
87.251147265625
 21
39.856101171875
 72
 1
 10
87.251147265625
 20
39.856101171875
 11
86.697075
 21
39.742640234375
 72
 1
 10
86.697075
 20
39.742640234375
 11
86.158518359375
 21
39.598335546875
 72
 1
 10
86.158518359375
 20
39.598335546875
 11
85.638653125
 21
39.423890234375
 72
 1
 10
85.638653125
 20
39.423890234375
 11
85.140655078125
 21
39.2200074218749
 72
 1
 10
85.140655078125
 20
39.2200074218749
 11
84.6677
 21
38.987390234375
 97
 1
 330
C9
 75
 0
 76
 1
 98
 1
 10
 0.0
 20
 0.0
 0
ARC
 5
CA
100
AcDbEntity
 8
Layer8
100
AcDbCircle
 39
0.25
 370
106
 10
118.925971703877
 20
402.217029340284
 30
0.0
 40
10.3115608941295
100
AcDbArc
 50
48.0131034909954
 51
89.9998427737163
 0
ARC
 5
CB
100
AcDbEntity
 8
Layer8
100
AcDbCircle
 39
0.25
 370
106
 10
43.8315998000908
 20
402.212933596436
 30
0.0
 40
10.3156566457024
100
AcDbArc
 50
89.9977771879652
 51
131.978166354974
 0
LINE
 5
CC
100
AcDbEntity
 8
Layer8
100
AcDbLine
 39
0.25
 370
106
 10
28.474
 20
402.258590234375
 30
0.0
 11
36.932
 21
409.881590234375
 31
0.0
 0
LINE
 5
CD
100
AcDbEntity
 8
Layer8
100
AcDbLine
 39
0.25
 370
106
 10
43.832
 20
412.528590234375
 30
0.0
 11
118.926
 21
412.528590234375
 31
0.0
 0
LINE
 5
CE
100
AcDbEntity
 8
Layer8
100
AcDbLine
 39
0.25
 370
106
 10
125.824
 20
409.881590234375
 30
0.0
 11
134.283
 21
402.258590234375
 31
0.0
 0
LINE
 5
CF
100
AcDbEntity
 8
Layer8
100
AcDbLine
 39
0.25
 370
106
 10
134.283
 20
402.258590234375
 30
0.0
 11
28.474
 21
402.258590234375
 31
0.0
  0
ENDSEC
  0
SECTION
  2
OBJECTS
  0
DICTIONARY
  5
19
100
AcDbDictionary
  3
ACAD_GROUP
350
1A
  3
ACAD_MLINESTYLE
350
1B
  0
DICTIONARY
  5
1A
102
{ACAD_REACTORS
330
19
102
}
100
AcDbDictionary
  0
DICTIONARY
  5
1B
102
{ACAD_REACTORS
330
19
102
}
100
AcDbDictionary
  3
STANDARD
350
1C
  0
MLINESTYLE
  5
1C
102
{ACAD_REACTORS
330
1B
102
}
100
AcDbMlineStyle
  2
STANDARD
 70
     0
  3

 62
     0
 51
90.0
 52
90.0
 71
     2
 49
0.5
 62
   256
  6
BYLAYER
 49
-0.5
 62
   256
  6
BYLAYER
  0
ENDSEC
  0
EOF
