 999
SCAN2CAD Date : 01/26/16
 999
SCAN2CAD ScalePixelX : 1
 999
SCAN2CAD ScalePixelY : 1
 999
SCAN2CAD TileXOffset : 0
 999
SCAN2CAD TileYOffset : 0
 999
SCAN2CAD MeasureType : 1
 999
SCAN2CAD DotsPerInch : 0
 999
SCAN2CAD GeScalePixX : 1
 999
SCAN2CAD GeScalePixY : 1
 999
SCAN2CAD GeRasTiePtX : 0
 999
SCAN2CAD GeRasTiePtY : 0
 999
SCAN2CAD ScalRasDist : 1
 999
SCAN2CAD ScalVecDist : 1
 999
SCAN2CAD ScalUnitTyp : 0
 999
SCAN2CAD ScalDistFac : 1
 999
SCAN2CAD ScalAdjustX : 1
 999
SCAN2CAD ScalAdjustY : 1
 999
SCAN2CAD MeasureMeth : 1
 999
SCAN2CAD OgDrawScale : 1
 999
SCAN2CAD OgDrawUType : 0
 999
SCAN2CAD ToDrawScale : 1
 999
SCAN2CAD ToDrawUType : 0
  0
SECTION
  2
HEADER
  9
$ACADVER
  1
AC1014
  9
$ACADMAINTVER
 70
     0
  9
$DWGCODEPAGE
  3
ANSI_1252
  9
$INSBASE
 10
0.0
 20
0.0
 30
0.0
 9
$EXTMIN
 10
28.583
 20
17.7542012207031
 30
0.0
 9
$EXTMAX
 10
201.4673
 20
397.519501220703
 30
0.0
 9
$LIMMIN
 10
0
 20
0
 9
$LIMMAX
 10
159
 20
355
  9
$ORTHOMODE
 70
     0
  9
$REGENMODE
 70
     1
  9
$FILLMODE
 70
     1
  9
$QTEXTMODE
 70
     0
  9
$MIRRTEXT
 70
     1
  9
$DRAGMODE
 70
     2
  9
$LTSCALE
 40
1.0
  9
$OSMODE
 70
     0
  9
$ATTMODE
 70
     1
  9
$TEXTSIZE
 40
0.2
  9
$TRACEWID
 40
0.05
  9
$TEXTSTYLE
  7
STANDARD
  9
$CLAYER
  8
0
  9
$CELTYPE
  6
CONTINUOUS
  9
$CECOLOR
 62
   256
  9
$CELTSCALE
 40
1.0
  9
$DELOBJ
 70
     1
  9
$DISPSILH
 70
     0
  9
$DIMSCALE
 40
1.0
  9
$DIMASZ
 40
0.18
  9
$DIMEXO
 40
0.0625
  9
$DIMDLI
 40
0.38
  9
$DIMRND
 40
0.0
  9
$DIMDLE
 40
0.0
  9
$DIMEXE
 40
0.18
  9
$DIMTP
 40
0.0
  9
$DIMTM
 40
0.0
  9
$DIMTXT
 40
0.18
  9
$DIMCEN
 40
0.09
  9
$DIMTSZ
 40
0.0
  9
$DIMTOL
 70
     0
  9
$DIMLIM
 70
     0
  9
$DIMTIH
 70
     1
  9
$DIMTOH
 70
     1
  9
$DIMSE1
 70
     0
  9
$DIMSE2
 70
     0
  9
$DIMTAD
 70
     0
  9
$DIMZIN
 70
     0
  9
$DIMBLK
  1

  9
$DIMASO
 70
     1
  9
$DIMSHO
 70
     1
  9
$DIMPOST
  1

  9
$DIMAPOST
  1

  9
$DIMALT
 70
     0
  9
$DIMALTD
 70
     2
  9
$DIMALTF
 40
25.4
  9
$DIMLFAC
 40
1.0
  9
$DIMTOFL
 70
     0
  9
$DIMTVP
 40
0.0
  9
$DIMTIX
 70
     0
  9
$DIMSOXD
 70
     0
  9
$DIMSAH
 70
     0
  9
$DIMBLK1
  1

  9
$DIMBLK2
  1

  9
$DIMSTYLE
  2
STANDARD
  9
$DIMCLRD
 70
     0
  9
$DIMCLRE
 70
     0
  9
$DIMCLRT
 70
     0
  9
$DIMTFAC
 40
1.0
  9
$DIMGAP
 40
0.09
  9
$DIMJUST
 70
     0
  9
$DIMSD1
 70
     0
  9
$DIMSD2
 70
     0
  9
$DIMTOLJ
 70
     1
  9
$DIMTZIN
 70
     0
  9
$DIMALTZ
 70
     0
  9
$DIMALTTZ
 70
     0
  9
$DIMFIT
 70
     3
  9
$DIMUPT
 70
     0
  9
$DIMUNIT
 70
     2
  9
$DIMDEC
 70
     4
  9
$DIMTDEC
 70
     4
  9
$DIMALTU
 70
     2
  9
$DIMALTTD
 70
     2
  9
$DIMTXSTY
  7
STANDARD
  9
$DIMAUNIT
 70
     0
  9
$LUNITS
 70
     2
  9
$LUPREC
 70
     4
  9
$SKETCHINC
 40
0.1
  9
$FILLETRAD
 40
0.0
  9
$AUNITS
 70
     0
  9
$AUPREC
 70
     0
  9
$MENU
  1
acad
  9
$ELEVATION
 40
0.0
  9
$PELEVATION
 40
0.0
  9
$THICKNESS
 40
0.0
  9
$LIMCHECK
 70
     0
  9
$BLIPMODE
 70
     1
  9
$CHAMFERA
 40
0.0
  9
$CHAMFERB
 40
0.0
  9
$CHAMFERC
 40
0.0
  9
$CHAMFERD
 40
0.0
  9
$SKPOLY
 70
     0
  9
$TDCREATE
 40
0.000000000
  9
$TDUPDATE
 40
0.000000000
  9
$TDINDWG
 40
0.0000000000
  9
$TDUSRTIMER
 40
0.0000000000
  9
$USRTIMER
 70
     1
  9
$ANGBASE
 50
0.0
  9
$ANGDIR
 70
     0
  9
$PDMODE
 70
     0
  9
$PDSIZE
 40
0.0
  9
$PLINEWID
 40
0.0
  9
$COORDS
 70
     0
  9
$SPLFRAME
 70
     0
  9
$SPLINETYPE
 70
     6
  9
$SPLINESEGS
 70
     8
  9
$ATTDIA
 70
     0
  9
$ATTREQ
 70
     1
  9
$HANDLING
 70
     1
  9
$HANDSEED
  5
      D2
  9
$SURFTAB1
 70
     6
  9
$SURFTAB2
 70
     6
  9
$SURFTYPE
 70
     6
  9
$SURFU
 70
     6
  9
$SURFV
 70
     6
  9
$UCSNAME
  2

  9
$UCSORG
 10
0.0
 20
0.0
 30
0.0
  9
$UCSXDIR
 10
1.0
 20
0.0
 30
0.0
  9
$UCSYDIR
 10
0.0
 20
1.0
 30
0.0
  9
$PUCSNAME
  2

  9
$PUCSORG
 10
0.0
 20
0.0
 30
0.0
  9
$PUCSXDIR
 10
1.0
 20
0.0
 30
0.0
  9
$PUCSYDIR
 10
0.0
 20
1.0
 30
0.0
  9
$USERI1
 70
     0
  9
$USERI2
 70
     0
  9
$USERI3
 70
     0
  9
$USERI4
 70
     0
  9
$USERI5
 70
     0
  9
$USERR1
 40
0.0
  9
$USERR2
 40
0.0
  9
$USERR3
 40
0.0
  9
$USERR4
 40
0.0
  9
$USERR5
 40
0.0
  9
$WORLDVIEW
 70
     1
  9
$SHADEDGE
 70
     3
  9
$SHADEDIF
 70
    70
  9
$TILEMODE
 70
     1
  9
$MAXACTVP
 70
    16
  9
$PINSBASE
 10
0.0
 20
0.0
 30
0.0
  9
$PLIMCHECK
 70
     0
 9
$PEXTMIN
 10
28.583
 20
17.7542012207031
 30
0.0
 9
$PEXTMAX
 10
201.4673
 20
397.519501220703
 30
0.0
 9
$PLIMMIN
 10
0
 20
0
 9
$PLIMMAX
 10
159
 20
355
  9
$UNITMODE
 70
     0
  9
$VISRETAIN
 70
     0
  9
$PLINEGEN
 70
     1
  9
$PSLTSCALE
 70
     0
  9
$TREEDEPTH
 70
  3020
  9
$PICKSTYLE
 70
     1
  9
$CMLSTYLE
  2
STANDARD
  9
$CMLJUST
 70
     0
  9
$CMLSCALE
 40
1.0
  9
$PROXYGRAPHICS
 70
     0
  9
$MEASUREMENT
 70
     0
  0
ENDSEC
  0
SECTION
  2
CLASSES
  0
CLASS
  1
LWPOLYLINE
  2
AcDbPolyline
  3
"AutoCAD"
 90
        0
280
     0
281
     1
  0
CLASS
  1
IMAGE
  2
AcDbRasterImage
  3
ISM
 90
      127
280
     0
281
     1
  0
CLASS
  1
OLE2FRAME
  2
AcDbOle2Frame
  3
""
 90
        0
280
     0
281
     1
  0
CLASS
  1
HATCH
  2
AcDbHatch
  3
"ACAD_SEDONA"
 90
        0
280
     0
281
     1
  0
CLASS
  1
DICTIONARYVAR
  2
AcDbDictionaryVar
  3
"AutoCAD"
 90
        0
280
     0
281
     0
  0
CLASS
  1
RASTERVARIABLES
  2
AcDbRasterVariables
  3
ISM
 90
        0
280
     0
281
     0
  0
CLASS
  1
IMAGEDEF
  2
AcDbRasterImageDef
  3
ISM
 90
        0
280
     0
281
     0
  0
CLASS
  1
IMAGEDEF_REACTOR
  2
AcDbRasterImageDefReactor
  3
ISM
 90
        1
280
     0
281
     0
  0
CLASS
  1
IDBUFFER
  2
AcDbIdBuffer
  3
"Acad"
 90
        0
280
     0
281
     0
  0
CLASS
  1
SPATIAL_FILTER
  2
AcDbSpatialFilter
  3
"Acad"
 90
        0
280
     0
281
     0
  0
CLASS
  1
XRECORD
  2
AcDbXrecord
  3
"<Built In>"
 90
        0
280
     0
281
     0
  0
CLASS
  1
SORTENTSTABLE
  2
AcDbSortentsTable
  3
"AutoCAD"
 90
        0
280
     0
281
     0
  0
CLASS
  1
LAYER_INDEX
  2
AcDbLayerIndex
  3
"Acad"
 90
        0
280
     0
281
     0
  0
CLASS
  1
SPATIAL_INDEX
  2
AcDbSpatialIndex
  3
"Acad"
 90
        0
280
     0
281
     0
  0
CLASS
  1
OBJECT_PTR
  2
CAseDLPNTableRecord
  3
"ASE-LPNTableRecord"
 90
        1
280
     0
281
     0
  0
ENDSEC
  0
SECTION
  2
TABLES
  0
TABLE
  2
VPORT
  5
7
100
AcDbSymbolTable
 70
     1
  0
VPORT
  5
15
100
AcDbSymbolTableRecord
100
AcDbViewportTableRecord
 2
*ACTIVE
 70
     0
 10
0
 20
0
 11
1.0
 21
1.0
 12
0.0
 22
0.0
 13
0.0
 23
0.0
 14
1.0
 24
1.0
 15
0.0
 25
0.0
 16
0.0
 26
0.0
 36
1.0
 17
115.02515
 27
207.636851220703
 37
0.0
 40
383.7653
 41
0.460917909983003
 42
50.0
 43
0.0
 44
0.0
 50
0.0
 51
0.0
 71
     0
 72
   100
 73
     1
 74
     1
 75
     0
 76
     0
 77
     0
 78
     0
   0
ENDTAB
  0
TABLE
  2
LTYPE
  5
4
100
AcDbSymbolTable
 70
3
  0
LTYPE
  5
11
100
AcDbSymbolTableRecord
100
AcDbLinetypeTableRecord
  2
BYBLOCK
 70
     0
  3

 72
    65
 73
     0
 40
0.0
  0
LTYPE
  5
12
100
AcDbSymbolTableRecord
100
AcDbLinetypeTableRecord
  2
BYLAYER
 70
     0
  3

 72
    65
 73
     0
 40
0.0
  0
LTYPE
  5
80
330
5
100
AcDbSymbolTableRecord
100
AcDbLinetypeTableRecord
  2
CONTINUOUS
 70
     0
  3
Continuous
 72
    65
 73
     0
 40
0.0
  0
LTYPE
  5
81
330
5
100
AcDbSymbolTableRecord
100
AcDbLinetypeTableRecord
  2
DASH
 70
     0
  3
Dash
 72
    65
 73
     2
 40
48.0
 49
24.0
 74
     0
 49
-24.0
 74
     0
  0
LTYPE
  5
82
330
5
100
AcDbSymbolTableRecord
100
AcDbLinetypeTableRecord
  2
DASHDOT
 70
     0
  3
DashDot
 72
    65
 73
     4
 40
48.0
 49
24.0
 74
     0
 49
 -12.0
 74
     0
 49
0.0
 74
     0
 49
 -12.0
 74
     0	
  0
ENDTAB
  0
TABLE
  2
LAYER
  5
2
100
AcDbSymbolTable
 70
4              
  0
LAYER
  5
83
100
AcDbSymbolTableRecord
100
AcDbLayerTableRecord
  2
0
 70
     0
 62
     7
  6
CONTINUOUS
 0
LAYER
  5
84
100
AcDbSymbolTableRecord
100
AcDbLayerTableRecord
 2
Layer0
 70
 64
 62
 7
 6
CONTINUOUS
 0
LAYER
  5
85
100
AcDbSymbolTableRecord
100
AcDbLayerTableRecord
 2
Layer8
 70
 64
 62
 8
 6
CONTINUOUS
 0
LAYER
  5
86
100
AcDbSymbolTableRecord
100
AcDbLayerTableRecord
 2
Layer22
 70
 64
 62
 22
 6
CONTINUOUS
  0
ENDTAB
  0
TABLE
  2
STYLE
  5
3
100
AcDbSymbolTable
 70
1              
 0
STYLE
 5
17
100
AcDbSymbolTableRecord
100
AcDbTextStyleTableRecord
 2
STANDARD
 70
 0
 40
 0.0
 41
 1.0
 50
 0.0
 71
  0
 42
 8.0
 3
 txt
 4

  0
ENDTAB
  0
TABLE
  2
VIEW
  5
5
100
AcDbSymbolTable
 70
     0
  0
ENDTAB
  0
TABLE
  2
UCS
  5
6
100
AcDbSymbolTable
 70
     0
  0
ENDTAB
  0
TABLE
  2
APPID
  5
8
100
AcDbSymbolTable
 70
     1
  0
APPID
  5
16
100
AcDbSymbolTableRecord
100
AcDbRegAppTableRecord
  2
ACAD
 70
     0
  0
ENDTAB
  0
TABLE
  2
DIMSTYLE
  5
9
100
AcDbSymbolTable
 70
     1
  0
DIMSTYLE
105
18
100
AcDbSymbolTableRecord
100
AcDbDimStyleTableRecord
  2
STANDARD
 70
     0
  3

  4

  5

  6

  7

 40
1.0
 41
0.18
 42
0.0625
 43
0.38
 44
0.18
 45
0.0
 46
0.0
 47
0.0
 48
0.0
140
0.18
141
0.09
142
0.0
143
25.4
144
1.0
145
0.0
146
1.0
147
0.09
 71
     0
 72
     0
 73
     1
 74
     1
 75
     0
 76
     0
 77
     0
 78
     0
170
     0
171
     2
172
     0
173
     0
174
     0
175
     0
176
     0
177
     0
178
     0
270
     2
271
     4
272
     4
273
     2
274
     2
340
17
275
     0
280
     0
281
     0
282
     0
283
     1
284
     0
285
     0
286
     0
287
     0
288
     0
  0
ENDTAB
  0
TABLE
  2
BLOCK_RECORD
  5
1
100
AcDbSymbolTable
 70
     0
  0
BLOCK_RECORD
  5
A
100
AcDbSymbolTableRecord
100
AcDbBlockTableRecord
  2
*MODEL_SPACE
  0
BLOCK_RECORD
  5
B
100
AcDbSymbolTableRecord
100
AcDbBlockTableRecord
  2
*PAPER_SPACE
  0
ENDTAB
  0
ENDSEC
  0
SECTION
  2
BLOCKS
  0
BLOCK
  5
D
100
AcDbEntity
  8
0
100
AcDbBlockBegin
  2
*MODEL_SPACE
 70
     0
 10
0.0
 20
0.0
 30
0.0
  3
*MODEL_SPACE
  1

  0
ENDBLK
  5
E
100
AcDbEntity
  8
0
100
AcDbBlockEnd
  0
BLOCK
  5
F
100
AcDbEntity
 67
     1
  8
0
100
AcDbBlockBegin
  2
*PAPER_SPACE
 70
     0
 10
0.0
 20
0.0
 30
0.0
  3
*PAPER_SPACE
  1

  0
ENDBLK
  5
10
100
AcDbEntity
 67
     1
  8
0
100
AcDbBlockEnd
 0
ENDSEC
 0
SECTION
 2
ENTITIES
 0
HATCH
 5
87
100
AcDbEntity
 8
Layer8
100
AcDbHatch
 10
 0.0
 20
 0.0
 30
 0.0
 210
 0.0
 220
 0.0
 230
 1.0
 2
SOLID
 70
 1
 71
 1
 91
3              
 92
 0
 93
54             
 72
 1
 10
126.1892
 20
146.753101220703
 11
125.9413953125
 21
147.135993798828
 72
 1
 10
125.9413953125
 20
147.135993798828
 11
125.7435125
 21
147.569616845703
 72
 1
 10
125.7435125
 20
147.569616845703
 11
125.5903484375
 21
148.045638330078
 72
 1
 10
125.5903484375
 20
148.045638330078
 11
125.4767
 21
148.555726220703
 72
 1
 10
125.4767
 20
148.555726220703
 11
125.3973640625
 21
149.091548486328
 72
 1
 10
125.3973640625
 20
149.091548486328
 11
125.3471375
 21
149.644773095703
 72
 1
 10
125.3471375
 20
149.644773095703
 11
125.3208171875
 21
150.207068017578
 72
 1
 10
125.3208171875
 20
150.207068017578
 11
125.3132
 21
150.770101220703
 72
 1
 10
125.3132
 20
150.770101220703
 11
125.334826953125
 21
151.671816064453
 72
 1
 10
125.334826953125
 20
151.671816064453
 11
125.411965625
 21
152.555882470703
 72
 1
 10
125.411965625
 20
152.555882470703
 11
125.563002734375
 21
153.390683251953
 72
 1
 10
125.563002734375
 20
153.390683251953
 11
125.806325
 21
154.144601220703
 72
 1
 10
125.806325
 20
154.144601220703
 11
126.160319140625
 21
154.786019189453
 72
 1
 10
126.160319140625
 20
154.786019189453
 11
126.643371875
 21
155.283319970703
 72
 1
 10
126.643371875
 20
155.283319970703
 11
127.273869921875
 21
155.604886376953
 72
 1
 10
127.273869921875
 20
155.604886376953
 11
128.0702
 21
155.719101220703
 72
 1
 10
128.0702
 20
155.719101220703
 11
128.2753796875
 21
155.713491845703
 72
 1
 10
128.2753796875
 20
155.713491845703
 11
128.4677625
 21
155.696538720703
 72
 1
 10
128.4677625
 20
155.696538720703
 11
128.6482390625
 21
155.668054345703
 72
 1
 10
128.6482390625
 20
155.668054345703
 11
128.8177
 21
155.627851220703
 72
 1
 10
128.8177
 20
155.627851220703
 11
128.9770359375
 21
155.575741845703
 72
 1
 10
128.9770359375
 20
155.575741845703
 11
129.1271375
 21
155.511538720703
 72
 1
 10
129.1271375
 20
155.511538720703
 11
129.2688953125
 21
155.435054345703
 72
 1
 10
129.2688953125
 20
155.435054345703
 11
129.4032
 21
155.346101220703
 72
 1
 10
129.4032
 20
155.346101220703
 11
129.6892
 21
156.134101220703
 72
 1
 10
129.6892
 20
156.134101220703
 11
130.3372
 21
155.840101220703
 72
 1
 10
130.3372
 20
155.840101220703
 11
129.9542
 21
154.812101220703
 72
 1
 10
129.9542
 20
154.812101220703
 11
130.19453984375
 21
154.421366845703
 72
 1
 10
130.19453984375
 20
154.421366845703
 11
130.38891875
 21
153.984788720703
 72
 1
 10
130.38891875
 20
153.984788720703
 11
130.54162578125
 21
153.508929345703
 72
 1
 10
130.54162578125
 20
153.508929345703
 11
130.65695
 21
153.000351220703
 72
 1
 10
130.65695
 20
153.000351220703
 11
130.73918046875
 21
152.465616845703
 72
 1
 10
130.73918046875
 20
152.465616845703
 11
130.79260625
 21
151.911288720703
 72
 1
 10
130.79260625
 20
151.911288720703
 11
130.82151640625
 21
151.343929345703
 72
 1
 10
130.82151640625
 20
151.343929345703
 11
130.8302
 21
150.770101220703
 72
 1
 10
130.8302
 20
150.770101220703
 11
130.8085671875
 21
149.867396142578
 72
 1
 10
130.8085671875
 20
149.867396142578
 11
130.7313875
 21
148.982585595703
 72
 1
 10
130.7313875
 20
148.982585595703
 11
130.5802390625
 21
148.147251611328
 72
 1
 10
130.5802390625
 20
148.147251611328
 11
130.3367
 21
147.392976220703
 72
 1
 10
130.3367
 20
147.392976220703
 11
129.9823484375
 21
146.751341455078
 72
 1
 10
129.9823484375
 20
146.751341455078
 11
129.4987625
 21
146.253929345703
 72
 1
 10
129.4987625
 20
146.253929345703
 11
128.8675203125
 21
145.932321923828
 72
 1
 10
128.8675203125
 20
145.932321923828
 11
128.0702
 21
145.818101220703
 72
 1
 10
128.0702
 20
145.818101220703
 11
127.880756640625
 21
145.823792626953
 72
 1
 10
127.880756640625
 20
145.823792626953
 11
127.698028125
 21
145.840944970703
 72
 1
 10
127.698028125
 20
145.840944970703
 11
127.522166796875
 21
145.869675439453
 72
 1
 10
127.522166796875
 20
145.869675439453
 11
127.353325
 21
145.910101220703
 72
 1
 10
127.353325
 20
145.910101220703
 11
127.191655078125
 21
145.962339501953
 72
 1
 10
127.191655078125
 20
145.962339501953
 11
127.037309375
 21
146.026507470703
 72
 1
 10
127.037309375
 20
146.026507470703
 11
126.890440234375
 21
146.102722314453
 72
 1
 10
126.890440234375
 20
146.102722314453
 11
126.7512
 21
146.191101220703
 72
 1
 10
126.7512
 20
146.191101220703
 11
126.4412
 21
145.364101220703
 72
 1
 10
126.4412
 20
145.364101220703
 11
125.7912
 21
145.686101220703
 72
 1
 10
125.7912
 20
145.686101220703
 11
126.1892
 21
146.753101220703
 97
 1
 330
88
 92
 0
 93
25             
 72
 1
 10
129.0312
 20
154.358101220703
 11
128.937325
 21
154.452032861328
 72
 1
 10
128.937325
 20
154.452032861328
 11
128.8357625
 21
154.533554345703
 72
 1
 10
128.8357625
 20
154.533554345703
 11
128.72660625
 21
154.602630517578
 72
 1
 10
128.72660625
 20
154.602630517578
 11
128.60995
 21
154.659226220703
 72
 1
 10
128.60995
 20
154.659226220703
 11
128.4858875
 21
154.703306298828
 72
 1
 10
128.4858875
 20
154.703306298828
 11
128.3545125
 21
154.734835595703
 72
 1
 10
128.3545125
 20
154.734835595703
 11
128.21591875
 21
154.753778955078
 72
 1
 10
128.21591875
 20
154.753778955078
 11
128.0702
 21
154.760101220703
 72
 1
 10
128.0702
 20
154.760101220703
 11
127.578471484375
 21
154.678890283203
 72
 1
 10
127.578471484375
 20
154.678890283203
 11
127.193559375
 21
154.446038720703
 72
 1
 10
127.193559375
 20
154.446038720703
 11
126.902748828125
 21
154.077718408203
 72
 1
 10
126.902748828125
 20
154.077718408203
 11
126.693325
 21
153.590101220703
 72
 1
 10
126.693325
 20
153.590101220703
 11
126.552573046875
 21
152.999359033203
 72
 1
 10
126.552573046875
 20
152.999359033203
 11
126.467778125
 21
152.321663720703
 72
 1
 10
126.467778125
 20
152.321663720703
 11
126.426225390625
 21
151.573187158203
 72
 1
 10
126.426225390625
 20
151.573187158203
 11
126.4152
 21
150.770101220703
 72
 1
 10
126.4152
 20
150.770101220703
 11
126.4177
 21
150.376241845703
 72
 1
 10
126.4177
 20
150.376241845703
 11
126.4260125
 21
149.996726220703
 72
 1
 10
126.4260125
 20
149.996726220703
 11
126.44135625
 21
149.632023095703
 72
 1
 10
126.44135625
 20
149.632023095703
 11
126.46495
 21
149.282601220703
 72
 1
 10
126.46495
 20
149.282601220703
 11
126.4980125
 21
148.948929345703
 72
 1
 10
126.4980125
 20
148.948929345703
 11
126.5417625
 21
148.631476220703
 72
 1
 10
126.5417625
 20
148.631476220703
 11
126.59741875
 21
148.330710595703
 72
 1
 10
126.59741875
 20
148.330710595703
 11
126.6662
 21
148.047101220703
 72
 1
 10
126.6662
 20
148.047101220703
 11
129.0312
 21
154.358101220703
 97
 1
 330
89
 92
 0
 93
25             
 72
 1
 10
127.1232
 20
147.180101220703
 11
127.216965625
 21
147.085925439453
 72
 1
 10
127.216965625
 20
147.085925439453
 11
127.317575
 21
147.004382470703
 72
 1
 10
127.317575
 20
147.004382470703
 11
127.425121875
 21
146.935448876953
 72
 1
 10
127.425121875
 20
146.935448876953
 11
127.5397
 21
146.879101220703
 72
 1
 10
127.5397
 20
146.879101220703
 11
127.661403125
 21
146.835316064453
 72
 1
 10
127.661403125
 20
146.835316064453
 11
127.790325
 21
146.804069970703
 72
 1
 10
127.790325
 20
146.804069970703
 11
127.926559375
 21
146.785339501953
 72
 1
 10
127.926559375
 20
146.785339501953
 11
128.0702
 21
146.779101220703
 72
 1
 10
128.0702
 20
146.779101220703
 11
128.56102421875
 21
146.860191064453
 72
 1
 10
128.56102421875
 20
146.860191064453
 11
128.94541875
 21
147.092757470703
 72
 1
 10
128.94541875
 20
147.092757470703
 11
129.23601640625
 21
147.460745751953
 72
 1
 10
129.23601640625
 20
147.460745751953
 11
129.44545
 21
147.948101220703
 72
 1
 10
129.44545
 20
147.948101220703
 11
129.58635234375
 21
148.538769189453
 72
 1
 10
129.58635234375
 20
148.538769189453
 11
129.67135625
 21
149.216694970703
 72
 1
 10
129.67135625
 20
149.216694970703
 11
129.71309453125
 21
149.965823876953
 72
 1
 10
129.71309453125
 20
149.965823876953
 11
129.7242
 21
150.770101220703
 72
 1
 10
129.7242
 20
150.770101220703
 11
129.721823046875
 21
151.164638330078
 72
 1
 10
129.721823046875
 20
151.164638330078
 11
129.713809375
 21
151.547585595703
 72
 1
 10
129.713809375
 20
151.547585595703
 11
129.698834765625
 21
151.917196923828
 72
 1
 10
129.698834765625
 20
151.917196923828
 11
129.675575
 21
152.271726220703
 72
 1
 10
129.675575
 20
152.271726220703
 11
129.642705859375
 21
152.609427392578
 72
 1
 10
129.642705859375
 20
152.609427392578
 11
129.598903125
 21
152.928554345703
 72
 1
 10
129.598903125
 20
152.928554345703
 11
129.542842578125
 21
153.227360986328
 72
 1
 10
129.542842578125
 20
153.227360986328
 11
129.4732
 21
153.504101220703
 72
 1
 10
129.4732
 20
153.504101220703
 11
127.1232
 21
147.180101220703
 97
 1
 330
8A
 75
 0
 76
 1
 98
 1
 10
 0.0
 20
 0.0
 0
HATCH
 5
8B
100
AcDbEntity
 8
Layer8
100
AcDbHatch
 10
 0.0
 20
 0.0
 30
 0.0
 210
 0.0
 220
 0.0
 230
 1.0
 2
SOLID
 70
 1
 71
 1
 91
1              
 92
 0
 93
70             
 72
 1
 10
139.8679
 20
146.006001220703
 11
135.1189
 21
146.006001220703
 72
 1
 10
135.1189
 20
146.006001220703
 11
135.15890390625
 21
146.640645751953
 72
 1
 10
135.15890390625
 20
146.640645751953
 11
135.27243125
 21
147.225907470703
 72
 1
 10
135.27243125
 20
147.225907470703
 11
135.44975546875
 21
147.764903564453
 72
 1
 10
135.44975546875
 20
147.764903564453
 11
135.68115
 21
148.260751220703
 72
 1
 10
135.68115
 20
148.260751220703
 11
135.95688828125
 21
148.716567626953
 72
 1
 10
135.95688828125
 20
148.716567626953
 11
136.26724375
 21
149.135469970703
 72
 1
 10
136.26724375
 20
149.135469970703
 11
136.60248984375
 21
149.520575439453
 72
 1
 10
136.60248984375
 20
149.520575439453
 11
136.9529
 21
149.875001220703
 72
 1
 10
136.9529
 20
149.875001220703
 11
137.6469
 21
150.529001220703
 72
 1
 10
137.6469
 20
150.529001220703
 11
137.892196875
 21
150.771567626953
 72
 1
 10
137.892196875
 20
150.771567626953
 11
138.1120875
 21
151.013032470703
 72
 1
 10
138.1120875
 20
151.013032470703
 11
138.304321875
 21
151.259794189453
 72
 1
 10
138.304321875
 20
151.259794189453
 11
138.46665
 21
151.518251220703
 72
 1
 10
138.46665
 20
151.518251220703
 11
138.596821875
 21
151.794802001953
 72
 1
 10
138.596821875
 20
151.794802001953
 11
138.6925875
 21
152.095844970703
 72
 1
 10
138.6925875
 20
152.095844970703
 11
138.751696875
 21
152.427778564453
 72
 1
 10
138.751696875
 20
152.427778564453
 11
138.7719
 21
152.797001220703
 72
 1
 10
138.7719
 20
152.797001220703
 11
138.756413671875
 21
153.099520751953
 72
 1
 10
138.756413671875
 20
153.099520751953
 11
138.707821875
 21
153.399344970703
 72
 1
 10
138.707821875
 20
153.399344970703
 11
138.622925390625
 21
153.684872314453
 72
 1
 10
138.622925390625
 20
153.684872314453
 11
138.498525
 21
153.944501220703
 72
 1
 10
138.498525
 20
153.944501220703
 11
138.331421484375
 21
154.166630126953
 72
 1
 10
138.331421484375
 20
154.166630126953
 11
138.118415625
 21
154.339657470703
 72
 1
 10
138.118415625
 20
154.339657470703
 11
137.856308203125
 21
154.451981689453
 72
 1
 10
137.856308203125
 20
154.451981689453
 11
137.5419
 21
154.492001220703
 72
 1
 10
137.5419
 20
154.492001220703
 11
137.10799375
 21
154.426204345703
 72
 1
 10
137.10799375
 20
154.426204345703
 11
136.7790875
 21
154.248188720703
 72
 1
 10
136.7790875
 20
154.248188720703
 11
136.54065
 21
153.987016845703
 72
 1
 10
136.54065
 20
153.987016845703
 11
136.37815
 21
153.671751220703
 72
 1
 10
136.37815
 20
153.671751220703
 11
136.27705625
 21
153.331454345703
 72
 1
 10
136.27705625
 20
153.331454345703
 11
136.2228375
 21
152.995188720703
 72
 1
 10
136.2228375
 20
152.995188720703
 11
136.2009625
 21
152.692016845703
 72
 1
 10
136.2009625
 20
152.692016845703
 11
136.1969
 21
152.451001220703
 72
 1
 10
136.1969
 20
152.451001220703
 11
135.1419
 21
152.451001220703
 72
 1
 10
135.1419
 20
152.451001220703
 11
135.174132421875
 21
153.089325439453
 72
 1
 10
135.174132421875
 20
153.089325439453
 11
135.273946875
 21
153.668469970703
 72
 1
 10
135.273946875
 20
153.668469970703
 11
135.446019140625
 21
154.180442626953
 72
 1
 10
135.446019140625
 20
154.180442626953
 11
135.695025
 21
154.617251220703
 72
 1
 10
135.695025
 20
154.617251220703
 11
136.025640234375
 21
154.970903564453
 72
 1
 10
136.025640234375
 20
154.970903564453
 11
136.442540625
 21
155.233407470703
 72
 1
 10
136.442540625
 20
155.233407470703
 11
136.950401953125
 21
155.396770751953
 72
 1
 10
136.950401953125
 20
155.396770751953
 11
137.5539
 21
155.453001220703
 72
 1
 10
137.5539
 20
155.453001220703
 11
138.215866796875
 21
155.377981689453
 72
 1
 10
138.215866796875
 20
155.377981689453
 11
138.738509375
 21
155.173282470703
 72
 1
 10
138.738509375
 20
155.173282470703
 11
139.137566015625
 21
154.869442626953
 72
 1
 10
139.137566015625
 20
154.869442626953
 11
139.428775
 21
154.497001220703
 72
 1
 10
139.428775
 20
154.497001220703
 11
139.627874609375
 21
154.086497314453
 72
 1
 10
139.627874609375
 20
154.086497314453
 11
139.750603125
 21
153.668469970703
 72
 1
 10
139.750603125
 20
153.668469970703
 11
139.812698828125
 21
153.273458251953
 72
 1
 10
139.812698828125
 20
153.273458251953
 11
139.8299
 21
152.932001220703
 72
 1
 10
139.8299
 20
152.932001220703
 11
139.80476328125
 21
152.423895751953
 72
 1
 10
139.80476328125
 20
152.423895751953
 11
139.73043125
 21
151.966532470703
 72
 1
 10
139.73043125
 20
151.966532470703
 11
139.60852109375
 21
151.551591064453
 72
 1
 10
139.60852109375
 20
151.551591064453
 11
139.44065
 21
151.170751220703
 72
 1
 10
139.44065
 20
151.170751220703
 11
139.22843515625
 21
150.815692626953
 72
 1
 10
139.22843515625
 20
150.815692626953
 11
138.97349375
 21
150.478094970703
 72
 1
 10
138.97349375
 20
150.478094970703
 11
138.67744296875
 21
150.149637939453
 72
 1
 10
138.67744296875
 20
150.149637939453
 11
138.3419
 21
149.822001220703
 72
 1
 10
138.3419
 20
149.822001220703
 11
137.1429
 21
148.662001220703
 72
 1
 10
137.1429
 20
148.662001220703
 11
136.97502109375
 21
148.491665283203
 72
 1
 10
136.97502109375
 20
148.491665283203
 11
136.82061875
 21
148.311626220703
 72
 1
 10
136.82061875
 20
148.311626220703
 11
136.68041953125
 21
148.122212158203
 72
 1
 10
136.68041953125
 20
148.122212158203
 11
136.55515
 21
147.923751220703
 72
 1
 10
136.55515
 20
147.923751220703
 11
136.44553671875
 21
147.716571533203
 72
 1
 10
136.44553671875
 20
147.716571533203
 11
136.35230625
 21
147.501001220703
 72
 1
 10
136.35230625
 20
147.501001220703
 11
136.27618515625
 21
147.277368408203
 72
 1
 10
136.27618515625
 20
147.277368408203
 11
136.2179
 21
147.046001220703
 72
 1
 10
136.2179
 20
147.046001220703
 11
139.8679
 21
147.046001220703
 72
 1
 10
139.8679
 20
147.046001220703
 11
139.8679
 21
146.006001220703
 97
 1
 330
8C
 75
 0
 76
 1
 98
 1
 10
 0.0
 20
 0.0
 0
HATCH
 5
8D
100
AcDbEntity
 8
Layer8
100
AcDbHatch
 10
 0.0
 20
 0.0
 30
 0.0
 210
 0.0
 220
 0.0
 230
 1.0
 2
SOLID
 70
 1
 71
 1
 91
2              
 92
 0
 93
32             
 72
 1
 10
140.8288
 20
150.595801220703
 11
140.838325390625
 21
151.401975048828
 72
 1
 10
140.838325390625
 20
151.401975048828
 11
140.883065625
 21
152.232629345703
 72
 1
 10
140.883065625
 20
152.232629345703
 11
140.987266796875
 21
153.047088330078
 72
 1
 10
140.987266796875
 20
153.047088330078
 11
141.175175
 21
153.804676220703
 72
 1
 10
141.175175
 20
153.804676220703
 11
141.471036328125
 21
154.464717236328
 72
 1
 10
141.471036328125
 20
154.464717236328
 11
141.899096875
 21
154.986535595703
 72
 1
 10
141.899096875
 20
154.986535595703
 11
142.483602734375
 21
155.329455517578
 72
 1
 10
142.483602734375
 20
155.329455517578
 11
143.2488
 21
155.452801220703
 72
 1
 10
143.2488
 20
155.452801220703
 11
144.014126171875
 21
155.338807080078
 72
 1
 10
144.014126171875
 20
155.338807080078
 11
144.598971875
 21
155.018598095703
 72
 1
 10
144.598971875
 20
155.018598095703
 11
145.027512890625
 21
154.524834423828
 72
 1
 10
145.027512890625
 20
154.524834423828
 11
145.323925
 21
153.890176220703
 72
 1
 10
145.323925
 20
153.890176220703
 11
145.512383984375
 21
153.147283642578
 72
 1
 10
145.512383984375
 20
153.147283642578
 11
145.617065625
 21
152.328816845703
 72
 1
 10
145.617065625
 20
152.328816845703
 11
145.662145703125
 21
151.467435986328
 72
 1
 10
145.662145703125
 20
151.467435986328
 11
145.6718
 21
150.595801220703
 72
 1
 10
145.6718
 20
150.595801220703
 11
145.662145703125
 21
149.819766064453
 72
 1
 10
145.662145703125
 20
149.819766064453
 11
145.617065625
 21
149.010707470703
 72
 1
 10
145.617065625
 20
149.010707470703
 11
145.512383984375
 21
148.210695751953
 72
 1
 10
145.512383984375
 20
148.210695751953
 11
145.323925
 21
147.461801220703
 72
 1
 10
145.323925
 20
147.461801220703
 11
145.027512890625
 21
146.806094189453
 72
 1
 10
145.027512890625
 20
146.806094189453
 11
144.598971875
 21
146.285644970703
 72
 1
 10
144.598971875
 20
146.285644970703
 11
144.014126171875
 21
145.942523876953
 72
 1
 10
144.014126171875
 20
145.942523876953
 11
143.2488
 21
145.818801220703
 72
 1
 10
143.2488
 20
145.818801220703
 11
142.483602734375
 21
145.932064892578
 72
 1
 10
142.483602734375
 20
145.932064892578
 11
141.899096875
 21
146.249785595703
 72
 1
 10
141.899096875
 20
146.249785595703
 11
141.471036328125
 21
146.738857861328
 72
 1
 10
141.471036328125
 20
146.738857861328
 11
141.175175
 21
147.366176220703
 72
 1
 10
141.175175
 20
147.366176220703
 11
140.987266796875
 21
148.098635205078
 72
 1
 10
140.987266796875
 20
148.098635205078
 11
140.883065625
 21
148.903129345703
 72
 1
 10
140.883065625
 20
148.903129345703
 11
140.838325390625
 21
149.746553173828
 72
 1
 10
140.838325390625
 20
149.746553173828
 11
140.8288
 21
150.595801220703
 97
 1
 330
8E
 92
 0
 93
32             
 72
 1
 10
143.2488
 20
146.699801220703
 11
143.68024921875
 21
146.785668408203
 72
 1
 10
143.68024921875
 20
146.785668408203
 11
144.01014375
 21
147.028988720703
 72
 1
 10
144.01014375
 20
147.028988720703
 11
144.25205390625
 21
147.408340283203
 72
 1
 10
144.25205390625
 20
147.408340283203
 11
144.41955
 21
147.902301220703
 72
 1
 10
144.41955
 20
147.902301220703
 11
144.52620234375
 21
148.489449658203
 72
 1
 10
144.52620234375
 20
148.489449658203
 11
144.58558125
 21
149.148363720703
 72
 1
 10
144.58558125
 20
149.148363720703
 11
144.61125703125
 21
149.857621533203
 72
 1
 10
144.61125703125
 20
149.857621533203
 11
144.6168
 21
150.595801220703
 72
 1
 10
144.6168
 20
150.595801220703
 11
144.61125703125
 21
151.364162548828
 72
 1
 10
144.61125703125
 20
151.364162548828
 11
144.58558125
 21
152.095129345703
 72
 1
 10
144.58558125
 20
152.095129345703
 11
144.52620234375
 21
152.768650830078
 72
 1
 10
144.52620234375
 20
152.768650830078
 11
144.41955
 21
153.364676220703
 72
 1
 10
144.41955
 20
153.364676220703
 11
144.25205390625
 21
153.863154736328
 72
 1
 10
144.25205390625
 20
153.863154736328
 11
144.01014375
 21
154.244035595703
 72
 1
 10
144.01014375
 20
154.244035595703
 11
143.68024921875
 21
154.487268017578
 72
 1
 10
143.68024921875
 20
154.487268017578
 11
143.2488
 21
154.572801220703
 72
 1
 10
143.2488
 20
154.572801220703
 11
142.81920234375
 21
154.487268017578
 72
 1
 10
142.81920234375
 20
154.487268017578
 11
142.49045625
 21
154.244035595703
 72
 1
 10
142.49045625
 20
154.244035595703
 11
142.24913203125
 21
153.863154736328
 72
 1
 10
142.24913203125
 20
153.863154736328
 11
142.0818
 21
153.364676220703
 72
 1
 10
142.0818
 20
153.364676220703
 11
141.97503046875
 21
152.768650830078
 72
 1
 10
141.97503046875
 20
152.768650830078
 11
141.91539375
 21
152.095129345703
 72
 1
 10
141.91539375
 20
152.095129345703
 11
141.88946015625
 21
151.364162548828
 72
 1
 10
141.88946015625
 20
151.364162548828
 11
141.8838
 21
150.595801220703
 72
 1
 10
141.8838
 20
150.595801220703
 11
141.88946015625
 21
149.857621533203
 72
 1
 10
141.88946015625
 20
149.857621533203
 11
141.91539375
 21
149.148363720703
 72
 1
 10
141.91539375
 20
149.148363720703
 11
141.97503046875
 21
148.489449658203
 72
 1
 10
141.97503046875
 20
148.489449658203
 11
142.0818
 21
147.902301220703
 72
 1
 10
142.0818
 20
147.902301220703
 11
142.24913203125
 21
147.408340283203
 72
 1
 10
142.24913203125
 20
147.408340283203
 11
142.49045625
 21
147.028988720703
 72
 1
 10
142.49045625
 20
147.028988720703
 11
142.81920234375
 21
146.785668408203
 72
 1
 10
142.81920234375
 20
146.785668408203
 11
143.2488
 21
146.699801220703
 97
 1
 330
8F
 75
 0
 76
 1
 98
 1
 10
 0.0
 20
 0.0
 0
LINE
 5
90
100
AcDbEntity
 8
Layer8
100
AcDbLine
 39
0.25
 370
106
 10
99.2126
 20
157.525501220703
 30
0.0
 11
99.2126
 21
143.086501220703
 31
0.0
 0
HATCH
 5
91
100
AcDbEntity
 8
Layer8
100
AcDbHatch
 10
 0.0
 20
 0.0
 30
 0.0
 210
 0.0
 220
 0.0
 230
 1.0
 2
SOLID
 70
 1
 71
 1
 91
1              
 92
 0
 93
103            
 72
 1
 10
192.6784
 20
339.479201220703
 11
192.6784
 21
340.007201220703
 72
 1
 10
192.6784
 20
340.007201220703
 11
192.645566015625
 21
340.320957080078
 72
 1
 10
192.645566015625
 20
340.320957080078
 11
192.550915625
 21
340.588810595703
 72
 1
 10
192.550915625
 20
340.588810595703
 11
192.400226171875
 21
340.812015673828
 72
 1
 10
192.400226171875
 20
340.812015673828
 11
192.199275
 21
340.991826220703
 72
 1
 10
192.199275
 20
340.991826220703
 11
191.953839453125
 21
341.129496142578
 72
 1
 10
191.953839453125
 20
341.129496142578
 11
191.669696875
 21
341.226279345703
 72
 1
 10
191.669696875
 20
341.226279345703
 11
191.352624609375
 21
341.283429736328
 72
 1
 10
191.352624609375
 20
341.283429736328
 11
191.0084
 21
341.302201220703
 72
 1
 10
191.0084
 20
341.302201220703
 11
190.695331640625
 21
341.288271533203
 72
 1
 10
190.695331640625
 20
341.288271533203
 11
190.401915625
 21
341.244576220703
 72
 1
 10
190.401915625
 20
341.244576220703
 11
190.134960546875
 21
341.168255908203
 72
 1
 10
190.134960546875
 20
341.168255908203
 11
189.901275
 21
341.056451220703
 72
 1
 10
189.901275
 20
341.056451220703
 11
189.707667578125
 21
340.906302783203
 72
 1
 10
189.707667578125
 20
340.906302783203
 11
189.560946875
 21
340.714951220703
 72
 1
 10
189.560946875
 20
340.714951220703
 11
189.467921484375
 21
340.479537158203
 72
 1
 10
189.467921484375
 20
340.479537158203
 11
189.4354
 21
340.197201220703
 72
 1
 10
189.4354
 20
340.197201220703
 11
189.486448828125
 21
339.828628955078
 72
 1
 10
189.486448828125
 20
339.828628955078
 11
189.626853125
 21
339.541935595703
 72
 1
 10
189.626853125
 20
339.541935595703
 11
189.837499609375
 21
339.327031298828
 72
 1
 10
189.837499609375
 20
339.327031298828
 11
190.099275
 21
339.173826220703
 72
 1
 10
190.099275
 20
339.173826220703
 11
190.393066015625
 21
339.072230517578
 72
 1
 10
190.393066015625
 20
339.072230517578
 11
190.699759375
 21
339.012154345703
 72
 1
 10
190.699759375
 20
339.012154345703
 11
191.000241796875
 21
338.983507861328
 72
 1
 10
191.000241796875
 20
338.983507861328
 11
191.2754
 21
338.976201220703
 72
 1
 10
191.2754
 20
338.976201220703
 11
191.2754
 21
337.921201220703
 72
 1
 10
191.2754
 20
337.921201220703
 11
190.6990640625
 21
337.953615283203
 72
 1
 10
190.6990640625
 20
337.953615283203
 11
190.1750875
 21
338.052451220703
 72
 1
 10
190.1750875
 20
338.052451220703
 11
189.7110171875
 21
338.220099658203
 72
 1
 10
189.7110171875
 20
338.220099658203
 11
189.3144
 21
338.458951220703
 72
 1
 10
189.3144
 20
338.458951220703
 11
188.9927828125
 21
338.771396533203
 72
 1
 10
188.9927828125
 20
338.771396533203
 11
188.7537125
 21
339.159826220703
 72
 1
 10
188.7537125
 20
339.159826220703
 11
188.6047359375
 21
339.626630908203
 72
 1
 10
188.6047359375
 20
339.626630908203
 11
188.5534
 21
340.174201220703
 72
 1
 10
188.5534
 20
340.174201220703
 11
188.615124609375
 21
340.777621142578
 72
 1
 10
188.615124609375
 20
340.777621142578
 11
188.786946875
 21
341.264123095703
 72
 1
 10
188.786946875
 20
341.264123095703
 11
189.048839453125
 21
341.644945361328
 72
 1
 10
189.048839453125
 20
341.644945361328
 11
189.380775
 21
341.931326220703
 72
 1
 10
189.380775
 20
341.931326220703
 11
189.762726171875
 21
342.134503955078
 72
 1
 10
189.762726171875
 20
342.134503955078
 11
190.174665625
 21
342.265716845703
 72
 1
 10
190.174665625
 20
342.265716845703
 11
190.596566015625
 21
342.336203173828
 72
 1
 10
190.596566015625
 20
342.336203173828
 11
191.0084
 21
342.357201220703
 72
 1
 10
191.0084
 20
342.357201220703
 11
191.36013046875
 21
342.337398486328
 72
 1
 10
191.36013046875
 20
342.337398486328
 11
191.69355625
 21
342.277529345703
 72
 1
 10
191.69355625
 20
342.277529345703
 11
192.00377890625
 21
342.176902392578
 72
 1
 10
192.00377890625
 20
342.176902392578
 11
192.2859
 21
342.034826220703
 72
 1
 10
192.2859
 20
342.034826220703
 11
192.53502109375
 21
341.850609423828
 72
 1
 10
192.53502109375
 20
341.850609423828
 11
192.74624375
 21
341.623560595703
 72
 1
 10
192.74624375
 20
341.623560595703
 11
192.91466953125
 21
341.352988330078
 72
 1
 10
192.91466953125
 20
341.352988330078
 11
193.0354
 21
341.038201220703
 72
 1
 10
193.0354
 20
341.038201220703
 11
193.0654
 21
341.038201220703
 72
 1
 10
193.0654
 20
341.038201220703
 11
193.1663296875
 21
341.380712939453
 72
 1
 10
193.1663296875
 20
341.380712939453
 11
193.3124
 21
341.687669970703
 72
 1
 10
193.3124
 20
341.687669970703
 11
193.5059078125
 21
341.955955126953
 72
 1
 10
193.5059078125
 20
341.955955126953
 11
193.74915
 21
342.182451220703
 72
 1
 10
193.74915
 20
342.182451220703
 11
194.0444234375
 21
342.364041064453
 72
 1
 10
194.0444234375
 20
342.364041064453
 11
194.394025
 21
342.497607470703
 72
 1
 10
194.394025
 20
342.497607470703
 11
194.8002515625
 21
342.580033251953
 72
 1
 10
194.8002515625
 20
342.580033251953
 11
195.2654
 21
342.608201220703
 72
 1
 10
195.2654
 20
342.608201220703
 11
195.885730078125
 21
342.571541064453
 72
 1
 10
195.885730078125
 20
342.571541064453
 11
196.449165625
 21
342.460982470703
 72
 1
 10
196.449165625
 20
342.460982470703
 11
196.947749609375
 21
342.275658251953
 72
 1
 10
196.947749609375
 20
342.275658251953
 11
197.373525
 21
342.014701220703
 72
 1
 10
197.373525
 20
342.014701220703
 11
197.718534765625
 21
341.677244189453
 72
 1
 10
197.718534765625
 20
341.677244189453
 11
197.974821875
 21
341.262419970703
 72
 1
 10
197.974821875
 20
341.262419970703
 11
198.134429296875
 21
340.769361376953
 72
 1
 10
198.134429296875
 20
340.769361376953
 11
198.1894
 21
340.197201220703
 72
 1
 10
198.1894
 20
340.197201220703
 11
198.09390390625
 21
339.440271533203
 72
 1
 10
198.09390390625
 20
339.440271533203
 11
197.83849375
 21
338.860763720703
 72
 1
 10
197.83849375
 20
338.860763720703
 11
197.46978671875
 21
338.435099658203
 72
 1
 10
197.46978671875
 20
338.435099658203
 11
197.0344
 21
338.139701220703
 72
 1
 10
197.0344
 20
338.139701220703
 11
196.57895078125
 21
337.950990283203
 72
 1
 10
196.57895078125
 20
337.950990283203
 11
196.15005625
 21
337.845388720703
 72
 1
 10
196.15005625
 20
337.845388720703
 11
195.79433359375
 21
337.799318408203
 72
 1
 10
195.79433359375
 20
337.799318408203
 11
195.5584
 21
337.789201220703
 72
 1
 10
195.5584
 20
337.789201220703
 11
195.4384
 21
337.789201220703
 72
 1
 10
195.4384
 20
337.789201220703
 11
195.4384
 21
338.844201220703
 72
 1
 10
195.4384
 20
338.844201220703
 11
195.767632421875
 21
338.863044970703
 72
 1
 10
195.767632421875
 20
338.863044970703
 11
196.096196875
 21
338.920888720703
 72
 1
 10
196.096196875
 20
338.920888720703
 11
196.410769140625
 21
339.019701220703
 72
 1
 10
196.410769140625
 20
339.019701220703
 11
196.698025
 21
339.161451220703
 72
 1
 10
196.698025
 20
339.161451220703
 11
196.944640234375
 21
339.348107470703
 72
 1
 10
196.944640234375
 20
339.348107470703
 11
197.137290625
 21
339.581638720703
 72
 1
 10
197.137290625
 20
339.581638720703
 11
197.262651953125
 21
339.864013720703
 72
 1
 10
197.262651953125
 20
339.864013720703
 11
197.3074
 21
340.197201220703
 72
 1
 10
197.3074
 20
340.197201220703
 11
197.289280859375
 21
340.434666064453
 72
 1
 10
197.289280859375
 20
340.434666064453
 11
197.227884375
 21
340.672482470703
 72
 1
 10
197.227884375
 20
340.672482470703
 11
197.112651953125
 21
340.900783251953
 72
 1
 10
197.112651953125
 20
340.900783251953
 11
196.933025
 21
341.109701220703
 72
 1
 10
196.933025
 20
341.109701220703
 11
196.678444921875
 21
341.289369189453
 72
 1
 10
196.678444921875
 20
341.289369189453
 11
196.338353125
 21
341.429919970703
 72
 1
 10
196.338353125
 20
341.429919970703
 11
195.902191015625
 21
341.521486376953
 72
 1
 10
195.902191015625
 20
341.521486376953
 11
195.3594
 21
341.554201220703
 72
 1
 10
195.3594
 20
341.554201220703
 11
194.959790625
 21
341.531433642578
 72
 1
 10
194.959790625
 20
341.531433642578
 11
194.6043375
 21
341.462435595703
 72
 1
 10
194.6043375
 20
341.462435595703
 11
194.295853125
 21
341.346164111328
 72
 1
 10
194.295853125
 20
341.346164111328
 11
194.03715
 21
341.181576220703
 72
 1
 10
194.03715
 20
341.181576220703
 11
193.831040625
 21
340.967628955078
 72
 1
 10
193.831040625
 20
340.967628955078
 11
193.6803375
 21
340.703279345703
 72
 1
 10
193.6803375
 20
340.703279345703
 11
193.587853125
 21
340.387484423828
 72
 1
 10
193.587853125
 20
340.387484423828
 11
193.5564
 21
340.019201220703
 72
 1
 10
193.5564
 20
340.019201220703
 11
193.5564
 21
339.479201220703
 72
 1
 10
193.5564
 20
339.479201220703
 11
192.6784
 21
339.479201220703
 97
 1
 330
92
 75
 0
 76
 1
 98
 1
 10
 0.0
 20
 0.0
 0
HATCH
 5
93
100
AcDbEntity
 8
Layer8
100
AcDbHatch
 10
 0.0
 20
 0.0
 30
 0.0
 210
 0.0
 220
 0.0
 230
 1.0
 2
SOLID
 70
 1
 71
 1
 91
2              
 92
 0
 93
32             
 72
 1
 10
193.4099
 20
343.751201220703
 11
192.6034390625
 21
343.760855517578
 72
 1
 10
192.6034390625
 20
343.760855517578
 11
191.77265
 21
343.805935595703
 72
 1
 10
191.77265
 20
343.805935595703
 11
190.9581734375
 21
343.910617236328
 72
 1
 10
190.9581734375
 20
343.910617236328
 11
190.20065
 21
344.099076220703
 72
 1
 10
190.20065
 20
344.099076220703
 11
189.5407203125
 21
344.395488330078
 72
 1
 10
189.5407203125
 20
344.395488330078
 11
189.019025
 21
344.824029345703
 72
 1
 10
189.019025
 20
344.824029345703
 11
188.6762046875
 21
345.408875048828
 72
 1
 10
188.6762046875
 20
345.408875048828
 11
188.5529
 21
346.174201220703
 72
 1
 10
188.5529
 20
346.174201220703
 11
188.666812109375
 21
346.939484423828
 72
 1
 10
188.666812109375
 20
346.939484423828
 11
188.986821875
 21
347.524216845703
 72
 1
 10
188.986821875
 20
347.524216845703
 11
189.480339453125
 21
347.952597705078
 72
 1
 10
189.480339453125
 20
347.952597705078
 11
190.114775
 21
348.248826220703
 72
 1
 10
190.114775
 20
348.248826220703
 11
190.857538671875
 21
348.437101611328
 72
 1
 10
190.857538671875
 20
348.437101611328
 11
191.676040625
 21
348.541623095703
 72
 1
 10
191.676040625
 20
348.541623095703
 11
192.537691015625
 21
348.586589892578
 72
 1
 10
192.537691015625
 20
348.586589892578
 11
193.4099
 21
348.596201220703
 72
 1
 10
193.4099
 20
348.596201220703
 11
194.185733984375
 21
348.586589892578
 72
 1
 10
194.185733984375
 20
348.586589892578
 11
194.994884375
 21
348.541623095703
 72
 1
 10
194.994884375
 20
348.541623095703
 11
195.795198828125
 21
348.437101611328
 72
 1
 10
195.795198828125
 20
348.437101611328
 11
196.544525
 21
348.248826220703
 72
 1
 10
196.544525
 20
348.248826220703
 11
197.200710546875
 21
347.952597705078
 72
 1
 10
197.200710546875
 20
347.952597705078
 11
197.721603125
 21
347.524216845703
 72
 1
 10
197.721603125
 20
347.524216845703
 11
198.065050390625
 21
346.939484423828
 72
 1
 10
198.065050390625
 20
346.939484423828
 11
198.1889
 21
346.174201220703
 72
 1
 10
198.1889
 20
346.174201220703
 11
198.075509375
 21
345.408875048828
 72
 1
 10
198.075509375
 20
345.408875048828
 11
197.7574625
 21
344.824029345703
 72
 1
 10
197.7574625
 20
344.824029345703
 11
197.267946875
 21
344.395488330078
 72
 1
 10
197.267946875
 20
344.395488330078
 11
196.64015
 21
344.099076220703
 72
 1
 10
196.64015
 20
344.099076220703
 11
195.907259375
 21
343.910617236328
 72
 1
 10
195.907259375
 20
343.910617236328
 11
195.1024625
 21
343.805935595703
 72
 1
 10
195.1024625
 20
343.805935595703
 11
194.258946875
 21
343.760855517578
 72
 1
 10
194.258946875
 20
343.760855517578
 11
193.4099
 21
343.751201220703
 97
 1
 330
94
 92
 0
 93
32             
 72
 1
 10
197.3069
 20
346.174201220703
 11
197.220948828125
 21
346.604789111328
 72
 1
 10
197.220948828125
 20
346.604789111328
 11
196.977415625
 21
346.934279345703
 72
 1
 10
196.977415625
 20
346.934279345703
 11
196.597780859375
 21
347.176136767578
 72
 1
 10
196.597780859375
 20
347.176136767578
 11
196.103525
 21
347.343826220703
 72
 1
 10
196.103525
 20
347.343826220703
 11
195.516128515625
 21
347.450812548828
 72
 1
 10
195.516128515625
 20
347.450812548828
 11
194.857071875
 21
347.510560595703
 72
 1
 10
194.857071875
 20
347.510560595703
 11
194.147835546875
 21
347.536535205078
 72
 1
 10
194.147835546875
 20
347.536535205078
 11
193.4099
 21
347.542201220703
 72
 1
 10
193.4099
 20
347.542201220703
 11
192.6413375
 21
347.536535205078
 72
 1
 10
192.6413375
 20
347.536535205078
 11
191.9104625
 21
347.510560595703
 72
 1
 10
191.9104625
 20
347.510560595703
 11
191.23724375
 21
347.450812548828
 72
 1
 10
191.23724375
 20
347.450812548828
 11
190.64165
 21
347.343826220703
 72
 1
 10
190.64165
 20
347.343826220703
 11
190.14365
 21
347.176136767578
 72
 1
 10
190.14365
 20
347.176136767578
 11
189.7632125
 21
346.934279345703
 72
 1
 10
189.7632125
 20
346.934279345703
 11
189.52030625
 21
346.604789111328
 72
 1
 10
189.52030625
 20
346.604789111328
 11
189.4349
 21
346.174201220703
 72
 1
 10
189.4349
 20
346.174201220703
 11
189.52030625
 21
345.743613330078
 72
 1
 10
189.52030625
 20
345.743613330078
 11
189.7632125
 21
345.414123095703
 72
 1
 10
189.7632125
 20
345.414123095703
 11
190.14365
 21
345.172265673828
 72
 1
 10
190.14365
 20
345.172265673828
 11
190.64165
 21
345.004576220703
 72
 1
 10
190.64165
 20
345.004576220703
 11
191.23724375
 21
344.897589892578
 72
 1
 10
191.23724375
 20
344.897589892578
 11
191.9104625
 21
344.837841845703
 72
 1
 10
191.9104625
 20
344.837841845703
 11
192.6413375
 21
344.811867236328
 72
 1
 10
192.6413375
 20
344.811867236328
 11
193.4099
 21
344.806201220703
 72
 1
 10
193.4099
 20
344.806201220703
 11
194.147835546875
 21
344.811867236328
 72
 1
 10
194.147835546875
 20
344.811867236328
 11
194.857071875
 21
344.837841845703
 72
 1
 10
194.857071875
 20
344.837841845703
 11
195.516128515625
 21
344.897589892578
 72
 1
 10
195.516128515625
 20
344.897589892578
 11
196.103525
 21
345.004576220703
 72
 1
 10
196.103525
 20
345.004576220703
 11
196.597780859375
 21
345.172265673828
 72
 1
 10
196.597780859375
 20
345.172265673828
 11
196.977415625
 21
345.414123095703
 72
 1
 10
196.977415625
 20
345.414123095703
 11
197.220948828125
 21
345.743613330078
 72
 1
 10
197.220948828125
 20
345.743613330078
 11
197.3069
 21
346.174201220703
 97
 1
 330
95
 75
 0
 76
 1
 98
 1
 10
 0.0
 20
 0.0
 0
LINE
 5
96
100
AcDbEntity
 8
Layer8
100
AcDbLine
 39
0.25
 370
106
 10
168.5286
 20
157.525501220703
 30
0.0
 11
168.5286
 21
143.086501220703
 31
0.0
 0
LINE
 5
97
100
AcDbEntity
 8
Layer8
100
AcDbLine
 39
0.25
 370
106
 10
185.9343
 20
288.866501220703
 30
0.0
 11
201.4673
 21
288.866501220703
 31
0.0
 0
LINE
 5
98
100
AcDbEntity
 8
Layer8
100
AcDbLine
 39
0.25
 370
106
 10
185.9343
 20
397.519501220703
 30
0.0
 11
201.4673
 21
397.519501220703
 31
0.0
 0
ARC
 5
99
100
AcDbEntity
 8
Layer8
100
AcDbCircle
 39
0.25
 370
106
 10
160.105760986009
 20
389.347983990986
 30
0.0
 40
6.8771172694264
100
AcDbArc
 50
58.5549277831793
 51
89.9938430041133
 0
ARC
 5
9A
100
AcDbEntity
 8
Layer8
100
AcDbCircle
 39
0.25
 370
106
 10
110.043287443561
 20
389.34070895714
 30
0.0
 40
6.88439282787204
100
AcDbArc
 50
90.0231986698125
 51
131.946597001996
 0
LINE
 5
9B
100
AcDbEntity
 8
Layer8
100
AcDbLine
 39
0.25
 370
106
 10
99.8045
 20
389.378101220703
 30
0.0
 11
105.4415
 21
394.461101220703
 31
0.0
 0
LINE
 5
9C
100
AcDbEntity
 8
Layer8
100
AcDbLine
 39
0.25
 370
106
 10
110.0405
 20
396.225101220703
 30
0.0
 11
160.1065
 21
396.225101220703
 31
0.0
 0
LINE
 5
9D
100
AcDbEntity
 8
Layer8
100
AcDbLine
 39
0.25
 370
106
 10
163.693421875
 20
395.215132470703
 30
0.0
 11
164.7055
 21
394.461101220703
 31
0.0
 0
LINE
 5
9E
100
AcDbEntity
 8
Layer8
100
AcDbLine
 39
0.25
 370
106
 10
164.7055
 20
394.461101220703
 30
0.0
 11
170.3425
 21
389.378101220703
 31
0.0
 0
LINE
 5
9F
100
AcDbEntity
 8
Layer8
100
AcDbLine
 39
0.25
 370
106
 10
170.3425
 20
389.378101220703
 30
0.0
 11
99.8045
 21
389.378101220703
 31
0.0
 0
LINE
 5
A0
100
AcDbEntity
 8
Layer8
100
AcDbLine
 39
0.25
 370
106
 10
131.6091
 20
388.982701220703
 30
0.0
 11
131.680322222222
 21
388.931219739222
 31
0.0
 0
LINE
 5
A1
100
AcDbEntity
 8
Layer8
100
AcDbLine
 39
0.25
 370
106
 10
131.680322222222
 20
388.931219739222
 30
0.0
 11
131.762877777778
 21
388.899516035518
 31
0.0
 0
LINE
 5
A2
100
AcDbEntity
 8
Layer8
100
AcDbLine
 39
0.25
 370
106
 10
131.762877777778
 20
388.899516035518
 30
0.0
 11
131.8521
 21
388.888701220703
 31
0.0
 0
LINE
 5
A3
100
AcDbEntity
 8
Layer8
100
AcDbLine
 39
0.25
 370
106
 10
138.2971
 20
388.888701220703
 30
0.0
 11
138.385581481481
 21
388.899516035518
 31
0.0
 0
LINE
 5
A4
100
AcDbEntity
 8
Layer8
100
AcDbLine
 39
0.25
 370
106
 10
138.385581481481
 20
388.899516035518
 30
0.0
 11
138.466951851852
 21
388.931219739222
 31
0.0
 0
LINE
 5
A5
100
AcDbEntity
 8
Layer8
100
AcDbLine
 39
0.25
 370
106
 10
138.466951851852
 20
388.931219739222
 30
0.0
 11
138.5381
 21
388.982701220703
 31
0.0
 0
LINE
 5
A6
100
AcDbEntity
 8
Layer8
100
AcDbLine
 39
0.25
 370
106
 10
169.988
 20
388.982701220703
 30
0.0
 11
170.348
 21
389.382701220703
 31
0.0
 0
LINE
 5
A7
100
AcDbEntity
 8
Layer8
100
AcDbLine
 39
0.25
 370
106
 10
137.5801
 20
322.648701220703
 30
0.0
 11
137.5801
 21
388.888701220703
 31
0.0
 0
LINE
 5
A8
100
AcDbEntity
 8
Layer8
100
AcDbLine
 39
0.25
 370
106
 10
122.7961
 20
288.866701220703
 30
0.0
 11
122.792766666667
 21
288.773590109592
 31
0.0
 0
LINE
 5
A9
100
AcDbEntity
 8
Layer8
100
AcDbLine
 39
0.25
 370
106
 10
122.792766666667
 20
288.773590109592
 30
0.0
 11
122.8341
 21
288.691812331814
 31
0.0
 0
LINE
 5
AA
100
AcDbEntity
 8
Layer8
100
AcDbLine
 39
0.25
 370
106
 10
122.8341
 20
288.691812331814
 30
0.0
 11
122.9101
 21
288.638701220703
 31
0.0
 0
LINE
 5
AB
100
AcDbEntity
 8
Layer8
100
AcDbLine
 39
0.25
 370
106
 10
122.9101
 20
288.638701220703
 30
0.0
 11
122.930174074074
 21
288.635997516999
 31
0.0
 0
LINE
 5
AC
100
AcDbEntity
 8
Layer8
100
AcDbLine
 39
0.25
 370
106
 10
122.930174074074
 20
288.635997516999
 30
0.0
 11
122.948692592593
 21
288.633071591073
 31
0.0
 0
LINE
 5
AD
100
AcDbEntity
 8
Layer8
100
AcDbLine
 39
0.25
 370
106
 10
122.948692592593
 20
288.633071591073
 30
0.0
 11
122.9661
 21
288.631701220703
 31
0.0
 0
LINE
 5
AE
100
AcDbEntity
 8
Layer8
100
AcDbLine
 39
0.25
 370
106
 10
132.5671
 20
388.888701220703
 30
0.0
 11
132.5671
 21
322.648701220703
 31
0.0
 0
LINE
 5
AF
100
AcDbEntity
 8
Layer8
100
AcDbLine
 39
0.25
 370
106
 10
122.7991
 20
288.863701220703
 30
0.0
 11
131.5151
 21
315.701701220703
 31
0.0
 0
LINE
 5
B0
100
AcDbEntity
 8
Layer8
100
AcDbLine
 39
0.25
 370
106
 10
131.5151
 20
315.701701220703
 30
0.0
 11
132.3021
 21
318.979701220703
 31
0.0
 0
LINE
 5
B1
100
AcDbEntity
 8
Layer8
100
AcDbLine
 39
0.25
 370
106
 10
132.3021
 20
318.979701220703
 30
0.0
 11
132.5641
 21
322.335701220703
 31
0.0
 0
LINE
 5
B2
100
AcDbEntity
 8
Layer8
100
AcDbLine
 39
0.25
 370
106
 10
132.5641
 20
322.335701220703
 30
0.0
 11
137.5831
 21
322.335701220703
 31
0.0
 0
LINE
 5
B3
100
AcDbEntity
 8
Layer8
100
AcDbLine
 39
0.25
 370
106
 10
137.5831
 20
322.335701220703
 30
0.0
 11
137.84835
 21
318.979701220703
 31
0.0
 0
LINE
 5
B4
100
AcDbEntity
 8
Layer8
100
AcDbLine
 39
0.25
 370
106
 10
137.84835
 20
318.979701220703
 30
0.0
 11
138.6341
 21
315.701701220703
 31
0.0
 0
LINE
 5
B5
100
AcDbEntity
 8
Layer8
100
AcDbLine
 39
0.25
 370
106
 10
138.6341
 20
315.701701220703
 30
0.0
 11
147.3261
 21
288.863701220703
 31
0.0
 0
LINE
 5
B6
100
AcDbEntity
 8
Layer8
100
AcDbLine
 39
0.25
 370
106
 10
147.3261
 20
288.863701220703
 30
0.0
 11
122.7991
 21
288.863701220703
 31
0.0
 0
LINE
 5
B7
100
AcDbEntity
 8
Layer8
100
AcDbLine
 39
0.25
 370
106
 10
132.5671
 20
322.648701220703
 30
0.0
 11
132.5671
 21
322.339701220703
 31
0.0
 0
LINE
 5
B8
100
AcDbEntity
 8
Layer8
100
AcDbLine
 39
0.25
 370
106
 10
137.5801
 20
322.339701220703
 30
0.0
 11
137.5801
 21
322.648701220703
 31
0.0
 0
LINE
 5
B9
100
AcDbEntity
 8
Layer8
100
AcDbLine
 39
0.25
 370
106
 10
169.9881
 20
388.982701220703
 30
0.0
 11
100.1621
 21
388.982701220703
 31
0.0
 0
LINE
 5
BA
100
AcDbEntity
 8
Layer8
100
AcDbLine
 39
0.25
 370
106
 10
131.8521
 20
388.888701220703
 30
0.0
 11
138.2971
 21
388.888701220703
 31
0.0
 0
LINE
 5
BB
100
AcDbEntity
 8
Layer8
100
AcDbLine
 39
0.25
 370
106
 10
147.1601
 20
288.631701220703
 30
0.0
 11
147.250248148148
 21
288.656404924407
 31
0.0
 0
LINE
 5
BC
100
AcDbEntity
 8
Layer8
100
AcDbLine
 39
0.25
 370
106
 10
147.250248148148
 20
288.656404924407
 30
0.0
 11
147.313951851852
 21
288.721330850333
 31
0.0
 0
LINE
 5
BD
100
AcDbEntity
 8
Layer8
100
AcDbLine
 39
0.25
 370
106
 10
147.313951851852
 20
288.721330850333
 30
0.0
 11
147.3381
 21
288.812701220703
 31
0.0
 0
LINE
 5
BE
100
AcDbEntity
 8
Layer8
100
AcDbLine
 39
0.25
 370
106
 10
147.3381
 20
288.812701220703
 30
0.0
 11
147.337359259259
 21
288.831145665148
 31
0.0
 0
LINE
 5
BF
100
AcDbEntity
 8
Layer8
100
AcDbLine
 39
0.25
 370
106
 10
147.337359259259
 20
288.831145665148
 30
0.0
 11
147.334840740741
 21
288.848923442925
 31
0.0
 0
LINE
 5
C0
100
AcDbEntity
 8
Layer8
100
AcDbLine
 39
0.25
 370
106
 10
147.334840740741
 20
288.848923442925
 30
0.0
 11
147.3301
 21
288.866701220703
 31
0.0
 0
LINE
 5
C1
100
AcDbEntity
 8
Layer8
100
AcDbLine
 39
0.25
 370
106
 10
132.5671
 20
322.648701220703
 30
0.0
 11
137.5801
 21
322.648701220703
 31
0.0
 0
LINE
 5
C2
100
AcDbEntity
 8
Layer8
100
AcDbLine
 39
0.25
 370
106
 10
122.9661
 20
288.631701220703
 30
0.0
 11
147.1601
 21
288.631701220703
 31
0.0
 0
LINE
 5
C3
100
AcDbEntity
 8
Layer8
100
AcDbLine
 39
0.25
 370
106
 10
126.1251
 20
288.631701220703
 30
0.0
 11
143.9991
 21
288.631701220703
 31
0.0
 0
LINE
 5
C4
100
AcDbEntity
 8
Layer8
100
AcDbLine
 39
0.25
 370
106
 10
132.5671
 20
322.648701220703
 30
0.0
 11
137.5801
 21
322.648701220703
 31
0.0
 0
CIRCLE
 5
C5
100
AcDbEntity
 8
Layer8
100
AcDbCircle
 39
0.25
 370
106
 10
134.6996
 20
210.971701220703
 30
0.0
 40
34.89825
 370
106
 0
CIRCLE
 5
C6
100
AcDbEntity
 8
Layer8
100
AcDbCircle
 39
0.25
 370
106
 10
134.6981
 20
210.971201220703
 30
0.0
 40
24.79175
 370
106
 0
CIRCLE
 5
C7
100
AcDbEntity
 8
Layer8
100
AcDbCircle
 39
0.25
 370
106
 10
134.7001
 20
210.971701220703
 30
0.0
 40
4.62299999999999
 370
106
 0
HATCH
 5
C8
100
AcDbEntity
 8
Layer22
100
AcDbHatch
 10
 0.0
 20
 0.0
 30
 0.0
 210
 0.0
 220
 0.0
 230
 1.0
 2
SOLID
 70
 1
 71
 1
 91
1              
 92
 0
 93
42             
 72
 1
 10
28.583
 20
18.0840012207031
 11
32.621
 21
18.0840012207031
 72
 1
 10
32.621
 20
18.0840012207031
 11
32.5
 21
26.9650012207031
 72
 1
 10
32.5
 20
26.9650012207031
 11
32.488888671875
 21
27.6467922363281
 72
 1
 10
32.488888671875
 20
27.6467922363281
 11
32.476359375
 21
28.3787043457031
 72
 1
 10
32.476359375
 20
28.3787043457031
 11
32.460994140625
 21
29.1435461425781
 72
 1
 10
32.460994140625
 20
29.1435461425781
 11
32.441375
 21
29.9241262207031
 72
 1
 10
32.441375
 20
29.9241262207031
 11
32.416083984375
 21
30.7032531738281
 72
 1
 10
32.416083984375
 20
30.7032531738281
 11
32.383703125
 21
31.4637355957031
 72
 1
 10
32.383703125
 20
31.4637355957031
 11
32.342814453125
 21
32.1883820800781
 72
 1
 10
32.342814453125
 20
32.1883820800781
 11
32.292
 21
32.8600012207031
 72
 1
 10
32.292
 20
32.8600012207031
 11
32.4778359375
 21
32.3041672363281
 72
 1
 10
32.4778359375
 20
32.3041672363281
 11
32.7354375
 21
31.6173293457031
 72
 1
 10
32.7354375
 20
31.6173293457031
 11
33.0525703125
 21
30.8226086425781
 72
 1
 10
33.0525703125
 20
30.8226086425781
 11
33.417
 21
29.9431262207031
 72
 1
 10
33.417
 20
29.9431262207031
 11
33.8164921875
 21
29.0020031738281
 72
 1
 10
33.8164921875
 20
29.0020031738281
 11
34.2388125
 21
28.0223605957031
 72
 1
 10
34.2388125
 20
28.0223605957031
 11
34.6717265625
 21
27.0273195800781
 72
 1
 10
34.6717265625
 20
27.0273195800781
 11
35.103
 21
26.0400012207031
 72
 1
 10
35.103
 20
26.0400012207031
 11
38.663
 21
18.0840012207031
 72
 1
 10
38.663
 20
18.0840012207031
 11
43.029
 21
18.0840012207031
 72
 1
 10
43.029
 20
18.0840012207031
 11
43.029
 21
38.8700012207031
 72
 1
 10
43.029
 20
38.8700012207031
 11
39.051
 21
38.8700012207031
 72
 1
 10
39.051
 20
38.8700012207031
 11
39.141
 21
30.3760012207031
 72
 1
 10
39.141
 20
30.3760012207031
 11
39.157349609375
 21
29.7847180175781
 72
 1
 10
39.157349609375
 20
29.7847180175781
 11
39.183671875
 21
29.1049230957032
 72
 1
 10
39.183671875
 20
29.1049230957032
 11
39.218501953125
 21
28.3633234863281
 72
 1
 10
39.218501953125
 20
28.3633234863281
 11
39.260375
 21
27.5866262207031
 72
 1
 10
39.260375
 20
27.5866262207031
 11
39.307826171875
 21
26.8015383300782
 72
 1
 10
39.307826171875
 20
26.8015383300782
 11
39.359390625
 21
26.0347668457031
 72
 1
 10
39.359390625
 20
26.0347668457031
 11
39.413603515625
 21
25.3130187988281
 72
 1
 10
39.413603515625
 20
25.3130187988281
 11
39.469
 21
24.6630012207031
 72
 1
 10
39.469
 20
24.6630012207031
 11
39.2943046875
 21
25.2546379394531
 72
 1
 10
39.2943046875
 20
25.2546379394531
 11
39.084875
 21
25.9031574707031
 72
 1
 10
39.084875
 20
25.9031574707031
 11
38.8424453125
 21
26.6008488769531
 72
 1
 10
38.8424453125
 20
26.6008488769531
 11
38.56875
 21
27.3400012207031
 72
 1
 10
38.56875
 20
27.3400012207031
 11
38.2655234375
 21
28.1129035644532
 72
 1
 10
38.2655234375
 20
28.1129035644532
 11
37.9345
 21
28.9118449707031
 72
 1
 10
37.9345
 20
28.9118449707031
 11
37.5774140625
 21
29.7291145019531
 72
 1
 10
37.5774140625
 20
29.7291145019531
 11
37.196
 21
30.5570012207031
 72
 1
 10
37.196
 20
30.5570012207031
 11
33.22
 21
38.8700012207031
 72
 1
 10
33.22
 20
38.8700012207031
 11
28.583
 21
38.8700012207031
 72
 1
 10
28.583
 20
38.8700012207031
 11
28.583
 21
18.0840012207031
 97
 1
 330
C9
 75
 0
 76
 1
 98
 1
 10
 0.0
 20
 0.0
 0
HATCH
 5
CA
100
AcDbEntity
 8
Layer22
100
AcDbHatch
 10
 0.0
 20
 0.0
 30
 0.0
 210
 0.0
 220
 0.0
 230
 1.0
 2
SOLID
 70
 1
 71
 1
 91
1              
 92
 0
 93
12             
 72
 1
 10
45.5371
 20
38.8703012207031
 11
45.5371
 21
18.0843012207031
 72
 1
 10
45.5371
 20
18.0843012207031
 11
57.6511
 21
18.0843012207031
 72
 1
 10
57.6511
 20
18.0843012207031
 11
57.6511
 21
21.6733012207031
 72
 1
 10
57.6511
 20
21.6733012207031
 11
49.7861
 21
21.6733012207031
 72
 1
 10
49.7861
 20
21.6733012207031
 11
49.7861
 21
27.2353012207032
 72
 1
 10
49.7861
 20
27.2353012207032
 11
55.6761
 21
27.2353012207032
 72
 1
 10
55.6761
 20
27.2353012207032
 11
55.6761
 21
30.6463012207032
 72
 1
 10
55.6761
 20
30.6463012207032
 11
49.7241
 21
30.6463012207032
 72
 1
 10
49.7241
 20
30.6463012207032
 11
49.7241
 21
35.4603012207031
 72
 1
 10
49.7241
 20
35.4603012207031
 11
56.8421
 21
35.4603012207031
 72
 1
 10
56.8421
 20
35.4603012207031
 11
57.3811
 21
38.8703012207031
 72
 1
 10
57.3811
 20
38.8703012207031
 11
45.5371
 21
38.8703012207031
 97
 1
 330
CB
 75
 0
 76
 1
 98
 1
 10
 0.0
 20
 0.0
 0
HATCH
 5
CC
100
AcDbEntity
 8
Layer22
100
AcDbHatch
 10
 0.0
 20
 0.0
 30
 0.0
 210
 0.0
 220
 0.0
 230
 1.0
 2
SOLID
 70
 1
 71
 1
 91
1              
 92
 0
 93
49             
 72
 1
 10
59.2045
 20
18.0840012207031
 11
63.4215
 21
18.0840012207031
 72
 1
 10
63.4215
 20
18.0840012207031
 11
64.1385
 21
28.9410012207031
 72
 1
 10
64.1385
 20
28.9410012207031
 11
64.170498046875
 21
29.4176945800781
 72
 1
 10
64.170498046875
 20
29.4176945800781
 11
64.199484375
 21
29.8854230957031
 72
 1
 10
64.199484375
 20
29.8854230957031
 11
64.225072265625
 21
30.3462844238281
 72
 1
 10
64.225072265625
 20
30.3462844238281
 11
64.246875
 21
30.8023762207031
 72
 1
 10
64.246875
 20
30.8023762207031
 11
64.264505859375
 21
31.2557961425781
 72
 1
 10
64.264505859375
 20
31.2557961425781
 11
64.277578125
 21
31.7086418457031
 72
 1
 10
64.277578125
 20
31.7086418457031
 11
64.285705078125
 21
32.1630109863281
 72
 1
 10
64.285705078125
 20
32.1630109863281
 11
64.2885
 21
32.6210012207031
 72
 1
 10
64.2885
 20
32.6210012207031
 11
68.0875
 21
18.0840012207031
 72
 1
 10
68.0875
 20
18.0840012207031
 11
71.7665
 21
18.0840012207031
 72
 1
 10
71.7665
 20
18.0840012207031
 11
73.020603515625
 21
22.4499719238281
 72
 1
 10
73.020603515625
 20
22.4499719238281
 11
73.965953125
 21
25.7455168457032
 72
 1
 10
73.965953125
 20
25.7455168457032
 11
74.649857421875
 21
28.1395852050781
 72
 1
 10
74.649857421875
 20
28.1395852050781
 11
75.119625
 21
29.8011262207031
 72
 1
 10
75.119625
 20
29.8011262207031
 11
75.422564453125
 21
30.8990891113281
 72
 1
 10
75.422564453125
 20
30.8990891113281
 11
75.605984375
 21
31.6024230957032
 72
 1
 10
75.605984375
 20
31.6024230957032
 11
75.717193359375
 21
32.0800773925781
 72
 1
 10
75.717193359375
 20
32.0800773925781
 11
75.8035
 21
32.5010012207031
 72
 1
 10
75.8035
 20
32.5010012207031
 11
75.84462109375
 21
31.5634035644531
 72
 1
 10
75.84462109375
 20
31.5634035644531
 11
75.95303125
 21
29.7809074707031
 72
 1
 10
75.95303125
 20
29.7809074707031
 11
76.10630078125
 21
27.4524582519531
 72
 1
 10
76.10630078125
 20
27.4524582519531
 11
76.282
 21
24.8770012207031
 72
 1
 10
76.282
 20
24.8770012207031
 11
76.45769921875
 21
22.3534816894531
 72
 1
 10
76.45769921875
 20
22.3534816894531
 11
76.61096875
 21
20.1808449707031
 72
 1
 10
76.61096875
 20
20.1808449707031
 11
76.71937890625
 21
18.6580363769531
 72
 1
 10
76.71937890625
 20
18.6580363769531
 11
76.7605
 21
18.0840012207031
 72
 1
 10
76.7605
 20
18.0840012207031
 11
80.8885
 21
18.0840012207031
 72
 1
 10
80.8885
 20
18.0840012207031
 11
79.0345
 21
38.8700012207031
 72
 1
 10
79.0345
 20
38.8700012207031
 11
73.5605
 21
38.8700012207031
 72
 1
 10
73.5605
 20
38.8700012207031
 11
72.454662109375
 21
34.7412590332031
 72
 1
 10
72.454662109375
 20
34.7412590332031
 11
71.621109375
 21
31.6254387207031
 72
 1
 10
71.621109375
 20
31.6254387207031
 11
71.018158203125
 21
29.3633996582032
 72
 1
 10
71.018158203125
 20
29.3633996582032
 11
70.604125
 21
27.7960012207031
 72
 1
 10
70.604125
 20
27.7960012207031
 11
70.337326171875
 21
26.7641027832031
 72
 1
 10
70.337326171875
 20
26.7641027832031
 11
70.176078125
 21
26.1085637207032
 72
 1
 10
70.176078125
 20
26.1085637207032
 11
70.078697265625
 21
25.6702434082031
 72
 1
 10
70.078697265625
 20
25.6702434082031
 11
70.0035
 21
25.2900012207031
 72
 1
 10
70.0035
 20
25.2900012207031
 11
69.803634765625
 21
26.1830207519531
 72
 1
 10
69.803634765625
 20
26.1830207519531
 11
69.389328125
 21
27.8666574707031
 72
 1
 10
69.389328125
 20
27.8666574707031
 11
68.834888671875
 21
30.0605285644531
 72
 1
 10
68.834888671875
 20
30.0605285644531
 11
68.214625
 21
32.4842512207031
 72
 1
 10
68.214625
 20
32.4842512207031
 11
67.602845703125
 21
34.8574426269531
 72
 1
 10
67.602845703125
 20
34.8574426269531
 11
67.073859375
 21
36.8997199707031
 72
 1
 10
67.073859375
 20
36.8997199707031
 11
66.701974609375
 21
38.3307004394532
 72
 1
 10
66.701974609375
 20
38.3307004394532
 11
66.5615
 21
38.8700012207031
 72
 1
 10
66.5615
 20
38.8700012207031
 11
61.1495
 21
38.8700012207031
 72
 1
 10
61.1495
 20
38.8700012207031
 11
59.2045
 21
18.0840012207031
 97
 1
 330
CD
 75
 0
 76
 1
 98
 1
 10
 0.0
 20
 0.0
 0
HATCH
 5
CE
100
AcDbEntity
 8
Layer22
100
AcDbHatch
 10
 0.0
 20
 0.0
 30
 0.0
 210
 0.0
 220
 0.0
 230
 1.0
 2
SOLID
 70
 1
 71
 1
 91
2              
 92
 0
 93
56             
 72
 1
 10
94.7774
 20
33.2782012207031
 11
94.902972265625
 21
32.8232832519531
 72
 1
 10
94.902972265625
 20
32.8232832519531
 11
95.011915625
 21
32.3319199707032
 72
 1
 10
95.011915625
 20
32.3319199707032
 11
95.104194921875
 21
31.8013223144532
 72
 1
 10
95.104194921875
 20
31.8013223144532
 11
95.179775
 21
31.2287012207032
 72
 1
 10
95.179775
 20
31.2287012207032
 11
95.238620703125
 21
30.6112676269531
 72
 1
 10
95.238620703125
 20
30.6112676269531
 11
95.280696875
 21
29.9462324707032
 72
 1
 10
95.280696875
 20
29.9462324707032
 11
95.305968359375
 21
29.2308066894532
 72
 1
 10
95.305968359375
 20
29.2308066894532
 11
95.3144
 21
28.4622012207032
 72
 1
 10
95.3144
 20
28.4622012207032
 11
95.256097265625
 21
26.6202949707031
 72
 1
 10
95.256097265625
 20
26.6202949707031
 11
95.077665625
 21
25.0568262207031
 72
 1
 10
95.077665625
 20
25.0568262207031
 11
94.773819921875
 21
23.7616699707031
 72
 1
 10
94.773819921875
 20
23.7616699707031
 11
94.339275
 21
22.7247012207031
 72
 1
 10
94.339275
 20
22.7247012207031
 11
93.768745703125
 21
21.9357949707031
 72
 1
 10
93.768745703125
 20
21.9357949707031
 11
93.056946875
 21
21.3848262207031
 72
 1
 10
93.056946875
 20
21.3848262207031
 11
92.198593359375
 21
21.0616699707032
 72
 1
 10
92.198593359375
 20
21.0616699707032
 11
91.1884
 21
20.9562012207031
 72
 1
 10
91.1884
 20
20.9562012207031
 11
90.82503671875
 21
20.9673652832031
 72
 1
 10
90.82503671875
 20
20.9673652832031
 11
90.47618125
 21
21.0008887207031
 72
 1
 10
90.47618125
 20
21.0008887207031
 11
90.14218515625
 21
21.0568184082031
 72
 1
 10
90.14218515625
 20
21.0568184082031
 11
89.8234
 21
21.1352012207031
 72
 1
 10
89.8234
 20
21.1352012207031
 11
89.52017734375
 21
21.2360840332031
 72
 1
 10
89.52017734375
 20
21.2360840332031
 11
89.23286875
 21
21.3595137207031
 72
 1
 10
89.23286875
 20
21.3595137207031
 11
88.96182578125
 21
21.5055371582032
 72
 1
 10
88.96182578125
 20
21.5055371582032
 11
88.7074
 21
21.6742012207031
 72
 1
 10
88.7074
 20
21.6742012207031
 11
88.274749609375
 21
22.0816680175781
 72
 1
 10
88.274749609375
 20
22.0816680175781
 11
87.898759375
 21
22.6109980957031
 72
 1
 10
87.898759375
 20
22.6109980957031
 11
87.579745703125
 21
23.2632109863281
 72
 1
 10
87.579745703125
 20
23.2632109863281
 11
87.318025
 21
24.0393262207031
 72
 1
 10
87.318025
 20
24.0393262207031
 11
87.113913671875
 21
24.9403633300781
 72
 1
 10
87.113913671875
 20
24.9403633300781
 11
86.967728125
 21
25.9673418457031
 72
 1
 10
86.967728125
 20
25.9673418457031
 11
86.879784765625
 21
27.1212812988281
 72
 1
 10
86.879784765625
 20
27.1212812988281
 11
86.8504
 21
28.4032012207031
 72
 1
 10
86.8504
 20
28.4032012207031
 11
86.8659390625
 21
29.3133203613281
 72
 1
 10
86.8659390625
 20
29.3133203613281
 11
86.913025
 21
30.1613418457031
 72
 1
 10
86.913025
 20
30.1613418457031
 11
86.9923609375
 21
30.9497617675781
 72
 1
 10
86.9923609375
 20
30.9497617675781
 11
87.10465
 21
31.6810762207031
 72
 1
 10
87.10465
 20
31.6810762207031
 11
87.2505953125
 21
32.3577812988282
 72
 1
 10
87.2505953125
 20
32.3577812988282
 11
87.4309
 21
32.9823730957031
 72
 1
 10
87.4309
 20
32.9823730957031
 11
87.6462671875
 21
33.5573477050781
 72
 1
 10
87.6462671875
 20
33.5573477050781
 11
87.8974
 21
34.0852012207031
 72
 1
 10
87.8974
 20
34.0852012207031
 11
88.14192734375
 21
34.4811191894531
 72
 1
 10
88.14192734375
 20
34.4811191894531
 11
88.44455625
 21
34.8367949707031
 72
 1
 10
88.44455625
 20
34.8367949707031
 11
88.79898203125
 21
35.1483613769532
 72
 1
 10
88.79898203125
 20
35.1483613769532
 11
89.1989
 21
35.4119512207031
 72
 1
 10
89.1989
 20
35.4119512207031
 11
89.63800546875
 21
35.6236973144531
 72
 1
 10
89.63800546875
 20
35.6236973144531
 11
90.10999375
 21
35.7797324707032
 72
 1
 10
90.10999375
 20
35.7797324707032
 11
90.60856015625
 21
35.8761895019531
 72
 1
 10
90.60856015625
 20
35.8761895019531
 11
91.1274
 21
35.9092012207032
 72
 1
 10
91.1274
 20
35.9092012207032
 11
91.906730078125
 21
35.8391348144531
 72
 1
 10
91.906730078125
 20
35.8391348144531
 11
92.586040625
 21
35.6454824707031
 72
 1
 10
92.586040625
 20
35.6454824707031
 11
93.169187109375
 21
35.3530645019532
 72
 1
 10
93.169187109375
 20
35.3530645019532
 11
93.660025
 21
34.9867012207031
 72
 1
 10
93.660025
 20
34.9867012207031
 11
94.062409765625
 21
34.5712129394532
 72
 1
 10
94.062409765625
 20
34.5712129394532
 11
94.380196875
 21
34.1314199707032
 72
 1
 10
94.380196875
 20
34.1314199707032
 11
94.617241796875
 21
33.6921426269531
 72
 1
 10
94.617241796875
 20
33.6921426269531
 11
94.7774
 21
33.2782012207031
 97
 1
 330
CF
 92
 0
 93
56             
 72
 1
 10
86.8814
 20
38.1232012207031
 11
85.828870703125
 21
37.4178203613281
 72
 1
 10
85.828870703125
 20
37.4178203613281
 11
84.897478125
 21
36.5421543457031
 72
 1
 10
84.897478125
 20
36.5421543457031
 11
84.093140234375
 21
35.5085430175781
 72
 1
 10
84.093140234375
 20
35.5085430175781
 11
83.421775
 21
34.3293262207031
 72
 1
 10
83.421775
 20
34.3293262207031
 11
82.889300390625
 21
33.0168437988281
 72
 1
 10
82.889300390625
 20
33.0168437988281
 11
82.501634375
 21
31.5834355957031
 72
 1
 10
82.501634375
 20
31.5834355957031
 11
82.264694921875
 21
30.0414414550781
 72
 1
 10
82.264694921875
 20
30.0414414550781
 11
82.1844
 21
28.4032012207031
 72
 1
 10
82.1844
 20
28.4032012207031
 11
82.222214453125
 21
27.2788594238281
 72
 1
 10
82.222214453125
 20
27.2788594238281
 11
82.335415625
 21
26.1961543457031
 72
 1
 10
82.335415625
 20
26.1961543457031
 11
82.523640234375
 21
25.1570664550781
 72
 1
 10
82.523640234375
 20
25.1570664550781
 11
82.786525
 21
24.1635762207031
 72
 1
 10
82.786525
 20
24.1635762207031
 11
83.123706640625
 21
23.2176641113281
 72
 1
 10
83.123706640625
 20
23.2176641113281
 11
83.534821875
 21
22.3213105957031
 72
 1
 10
83.534821875
 20
22.3213105957031
 11
84.019507421875
 21
21.4764961425781
 72
 1
 10
84.019507421875
 20
21.4764961425781
 11
84.5774
 21
20.6852012207031
 72
 1
 10
84.5774
 20
20.6852012207031
 11
85.194148046875
 21
19.9672402832031
 72
 1
 10
85.194148046875
 20
19.9672402832031
 11
85.860759375
 21
19.3573262207032
 72
 1
 10
85.860759375
 20
19.3573262207032
 11
86.584909765625
 21
18.8516621582031
 72
 1
 10
86.584909765625
 20
18.8516621582031
 11
87.374275
 21
18.4464512207031
 72
 1
 10
87.374275
 20
18.4464512207031
 11
88.236530859375
 21
18.1378965332031
 72
 1
 10
88.236530859375
 20
18.1378965332031
 11
89.179353125
 21
17.9222012207031
 72
 1
 10
89.179353125
 20
17.9222012207031
 11
90.210417578125
 21
17.7955684082031
 72
 1
 10
90.210417578125
 20
17.7955684082031
 11
91.3374
 21
17.7542012207031
 72
 1
 10
91.3374
 20
17.7542012207031
 11
91.962636328125
 21
17.7671914550781
 72
 1
 10
91.962636328125
 20
17.7671914550781
 11
92.542228125
 21
17.8073105957031
 72
 1
 10
92.542228125
 20
17.8073105957031
 11
93.083874609375
 21
17.8762812988281
 72
 1
 10
93.083874609375
 20
17.8762812988281
 11
93.595275
 21
17.9758262207031
 72
 1
 10
93.595275
 20
17.9758262207031
 11
94.084128515625
 21
18.1076680175781
 72
 1
 10
94.084128515625
 20
18.1076680175781
 11
94.558134375
 21
18.2735293457031
 72
 1
 10
94.558134375
 20
18.2735293457031
 11
95.024991796875
 21
18.4751328613281
 72
 1
 10
95.024991796875
 20
18.4751328613281
 11
95.4924
 21
18.7142012207031
 72
 1
 10
95.4924
 20
18.7142012207031
 11
96.55138046875
 21
19.4256523925781
 72
 1
 10
96.55138046875
 20
19.4256523925781
 11
97.48049375
 21
20.3010605957031
 72
 1
 10
97.48049375
 20
20.3010605957031
 11
98.27624765625
 21
21.3330078613281
 72
 1
 10
98.27624765625
 20
21.3330078613281
 11
98.93515
 21
22.5140762207031
 72
 1
 10
98.93515
 20
22.5140762207031
 11
99.45370859375
 21
23.8368477050782
 72
 1
 10
99.45370859375
 20
23.8368477050782
 11
99.82843125
 21
25.2939043457031
 72
 1
 10
99.82843125
 20
25.2939043457031
 11
100.05582578125
 21
26.8778281738281
 72
 1
 10
100.05582578125
 20
26.8778281738281
 11
100.1324
 21
28.5812012207031
 72
 1
 10
100.1324
 20
28.5812012207031
 11
99.9749859375
 21
30.9071484863281
 72
 1
 10
99.9749859375
 20
30.9071484863281
 11
99.5128375
 21
32.9820918457032
 72
 1
 10
99.5128375
 20
32.9820918457032
 11
98.7610953125
 21
34.7878086425781
 72
 1
 10
98.7610953125
 20
34.7878086425781
 11
97.7349
 21
36.3060762207031
 72
 1
 10
97.7349
 20
36.3060762207031
 11
96.4493921875
 21
37.5186719238282
 72
 1
 10
96.4493921875
 20
37.5186719238282
 11
94.9197125
 21
38.4073730957031
 72
 1
 10
94.9197125
 20
38.4073730957031
 11
93.1610015625
 21
38.9539570800782
 72
 1
 10
93.1610015625
 20
38.9539570800782
 11
91.1884
 21
39.1402012207031
 72
 1
 10
91.1884
 20
39.1402012207031
 11
90.606835546875
 21
39.1234902832032
 72
 1
 10
90.606835546875
 20
39.1234902832032
 11
90.031259375
 21
39.0738262207032
 72
 1
 10
90.031259375
 20
39.0738262207032
 11
89.464847265625
 21
38.9919121582031
 72
 1
 10
89.464847265625
 20
38.9919121582031
 11
88.910775
 21
38.8784512207031
 72
 1
 10
88.910775
 20
38.8784512207031
 11
88.372218359375
 21
38.7341465332031
 72
 1
 10
88.372218359375
 20
38.7341465332031
 11
87.852353125
 21
38.5597012207031
 72
 1
 10
87.852353125
 20
38.5597012207031
 11
87.354355078125
 21
38.3558184082031
 72
 1
 10
87.354355078125
 20
38.3558184082031
 11
86.8814
 21
38.1232012207031
 97
 1
 330
D0
 75
 0
 76
 1
 98
 1
 10
 0.0
 20
 0.0
 0
LINE
 5
D1
100
AcDbEntity
 8
Layer8
100
AcDbLine
 39
0.25
 370
106
 10
143.9991
 20
288.631701220703
 30
0.0
 11
147.1601
 21
288.631701220703
 31
0.0
  0
ENDSEC
  0
SECTION
  2
OBJECTS
  0
DICTIONARY
  5
19
100
AcDbDictionary
  3
ACAD_GROUP
350
1A
  3
ACAD_MLINESTYLE
350
1B
  0
DICTIONARY
  5
1A
102
{ACAD_REACTORS
330
19
102
}
100
AcDbDictionary
  0
DICTIONARY
  5
1B
102
{ACAD_REACTORS
330
19
102
}
100
AcDbDictionary
  3
STANDARD
350
1C
  0
MLINESTYLE
  5
1C
102
{ACAD_REACTORS
330
1B
102
}
100
AcDbMlineStyle
  2
STANDARD
 70
     0
  3

 62
     0
 51
90.0
 52
90.0
 71
     2
 49
0.5
 62
   256
  6
BYLAYER
 49
-0.5
 62
   256
  6
BYLAYER
  0
ENDSEC
  0
EOF
