 999
SCAN2CAD Date : 01/26/16
 999
SCAN2CAD ScalePixelX : 1
 999
SCAN2CAD ScalePixelY : 1
 999
SCAN2CAD TileXOffset : 0
 999
SCAN2CAD TileYOffset : 0
 999
SCAN2CAD MeasureType : 1
 999
SCAN2CAD DotsPerInch : 0
 999
SCAN2CAD GeScalePixX : 1
 999
SCAN2CAD GeScalePixY : 1
 999
SCAN2CAD GeRasTiePtX : 0
 999
SCAN2CAD GeRasTiePtY : 0
 999
SCAN2CAD ScalRasDist : 1
 999
SCAN2CAD ScalVecDist : 1
 999
SCAN2CAD ScalUnitTyp : 0
 999
SCAN2CAD ScalDistFac : 1
 999
SCAN2CAD ScalAdjustX : 1
 999
SCAN2CAD ScalAdjustY : 1
 999
SCAN2CAD MeasureMeth : 1
 999
SCAN2CAD OgDrawScale : 1
 999
SCAN2CAD OgDrawUType : 0
 999
SCAN2CAD ToDrawScale : 1
 999
SCAN2CAD ToDrawUType : 0
  0
SECTION
  2
HEADER
  9
$ACADVER
  1
AC1014
  9
$ACADMAINTVER
 70
     0
  9
$DWGCODEPAGE
  3
ANSI_1252
  9
$INSBASE
 10
0.0
 20
0.0
 30
0.0
 9
$EXTMIN
 10
25.3446999999985
 20
12.3636943847656
 30
0.0
 9
$EXTMAX
 10
152.2402
 20
445.226494384766
 30
0.0
 9
$LIMMIN
 10
0
 20
0
 9
$LIMMAX
 10
177
 20
471
  9
$ORTHOMODE
 70
     0
  9
$REGENMODE
 70
     1
  9
$FILLMODE
 70
     1
  9
$QTEXTMODE
 70
     0
  9
$MIRRTEXT
 70
     1
  9
$DRAGMODE
 70
     2
  9
$LTSCALE
 40
1.0
  9
$OSMODE
 70
     0
  9
$ATTMODE
 70
     1
  9
$TEXTSIZE
 40
0.2
  9
$TRACEWID
 40
0.05
  9
$TEXTSTYLE
  7
STANDARD
  9
$CLAYER
  8
0
  9
$CELTYPE
  6
CONTINUOUS
  9
$CECOLOR
 62
   256
  9
$CELTSCALE
 40
1.0
  9
$DELOBJ
 70
     1
  9
$DISPSILH
 70
     0
  9
$DIMSCALE
 40
1.0
  9
$DIMASZ
 40
0.18
  9
$DIMEXO
 40
0.0625
  9
$DIMDLI
 40
0.38
  9
$DIMRND
 40
0.0
  9
$DIMDLE
 40
0.0
  9
$DIMEXE
 40
0.18
  9
$DIMTP
 40
0.0
  9
$DIMTM
 40
0.0
  9
$DIMTXT
 40
0.18
  9
$DIMCEN
 40
0.09
  9
$DIMTSZ
 40
0.0
  9
$DIMTOL
 70
     0
  9
$DIMLIM
 70
     0
  9
$DIMTIH
 70
     1
  9
$DIMTOH
 70
     1
  9
$DIMSE1
 70
     0
  9
$DIMSE2
 70
     0
  9
$DIMTAD
 70
     0
  9
$DIMZIN
 70
     0
  9
$DIMBLK
  1

  9
$DIMASO
 70
     1
  9
$DIMSHO
 70
     1
  9
$DIMPOST
  1

  9
$DIMAPOST
  1

  9
$DIMALT
 70
     0
  9
$DIMALTD
 70
     2
  9
$DIMALTF
 40
25.4
  9
$DIMLFAC
 40
1.0
  9
$DIMTOFL
 70
     0
  9
$DIMTVP
 40
0.0
  9
$DIMTIX
 70
     0
  9
$DIMSOXD
 70
     0
  9
$DIMSAH
 70
     0
  9
$DIMBLK1
  1

  9
$DIMBLK2
  1

  9
$DIMSTYLE
  2
STANDARD
  9
$DIMCLRD
 70
     0
  9
$DIMCLRE
 70
     0
  9
$DIMCLRT
 70
     0
  9
$DIMTFAC
 40
1.0
  9
$DIMGAP
 40
0.09
  9
$DIMJUST
 70
     0
  9
$DIMSD1
 70
     0
  9
$DIMSD2
 70
     0
  9
$DIMTOLJ
 70
     1
  9
$DIMTZIN
 70
     0
  9
$DIMALTZ
 70
     0
  9
$DIMALTTZ
 70
     0
  9
$DIMFIT
 70
     3
  9
$DIMUPT
 70
     0
  9
$DIMUNIT
 70
     2
  9
$DIMDEC
 70
     4
  9
$DIMTDEC
 70
     4
  9
$DIMALTU
 70
     2
  9
$DIMALTTD
 70
     2
  9
$DIMTXSTY
  7
STANDARD
  9
$DIMAUNIT
 70
     0
  9
$LUNITS
 70
     2
  9
$LUPREC
 70
     4
  9
$SKETCHINC
 40
0.1
  9
$FILLETRAD
 40
0.0
  9
$AUNITS
 70
     0
  9
$AUPREC
 70
     0
  9
$MENU
  1
acad
  9
$ELEVATION
 40
0.0
  9
$PELEVATION
 40
0.0
  9
$THICKNESS
 40
0.0
  9
$LIMCHECK
 70
     0
  9
$BLIPMODE
 70
     1
  9
$CHAMFERA
 40
0.0
  9
$CHAMFERB
 40
0.0
  9
$CHAMFERC
 40
0.0
  9
$CHAMFERD
 40
0.0
  9
$SKPOLY
 70
     0
  9
$TDCREATE
 40
0.000000000
  9
$TDUPDATE
 40
0.000000000
  9
$TDINDWG
 40
0.0000000000
  9
$TDUSRTIMER
 40
0.0000000000
  9
$USRTIMER
 70
     1
  9
$ANGBASE
 50
0.0
  9
$ANGDIR
 70
     0
  9
$PDMODE
 70
     0
  9
$PDSIZE
 40
0.0
  9
$PLINEWID
 40
0.0
  9
$COORDS
 70
     0
  9
$SPLFRAME
 70
     0
  9
$SPLINETYPE
 70
     6
  9
$SPLINESEGS
 70
     8
  9
$ATTDIA
 70
     0
  9
$ATTREQ
 70
     1
  9
$HANDLING
 70
     1
  9
$HANDSEED
  5
      F5
  9
$SURFTAB1
 70
     6
  9
$SURFTAB2
 70
     6
  9
$SURFTYPE
 70
     6
  9
$SURFU
 70
     6
  9
$SURFV
 70
     6
  9
$UCSNAME
  2

  9
$UCSORG
 10
0.0
 20
0.0
 30
0.0
  9
$UCSXDIR
 10
1.0
 20
0.0
 30
0.0
  9
$UCSYDIR
 10
0.0
 20
1.0
 30
0.0
  9
$PUCSNAME
  2

  9
$PUCSORG
 10
0.0
 20
0.0
 30
0.0
  9
$PUCSXDIR
 10
1.0
 20
0.0
 30
0.0
  9
$PUCSYDIR
 10
0.0
 20
1.0
 30
0.0
  9
$USERI1
 70
     0
  9
$USERI2
 70
     0
  9
$USERI3
 70
     0
  9
$USERI4
 70
     0
  9
$USERI5
 70
     0
  9
$USERR1
 40
0.0
  9
$USERR2
 40
0.0
  9
$USERR3
 40
0.0
  9
$USERR4
 40
0.0
  9
$USERR5
 40
0.0
  9
$WORLDVIEW
 70
     1
  9
$SHADEDGE
 70
     3
  9
$SHADEDIF
 70
    70
  9
$TILEMODE
 70
     1
  9
$MAXACTVP
 70
    16
  9
$PINSBASE
 10
0.0
 20
0.0
 30
0.0
  9
$PLIMCHECK
 70
     0
 9
$PEXTMIN
 10
25.3446999999985
 20
12.3636943847656
 30
0.0
 9
$PEXTMAX
 10
152.2402
 20
445.226494384766
 30
0.0
 9
$PLIMMIN
 10
0
 20
0
 9
$PLIMMAX
 10
177
 20
471
  9
$UNITMODE
 70
     0
  9
$VISRETAIN
 70
     0
  9
$PLINEGEN
 70
     1
  9
$PSLTSCALE
 70
     0
  9
$TREEDEPTH
 70
  3020
  9
$PICKSTYLE
 70
     1
  9
$CMLSTYLE
  2
STANDARD
  9
$CMLJUST
 70
     0
  9
$CMLSCALE
 40
1.0
  9
$PROXYGRAPHICS
 70
     0
  9
$MEASUREMENT
 70
     0
  0
ENDSEC
  0
SECTION
  2
CLASSES
  0
CLASS
  1
LWPOLYLINE
  2
AcDbPolyline
  3
"AutoCAD"
 90
        0
280
     0
281
     1
  0
CLASS
  1
IMAGE
  2
AcDbRasterImage
  3
ISM
 90
      127
280
     0
281
     1
  0
CLASS
  1
OLE2FRAME
  2
AcDbOle2Frame
  3
""
 90
        0
280
     0
281
     1
  0
CLASS
  1
HATCH
  2
AcDbHatch
  3
"ACAD_SEDONA"
 90
        0
280
     0
281
     1
  0
CLASS
  1
DICTIONARYVAR
  2
AcDbDictionaryVar
  3
"AutoCAD"
 90
        0
280
     0
281
     0
  0
CLASS
  1
RASTERVARIABLES
  2
AcDbRasterVariables
  3
ISM
 90
        0
280
     0
281
     0
  0
CLASS
  1
IMAGEDEF
  2
AcDbRasterImageDef
  3
ISM
 90
        0
280
     0
281
     0
  0
CLASS
  1
IMAGEDEF_REACTOR
  2
AcDbRasterImageDefReactor
  3
ISM
 90
        1
280
     0
281
     0
  0
CLASS
  1
IDBUFFER
  2
AcDbIdBuffer
  3
"Acad"
 90
        0
280
     0
281
     0
  0
CLASS
  1
SPATIAL_FILTER
  2
AcDbSpatialFilter
  3
"Acad"
 90
        0
280
     0
281
     0
  0
CLASS
  1
XRECORD
  2
AcDbXrecord
  3
"<Built In>"
 90
        0
280
     0
281
     0
  0
CLASS
  1
SORTENTSTABLE
  2
AcDbSortentsTable
  3
"AutoCAD"
 90
        0
280
     0
281
     0
  0
CLASS
  1
LAYER_INDEX
  2
AcDbLayerIndex
  3
"Acad"
 90
        0
280
     0
281
     0
  0
CLASS
  1
SPATIAL_INDEX
  2
AcDbSpatialIndex
  3
"Acad"
 90
        0
280
     0
281
     0
  0
CLASS
  1
OBJECT_PTR
  2
CAseDLPNTableRecord
  3
"ASE-LPNTableRecord"
 90
        1
280
     0
281
     0
  0
ENDSEC
  0
SECTION
  2
TABLES
  0
TABLE
  2
VPORT
  5
7
100
AcDbSymbolTable
 70
     1
  0
VPORT
  5
15
100
AcDbSymbolTableRecord
100
AcDbViewportTableRecord
 2
*ACTIVE
 70
     0
 10
0
 20
0
 11
1.0
 21
1.0
 12
0.0
 22
0.0
 13
0.0
 23
0.0
 14
1.0
 24
1.0
 15
0.0
 25
0.0
 16
0.0
 26
0.0
 36
1.0
 17
88.7924499999992
 27
228.795094384766
 37
0.0
 40
436.8628
 41
0.299626106869254
 42
50.0
 43
0.0
 44
0.0
 50
0.0
 51
0.0
 71
     0
 72
   100
 73
     1
 74
     1
 75
     0
 76
     0
 77
     0
 78
     0
   0
ENDTAB
  0
TABLE
  2
LTYPE
  5
4
100
AcDbSymbolTable
 70
3
  0
LTYPE
  5
11
100
AcDbSymbolTableRecord
100
AcDbLinetypeTableRecord
  2
BYBLOCK
 70
     0
  3

 72
    65
 73
     0
 40
0.0
  0
LTYPE
  5
12
100
AcDbSymbolTableRecord
100
AcDbLinetypeTableRecord
  2
BYLAYER
 70
     0
  3

 72
    65
 73
     0
 40
0.0
  0
LTYPE
  5
80
330
5
100
AcDbSymbolTableRecord
100
AcDbLinetypeTableRecord
  2
CONTINUOUS
 70
     0
  3
Continuous
 72
    65
 73
     0
 40
0.0
  0
LTYPE
  5
81
330
5
100
AcDbSymbolTableRecord
100
AcDbLinetypeTableRecord
  2
DASH
 70
     0
  3
Dash
 72
    65
 73
     2
 40
48.0
 49
24.0
 74
     0
 49
-24.0
 74
     0
  0
LTYPE
  5
82
330
5
100
AcDbSymbolTableRecord
100
AcDbLinetypeTableRecord
  2
DASHDOT
 70
     0
  3
DashDot
 72
    65
 73
     4
 40
48.0
 49
24.0
 74
     0
 49
 -12.0
 74
     0
 49
0.0
 74
     0
 49
 -12.0
 74
     0	
  0
ENDTAB
  0
TABLE
  2
LAYER
  5
2
100
AcDbSymbolTable
 70
4              
  0
LAYER
  5
83
100
AcDbSymbolTableRecord
100
AcDbLayerTableRecord
  2
0
 70
     0
 62
     7
  6
CONTINUOUS
 0
LAYER
  5
84
100
AcDbSymbolTableRecord
100
AcDbLayerTableRecord
 2
Layer0
 70
 64
 62
 7
 6
CONTINUOUS
 0
LAYER
  5
85
100
AcDbSymbolTableRecord
100
AcDbLayerTableRecord
 2
Layer8
 70
 64
 62
 8
 6
CONTINUOUS
 0
LAYER
  5
86
100
AcDbSymbolTableRecord
100
AcDbLayerTableRecord
 2
Layer22
 70
 64
 62
 22
 6
CONTINUOUS
  0
ENDTAB
  0
TABLE
  2
STYLE
  5
3
100
AcDbSymbolTable
 70
1              
 0
STYLE
 5
17
100
AcDbSymbolTableRecord
100
AcDbTextStyleTableRecord
 2
STANDARD
 70
 0
 40
 0.0
 41
 1.0
 50
 0.0
 71
  0
 42
 8.0
 3
 txt
 4

  0
ENDTAB
  0
TABLE
  2
VIEW
  5
5
100
AcDbSymbolTable
 70
     0
  0
ENDTAB
  0
TABLE
  2
UCS
  5
6
100
AcDbSymbolTable
 70
     0
  0
ENDTAB
  0
TABLE
  2
APPID
  5
8
100
AcDbSymbolTable
 70
     1
  0
APPID
  5
16
100
AcDbSymbolTableRecord
100
AcDbRegAppTableRecord
  2
ACAD
 70
     0
  0
ENDTAB
  0
TABLE
  2
DIMSTYLE
  5
9
100
AcDbSymbolTable
 70
     1
  0
DIMSTYLE
105
18
100
AcDbSymbolTableRecord
100
AcDbDimStyleTableRecord
  2
STANDARD
 70
     0
  3

  4

  5

  6

  7

 40
1.0
 41
0.18
 42
0.0625
 43
0.38
 44
0.18
 45
0.0
 46
0.0
 47
0.0
 48
0.0
140
0.18
141
0.09
142
0.0
143
25.4
144
1.0
145
0.0
146
1.0
147
0.09
 71
     0
 72
     0
 73
     1
 74
     1
 75
     0
 76
     0
 77
     0
 78
     0
170
     0
171
     2
172
     0
173
     0
174
     0
175
     0
176
     0
177
     0
178
     0
270
     2
271
     4
272
     4
273
     2
274
     2
340
17
275
     0
280
     0
281
     0
282
     0
283
     1
284
     0
285
     0
286
     0
287
     0
288
     0
  0
ENDTAB
  0
TABLE
  2
BLOCK_RECORD
  5
1
100
AcDbSymbolTable
 70
     0
  0
BLOCK_RECORD
  5
A
100
AcDbSymbolTableRecord
100
AcDbBlockTableRecord
  2
*MODEL_SPACE
  0
BLOCK_RECORD
  5
B
100
AcDbSymbolTableRecord
100
AcDbBlockTableRecord
  2
*PAPER_SPACE
  0
ENDTAB
  0
ENDSEC
  0
SECTION
  2
BLOCKS
  0
BLOCK
  5
D
100
AcDbEntity
  8
0
100
AcDbBlockBegin
  2
*MODEL_SPACE
 70
     0
 10
0.0
 20
0.0
 30
0.0
  3
*MODEL_SPACE
  1

  0
ENDBLK
  5
E
100
AcDbEntity
  8
0
100
AcDbBlockEnd
  0
BLOCK
  5
F
100
AcDbEntity
 67
     1
  8
0
100
AcDbBlockBegin
  2
*PAPER_SPACE
 70
     0
 10
0.0
 20
0.0
 30
0.0
  3
*PAPER_SPACE
  1

  0
ENDBLK
  5
10
100
AcDbEntity
 67
     1
  8
0
100
AcDbBlockEnd
 0
ENDSEC
 0
SECTION
 2
ENTITIES
 0
CIRCLE
 5
87
100
AcDbEntity
 8
Layer8
100
AcDbCircle
 39
0.25
 370
106
 10
106.8276
 20
383.909794384766
 30
0.0
 40
3.73349999999999
 370
106
 0
CIRCLE
 5
88
100
AcDbEntity
 8
Layer8
100
AcDbCircle
 39
0.25
 370
106
 10
93.7806
 20
405.227294384766
 30
0.0
 40
3.7355
 370
106
 0
CIRCLE
 5
89
100
AcDbEntity
 8
Layer8
100
AcDbCircle
 39
0.25
 370
106
 10
93.7784
 20
405.225594384766
 30
0.0
 40
0.452249999999992
 370
106
 0
CIRCLE
 5
8A
100
AcDbEntity
 8
Layer8
100
AcDbCircle
 39
0.25
 370
106
 10
106.827
 20
383.911794384766
 30
0.0
 40
0.45999999999998
 370
106
 0
CIRCLE
 5
8B
100
AcDbEntity
 8
Layer8
100
AcDbCircle
 39
0.25
 370
106
 10
81.2767
 20
367.850594384766
 30
0.0
 40
3.7345
 370
106
 0
CIRCLE
 5
8C
100
AcDbEntity
 8
Layer8
100
AcDbCircle
 39
0.25
 370
106
 10
81.2764
 20
367.848594384766
 30
0.0
 40
0.455999999999989
 370
106
 0
LWPOLYLINE
 5
8D
100
AcDbEntity
 8
Layer8
100
AcDbPolyline
 39
0.25
 370
106
 90
5              
 70
 1
 43
0.0
 10
96.031
 20
175.713994384766
 10
50.635
 20
175.713994384766
 10
50.635
 20
178.565994384766
 10
96.031
 20
178.565994384766
 10
96.031
 20
175.713994384766
 0
LWPOLYLINE
 5
8E
100
AcDbEntity
 8
Layer8
100
AcDbPolyline
 39
0.25
 370
106
 90
5              
 70
 1
 43
0.0
 10
72.35
 20
178.466994384766
 10
74.635
 20
178.466994384766
 10
74.635
 20
364.182994384766
 10
72.35
 20
364.182994384766
 10
72.35
 20
178.466994384766
 0
ARC
 5
8F
100
AcDbEntity
 8
Layer8
100
AcDbCircle
 39
0.25
 370
106
 10
73.016222748019
 20
400.619822693753
 30
0.0
 40
10.644312753796
100
AcDbArc
 50
179.396733853061
 51
-122.121289412928
 0
LINE
 5
90
100
AcDbEntity
 8
Layer8
100
AcDbLine
 39
0.25
 370
106
 10
62.3875
 20
401.550894384766
 30
0.0
 11
62.3725
 21
401.135894384766
 31
0.0
 0
LINE
 5
91
100
AcDbEntity
 8
Layer8
100
AcDbLine
 39
0.25
 370
106
 10
62.3725
 20
401.135894384766
 30
0.0
 11
62.3725
 21
400.731894384766
 31
0.0
 0
ARC
 5
92
100
AcDbEntity
 8
Layer8
100
AcDbCircle
 39
0.25
 370
106
 10
66.7459252436937
 20
387.513028993233
 30
0.0
 40
3.98499816922341
100
AcDbArc
 50
37.0474280776637
 51
74.1172248840384
 0
LINE
 5
93
100
AcDbEntity
 8
Layer8
100
AcDbLine
 39
0.25
 370
106
 10
67.3565
 20
391.604894384766
 30
0.0
 11
67.8365
 21
391.345894384766
 31
0.0
 0
ARC
 5
94
100
AcDbEntity
 8
Layer8
100
AcDbCircle
 39
0.25
 370
106
 10
99.8890990723568
 20
390.671407130534
 30
0.0
 40
29.8972391938907
100
AcDbArc
 50
-178.206868450104
 51
-175.611867628149
 0
LINE
 5
95
100
AcDbEntity
 8
Layer8
100
AcDbLine
 39
0.25
 370
106
 10
69.9265
 20
389.913894384766
 30
0.0
 11
69.9575
 21
389.826894384766
 31
0.0
 0
LINE
 5
96
100
AcDbEntity
 8
Layer8
100
AcDbLine
 39
0.25
 370
106
 10
69.9575
 20
389.826894384766
 30
0.0
 11
70.0065
 21
389.735894384766
 31
0.0
 0
ARC
 5
97
100
AcDbEntity
 8
Layer8
100
AcDbCircle
 39
0.25
 370
106
 10
82.7156255129109
 20
388.888310836904
 30
0.0
 40
5.82301409699104
100
AcDbArc
 50
172.960972715654
 51
-175.030545943873
 0
LINE
 5
98
100
AcDbEntity
 8
Layer8
100
AcDbLine
 39
0.25
 370
106
 10
70.0795
 20
388.383894384766
 30
0.0
 11
70.0795
 21
388.170894384766
 31
0.0
 0
LINE
 5
99
100
AcDbEntity
 8
Layer8
100
AcDbLine
 39
0.25
 370
106
 10
70.0795
 20
388.170894384766
 30
0.0
 11
76.9145
 21
388.170894384766
 31
0.0
 0
LINE
 5
9A
100
AcDbEntity
 8
Layer8
100
AcDbLine
 39
0.25
 370
106
 10
76.9145
 20
388.170894384766
 30
0.0
 11
76.9145
 21
388.383894384766
 31
0.0
 0
ARC
 5
9B
100
AcDbEntity
 8
Layer8
100
AcDbCircle
 39
0.25
 370
106
 10
79.8746371650933
 20
387.799903143717
 30
0.0
 40
3.47698121504779
100
AcDbArc
 50
115.708427666174
 51
146.165055281896
 0
ARC
 5
9C
100
AcDbEntity
 8
Layer8
100
AcDbCircle
 39
0.25
 370
106
 10
58.566875889204
 20
429.010830137338
 30
0.0
 40
42.9180910869289
100
AcDbArc
 50
-62.526926834199
 51
-61.3542472796339
 0
LINE
 5
9D
100
AcDbEntity
 8
Layer8
100
AcDbLine
 39
0.25
 370
106
 10
76.9365
 20
389.601894384766
 30
0.0
 11
76.9865
 21
389.735894384766
 31
0.0
 0
ARC
 5
9E
100
AcDbEntity
 8
Layer8
100
AcDbCircle
 39
0.25
 370
106
 10
73.3808070371683
 20
400.941571458049
 30
0.0
 40
11.2386490832302
100
AcDbArc
 50
-56.1774094047277
 51
-1.06901713194889
 0
LINE
 5
9F
100
AcDbEntity
 8
Layer8
100
AcDbLine
 39
0.25
 370
106
 10
79.1415
 20
391.345894384766
 30
0.0
 11
79.6365
 21
391.604894384766
 31
0.0
 0
LWPOLYLINE
 5
A0
100
AcDbEntity
 8
Layer8
100
AcDbPolyline
 39
0.25
 370
106
 90
5              
 70
 1
 43
0.0
 10
69.327
 20
364.086994384766
 10
77.655
 20
364.086994384766
 10
77.655
 20
388.265994384766
 10
69.327
 20
388.265994384766
 10
69.327
 20
364.086994384766
 0
LWPOLYLINE
 5
A1
100
AcDbEntity
 8
Layer8
100
AcDbPolyline
 39
0.25
 370
106
 90
5              
 70
 1
 43
0.0
 10
82.2929
 20
416.564494384766
 10
91.8239
 20
401.432494384766
 10
55.1549
 20
401.455494384766
 10
64.7089
 20
416.575494384766
 10
82.2929
 20
416.564494384766
 0
LINE
 5
A2
100
AcDbEntity
 8
Layer8
100
AcDbLine
 39
0.25
 370
106
 10
84.6175
 20
400.731894384766
 30
0.0
 11
84.6175
 21
401.135894384766
 31
0.0
 0
LINE
 5
A3
100
AcDbEntity
 8
Layer8
100
AcDbLine
 39
0.25
 370
106
 10
84.6175
 20
401.135894384766
 30
0.0
 11
84.6055
 21
401.542894384766
 31
0.0
 0
LWPOLYLINE
 5
A4
100
AcDbEntity
 8
Layer8
100
AcDbPolyline
 39
0.25
 370
106
 90
5              
 70
 1
 43
0.0
 10
69.327
 20
364.086994384766
 10
77.655
 20
364.086994384766
 10
77.655
 20
388.265994384766
 10
69.327
 20
388.265994384766
 10
69.327
 20
364.086994384766
 0
LWPOLYLINE
 5
A5
100
AcDbEntity
 8
Layer8
100
AcDbPolyline
 39
0.25
 370
106
 90
5              
 70
 1
 43
0.0
 10
105.5575
 20
387.408094384766
 10
104.3005
 20
386.627094384766
 10
95.0555
 20
401.737094384766
 10
96.3125
 20
402.517094384766
 10
105.5575
 20
387.408094384766
 0
LWPOLYLINE
 5
A6
100
AcDbEntity
 8
Layer8
100
AcDbPolyline
 39
0.25
 370
106
 90
5              
 70
 1
 43
0.0
 10
84.6853
 20
369.082494384766
 10
83.9083
 20
370.346494384766
 10
103.4123
 20
382.561494384766
 10
104.1883
 20
381.290494384766
 10
84.6853
 20
369.082494384766
 0
ARC
 5
A7
100
AcDbEntity
 8
Layer8
100
AcDbCircle
 39
0.25
 370
106
 10
81.23719086106
 20
386.629258326428
 30
0.0
 40
5.23026225668187
100
AcDbArc
 50
107.823291353336
 51
145.316589305385
 0
ARC
 5
A8
100
AcDbEntity
 8
Layer8
100
AcDbCircle
 39
0.25
 370
106
 10
73.2149519877131
 20
401.030211394335
 30
0.0
 40
11.4018622033115
100
AcDbArc
 50
-55.7237101435705
 51
2.57515281368169
 0
ARC
 5
A9
100
AcDbEntity
 8
Layer8
100
AcDbCircle
 39
0.25
 370
106
 10
73.7691458676172
 20
400.93708520542
 30
0.0
 40
11.3983633112609
100
AcDbArc
 50
176.915105912405
 51
-138.001351498633
 0
LINE
 5
AA
100
AcDbEntity
 8
Layer8
100
AcDbLine
 39
0.25
 370
106
 10
76.9363
 20
389.605494384766
 30
0.0
 11
76.9133
 21
388.169494384766
 31
0.0
 0
LINE
 5
AB
100
AcDbEntity
 8
Layer8
100
AcDbLine
 39
0.25
 370
106
 10
76.9133
 20
388.169494384766
 30
0.0
 11
70.0783
 21
388.169494384766
 31
0.0
 0
LINE
 5
AC
100
AcDbEntity
 8
Layer8
100
AcDbLine
 39
0.25
 370
106
 10
70.0783
 20
388.169494384766
 30
0.0
 11
70.07351875
 21
389.423400634766
 31
0.0
 0
LINE
 5
AD
100
AcDbEntity
 8
Layer8
100
AcDbLine
 39
0.25
 370
106
 10
70.07351875
 20
389.423400634766
 30
0.0
 11
69.9263
 21
389.913494384766
 31
0.0
 0
LINE
 5
AE
100
AcDbEntity
 8
Layer8
100
AcDbLine
 39
0.25
 370
106
 10
69.9263
 20
389.913494384766
 30
0.0
 11
68.970925
 21
390.734869384766
 31
0.0
 0
LINE
 5
AF
100
AcDbEntity
 8
Layer8
100
AcDbLine
 39
0.25
 370
106
 10
68.970925
 20
390.734869384766
 30
0.0
 11
67.3563
 21
391.608494384766
 31
0.0
 0
LINE
 5
B0
100
AcDbEntity
 8
Layer8
100
AcDbLine
 39
0.25
 370
106
 10
67.3563
 20
391.608494384766
 30
0.0
 11
65.29833125
 21
393.310291259766
 31
0.0
 0
LINE
 5
B1
100
AcDbEntity
 8
Layer8
100
AcDbLine
 39
0.25
 370
106
 10
62.3873
 20
401.550494384766
 30
0.0
 11
84.6053
 21
401.542494384766
 31
0.0
 0
LINE
 5
B2
100
AcDbEntity
 8
Layer8
100
AcDbLine
 39
0.25
 370
106
 10
30.932
 20
175.902594384766
 30
0.0
 11
35.749
 21
175.902594384766
 31
0.0
 0
LINE
 5
B3
100
AcDbEntity
 8
Layer8
100
AcDbLine
 39
0.25
 370
106
 10
31.451
 20
416.385894384766
 30
0.0
 11
36.268
 21
416.385894384766
 31
0.0
 0
LINE
 5
B4
100
AcDbEntity
 8
Layer8
100
AcDbLine
 39
0.25
 370
106
 10
50.4616
 20
441.033094384766
 30
0.0
 11
50.4616
 21
436.216094384766
 31
0.0
 0
ARC
 5
B5
100
AcDbEntity
 8
Layer8
100
AcDbCircle
 39
0.25
 370
106
 10
89.2080976574531
 20
358.085073225228
 30
0.0
 40
9.52317919304798
100
AcDbArc
 50
-134.004529348707
 51
14.1378107596433
 0
ARC
 5
B6
100
AcDbEntity
 8
Layer8
100
AcDbCircle
 39
0.25
 370
106
 10
89.5247324843165
 20
358.152298139868
 30
0.0
 40
9.19972290964122
100
AcDbArc
 50
14.2134864464924
 51
45.0679458829199
 0
LWPOLYLINE
 5
B7
100
AcDbEntity
 8
Layer8
100
AcDbPolyline
 39
0.25
 370
106
 90
4              
 70
 1
 43
0.0
 10
84.6118
 20
353.677094384766
 10
80.4998
 20
349.538094384766
 10
80.3818
 20
353.924094384766
 10
84.6118
 20
353.677094384766
 0
HATCH
 5
B8
100
AcDbEntity
 8
Layer8
100
AcDbHatch
 10
 0.0
 20
 0.0
 30
 0.0
 210
 0.0
 220
 0.0
 230
 1.0
 2
SOLID
 70
 1
 71
 1
 91
1              
 92
 0
 93
3              
 72
 1
 10
84.6118
 20
353.677094384766
 11
80.4998
 21
349.538094384766
 72
 1
 10
80.4998
 20
349.538094384766
 11
80.3818
 21
353.924094384766
 72
 1
 10
80.3818
 20
353.924094384766
 11
84.6118
 21
353.677094384766
 97
 1
 330
B9
 75
 0
 76
 1
 98
 1
 10
 0.0
 20
 0.0
 0
LWPOLYLINE
 5
BA
100
AcDbEntity
 8
Layer8
100
AcDbPolyline
 39
0.25
 370
106
 90
4              
 70
 1
 43
0.0
 10
84.6118
 20
353.677094384766
 10
80.4998
 20
349.538094384766
 10
80.3818
 20
353.924094384766
 10
84.6118
 20
353.677094384766
 0
LWPOLYLINE
 5
BB
100
AcDbEntity
 8
Layer8
100
AcDbPolyline
 39
0.25
 370
106
 90
4              
 70
 1
 43
0.0
 10
97.9222
 20
366.987494384766
 10
93.8102
 20
362.848494384766
 10
93.6922
 20
367.234494384766
 10
97.9222
 20
366.987494384766
 0
HATCH
 5
BC
100
AcDbEntity
 8
Layer8
100
AcDbHatch
 10
 0.0
 20
 0.0
 30
 0.0
 210
 0.0
 220
 0.0
 230
 1.0
 2
SOLID
 70
 1
 71
 1
 91
1              
 92
 0
 93
3              
 72
 1
 10
97.9222
 20
366.987494384766
 11
93.8102
 21
362.848494384766
 72
 1
 10
93.8102
 20
362.848494384766
 11
93.6922
 21
367.234494384766
 72
 1
 10
93.6922
 20
367.234494384766
 11
97.9222
 21
366.987494384766
 97
 1
 330
BD
 75
 0
 76
 1
 98
 1
 10
 0.0
 20
 0.0
 0
LWPOLYLINE
 5
BE
100
AcDbEntity
 8
Layer8
100
AcDbPolyline
 39
0.25
 370
106
 90
4              
 70
 1
 43
0.0
 10
97.9222
 20
366.987494384766
 10
93.8102
 20
362.848494384766
 10
93.6922
 20
367.234494384766
 10
97.9222
 20
366.987494384766
 0
ARC
 5
BF
100
AcDbEntity
 8
Layer8
100
AcDbCircle
 39
0.25
 370
106
 10
118.50638441588
 20
383.164909444239
 30
0.0
 40
9.52369193937022
100
AcDbArc
 50
-88.9909488941875
 51
59.1341449788873
 0
ARC
 5
C0
100
AcDbEntity
 8
Layer8
100
AcDbCircle
 39
0.25
 370
106
 10
118.685138534648
 20
383.438841405773
 30
0.0
 40
9.19685960349784
100
AcDbArc
 50
59.2145238844571
 51
90.0687693002266
 0
LWPOLYLINE
 5
C1
100
AcDbEntity
 8
Layer8
100
AcDbPolyline
 39
0.25
 370
106
 90
4              
 70
 1
 43
0.0
 10
115.209
 20
373.981194384766
 10
118.396
 20
370.961194384766
 10
118.377
 20
376.799194384766
 10
115.209
 20
373.981194384766
 0
HATCH
 5
C2
100
AcDbEntity
 8
Layer8
100
AcDbHatch
 10
 0.0
 20
 0.0
 30
 0.0
 210
 0.0
 220
 0.0
 230
 1.0
 2
SOLID
 70
 1
 71
 1
 91
1              
 92
 0
 93
3              
 72
 1
 10
118.3752
 20
376.798194384766
 11
118.3942
 21
370.965194384766
 72
 1
 10
118.3942
 20
370.965194384766
 11
115.2112
 21
373.980194384766
 72
 1
 10
115.2112
 20
373.980194384766
 11
118.3752
 21
376.798194384766
 97
 1
 330
C3
 75
 0
 76
 1
 98
 1
 10
 0.0
 20
 0.0
 0
LWPOLYLINE
 5
C4
100
AcDbEntity
 8
Layer8
100
AcDbPolyline
 39
0.25
 370
106
 90
4              
 70
 1
 43
0.0
 10
118.3752
 20
376.798194384766
 10
118.3942
 20
370.965194384766
 10
115.2112
 20
373.980194384766
 10
118.3752
 20
376.798194384766
 0
LWPOLYLINE
 5
C5
100
AcDbEntity
 8
Layer8
100
AcDbPolyline
 39
0.25
 370
106
 90
4              
 70
 1
 43
0.0
 10
115.209
 20
392.805594384766
 10
118.396
 20
389.785594384766
 10
118.377
 20
395.623594384766
 10
115.209
 20
392.805594384766
 0
HATCH
 5
C6
100
AcDbEntity
 8
Layer8
100
AcDbHatch
 10
 0.0
 20
 0.0
 30
 0.0
 210
 0.0
 220
 0.0
 230
 1.0
 2
SOLID
 70
 1
 71
 1
 91
1              
 92
 0
 93
3              
 72
 1
 10
118.3752
 20
395.622194384766
 11
118.3942
 21
389.789194384766
 72
 1
 10
118.3942
 20
389.789194384766
 11
115.2112
 21
392.804194384766
 72
 1
 10
115.2112
 20
392.804194384766
 11
118.3752
 21
395.622194384766
 97
 1
 330
C7
 75
 0
 76
 1
 98
 1
 10
 0.0
 20
 0.0
 0
LWPOLYLINE
 5
C8
100
AcDbEntity
 8
Layer8
100
AcDbPolyline
 39
0.25
 370
106
 90
4              
 70
 1
 43
0.0
 10
118.3752
 20
395.622194384766
 10
118.3942
 20
389.789194384766
 10
115.2112
 20
392.804194384766
 10
118.3752
 20
395.622194384766
 0
ARC
 5
C9
100
AcDbEntity
 8
Layer8
100
AcDbCircle
 39
0.25
 370
106
 10
101.067982314952
 20
411.570987148876
 30
0.0
 40
9.52431146798903
100
AcDbArc
 50
-45.0007447461338
 51
103.137859235055
 0
ARC
 5
CA
100
AcDbEntity
 8
Layer8
100
AcDbCircle
 39
0.25
 370
106
 10
101.004343809292
 20
411.900929516108
 30
0.0
 40
9.18854953849134
100
AcDbArc
 50
103.219054795093
 51
134.11141593538
 0
LWPOLYLINE
 5
CB
100
AcDbEntity
 8
Layer8
100
AcDbPolyline
 39
0.25
 370
106
 90
4              
 70
 1
 43
0.0
 10
105.3961
 20
406.899194384766
 10
109.4631
 20
402.718194384766
 10
105.0761
 20
402.672194384766
 10
105.3961
 20
406.899194384766
 0
HATCH
 5
CC
100
AcDbEntity
 8
Layer8
100
AcDbHatch
 10
 0.0
 20
 0.0
 30
 0.0
 210
 0.0
 220
 0.0
 230
 1.0
 2
SOLID
 70
 1
 71
 1
 91
1              
 92
 0
 93
3              
 72
 1
 10
105.3961
 20
406.899194384766
 11
109.4631
 21
402.718194384766
 72
 1
 10
109.4631
 20
402.718194384766
 11
105.0761
 21
402.672194384766
 72
 1
 10
105.0761
 20
402.672194384766
 11
105.3961
 21
406.899194384766
 97
 1
 330
CD
 75
 0
 76
 1
 98
 1
 10
 0.0
 20
 0.0
 0
LWPOLYLINE
 5
CE
100
AcDbEntity
 8
Layer8
100
AcDbPolyline
 39
0.25
 370
106
 90
4              
 70
 1
 43
0.0
 10
105.3961
 20
406.899194384766
 10
109.4631
 20
402.718194384766
 10
105.0761
 20
402.672194384766
 10
105.3961
 20
406.899194384766
 0
LWPOLYLINE
 5
CF
100
AcDbEntity
 8
Layer8
100
AcDbPolyline
 39
0.25
 370
106
 90
4              
 70
 1
 43
0.0
 10
92.3199
 20
420.439994384766
 10
96.3869
 20
416.258994384766
 10
91.9999
 20
416.212994384766
 10
92.3199
 20
420.439994384766
 0
HATCH
 5
D0
100
AcDbEntity
 8
Layer8
100
AcDbHatch
 10
 0.0
 20
 0.0
 30
 0.0
 210
 0.0
 220
 0.0
 230
 1.0
 2
SOLID
 70
 1
 71
 1
 91
1              
 92
 0
 93
3              
 72
 1
 10
92.3199
 20
420.439994384766
 11
96.3869
 21
416.258994384766
 72
 1
 10
96.3869
 20
416.258994384766
 11
91.9999
 21
416.212994384766
 72
 1
 10
91.9999
 20
416.212994384766
 11
92.3199
 21
420.439994384766
 97
 1
 330
D1
 75
 0
 76
 1
 98
 1
 10
 0.0
 20
 0.0
 0
LWPOLYLINE
 5
D2
100
AcDbEntity
 8
Layer8
100
AcDbPolyline
 39
0.25
 370
106
 90
4              
 70
 1
 43
0.0
 10
92.3199
 20
420.439994384766
 10
96.3869
 20
416.258994384766
 10
91.9999
 20
416.212994384766
 10
92.3199
 20
420.439994384766
 0
LINE
 5
D3
100
AcDbEntity
 8
Layer8
100
AcDbLine
 39
0.25
 370
106
 10
110.3435
 20
440.514094384766
 30
0.0
 11
110.3435
 21
435.697094384766
 31
0.0
 0
LINE
 5
D4
100
AcDbEntity
 8
Layer8
100
AcDbLine
 39
0.25
 370
106
 10
29.1893
 20
120.701094384766
 30
0.0
 11
37.7593
 21
120.701094384766
 31
0.0
 0
CIRCLE
 5
D5
100
AcDbEntity
 8
Layer8
100
AcDbCircle
 39
0.25
 370
106
 10
78.2045
 20
96.7431943847656
 30
0.0
 40
9.1525
 370
106
 0
CIRCLE
 5
D6
100
AcDbEntity
 8
Layer8
100
AcDbCircle
 39
0.25
 370
106
 10
78.204
 20
96.7433943847656
 30
0.0
 40
18.92225
 370
106
 0
LINE
 5
D7
100
AcDbEntity
 8
Layer8
100
AcDbLine
 39
0.25
 370
106
 10
29.1893
 20
76.3504943847656
 30
0.0
 11
37.7593
 21
76.3504943847656
 31
0.0
 0
LINE
 5
D8
100
AcDbEntity
 8
Layer8
100
AcDbLine
 39
0.25
 370
106
 10
117.4765
 20
97.3171943847656
 30
0.0
 11
117.2365
 21
97.5611943847656
 31
0.0
 0
LINE
 5
D9
100
AcDbEntity
 8
Layer8
100
AcDbLine
 39
0.25
 370
106
 10
117.2365
 20
97.5611943847656
 30
0.0
 11
103.5075
 21
97.5611943847656
 31
0.0
 0
LINE
 5
DA
100
AcDbEntity
 8
Layer8
100
AcDbLine
 39
0.25
 370
106
 10
103.5075
 20
97.5611943847656
 30
0.0
 11
103.5075
 21
95.9931943847656
 31
0.0
 0
LINE
 5
DB
100
AcDbEntity
 8
Layer8
100
AcDbLine
 39
0.25
 370
106
 10
103.5075
 20
95.9931943847656
 30
0.0
 11
117.2365
 21
95.9931943847656
 31
0.0
 0
LINE
 5
DC
100
AcDbEntity
 8
Layer8
100
AcDbLine
 39
0.25
 370
106
 10
117.2365
 20
95.9931943847656
 30
0.0
 11
117.4765
 21
96.2371943847656
 31
0.0
 0
LINE
 5
DD
100
AcDbEntity
 8
Layer8
100
AcDbLine
 39
0.25
 370
106
 10
117.4765
 20
96.2371943847656
 30
0.0
 11
117.4765
 21
97.3171943847656
 31
0.0
 0
CIRCLE
 5
DE
100
AcDbEntity
 8
Layer8
100
AcDbCircle
 39
0.25
 370
106
 10
78.204
 20
96.7434943847657
 30
0.0
 40
19.6445
 370
106
 0
CIRCLE
 5
DF
100
AcDbEntity
 8
Layer8
100
AcDbCircle
 39
0.25
 370
106
 10
78.203
 20
96.7445943847656
 30
0.0
 40
23.95575
 370
106
 0
HATCH
 5
E0
100
AcDbEntity
 8
Layer22
100
AcDbHatch
 10
 0.0
 20
 0.0
 30
 0.0
 210
 0.0
 220
 0.0
 230
 1.0
 2
SOLID
 70
 1
 71
 1
 91
1              
 92
 0
 93
42             
 72
 1
 10
27.683
 20
12.6933943847656
 11
31.721
 21
12.6933943847656
 72
 1
 10
31.721
 20
12.6933943847656
 11
31.6
 21
21.5743943847656
 72
 1
 10
31.6
 20
21.5743943847656
 11
31.588888671875
 21
22.2561854003906
 72
 1
 10
31.588888671875
 20
22.2561854003906
 11
31.576359375
 21
22.9880975097656
 72
 1
 10
31.576359375
 20
22.9880975097656
 11
31.560994140625
 21
23.7529393066407
 72
 1
 10
31.560994140625
 20
23.7529393066407
 11
31.541375
 21
24.5335193847656
 72
 1
 10
31.541375
 20
24.5335193847656
 11
31.516083984375
 21
25.3126463378906
 72
 1
 10
31.516083984375
 20
25.3126463378906
 11
31.483703125
 21
26.0731287597657
 72
 1
 10
31.483703125
 20
26.0731287597657
 11
31.442814453125
 21
26.7977752441407
 72
 1
 10
31.442814453125
 20
26.7977752441407
 11
31.392
 21
27.4693943847656
 72
 1
 10
31.392
 20
27.4693943847656
 11
31.5778359375
 21
26.9135604003906
 72
 1
 10
31.5778359375
 20
26.9135604003906
 11
31.8354375
 21
26.2267225097656
 72
 1
 10
31.8354375
 20
26.2267225097656
 11
32.1525703125
 21
25.4320018066406
 72
 1
 10
32.1525703125
 20
25.4320018066406
 11
32.517
 21
24.5525193847656
 72
 1
 10
32.517
 20
24.5525193847656
 11
32.9164921875
 21
23.6113963378907
 72
 1
 10
32.9164921875
 20
23.6113963378907
 11
33.3388125
 21
22.6317537597656
 72
 1
 10
33.3388125
 20
22.6317537597656
 11
33.7717265625
 21
21.6367127441406
 72
 1
 10
33.7717265625
 20
21.6367127441406
 11
34.203
 21
20.6493943847656
 72
 1
 10
34.203
 20
20.6493943847656
 11
37.763
 21
12.6933943847656
 72
 1
 10
37.763
 20
12.6933943847656
 11
42.129
 21
12.6933943847656
 72
 1
 10
42.129
 20
12.6933943847656
 11
42.129
 21
33.4793943847656
 72
 1
 10
42.129
 20
33.4793943847656
 11
38.151
 21
33.4793943847656
 72
 1
 10
38.151
 20
33.4793943847656
 11
38.241
 21
24.9853943847656
 72
 1
 10
38.241
 20
24.9853943847656
 11
38.257349609375
 21
24.3941111816406
 72
 1
 10
38.257349609375
 20
24.3941111816406
 11
38.283671875
 21
23.7143162597656
 72
 1
 10
38.283671875
 20
23.7143162597656
 11
38.318501953125
 21
22.9727166503907
 72
 1
 10
38.318501953125
 20
22.9727166503907
 11
38.360375
 21
22.1960193847656
 72
 1
 10
38.360375
 20
22.1960193847656
 11
38.407826171875
 21
21.4109314941406
 72
 1
 10
38.407826171875
 20
21.4109314941406
 11
38.459390625
 21
20.6441600097656
 72
 1
 10
38.459390625
 20
20.6441600097656
 11
38.513603515625
 21
19.9224119628906
 72
 1
 10
38.513603515625
 20
19.9224119628906
 11
38.569
 21
19.2723943847656
 72
 1
 10
38.569
 20
19.2723943847656
 11
38.3943046875
 21
19.8640311035156
 72
 1
 10
38.3943046875
 20
19.8640311035156
 11
38.184875
 21
20.5125506347657
 72
 1
 10
38.184875
 20
20.5125506347657
 11
37.9424453125
 21
21.2102420410156
 72
 1
 10
37.9424453125
 20
21.2102420410156
 11
37.66875
 21
21.9493943847656
 72
 1
 10
37.66875
 20
21.9493943847656
 11
37.3655234375
 21
22.7222967285156
 72
 1
 10
37.3655234375
 20
22.7222967285156
 11
37.0345
 21
23.5212381347657
 72
 1
 10
37.0345
 20
23.5212381347657
 11
36.6774140625
 21
24.3385076660156
 72
 1
 10
36.6774140625
 20
24.3385076660156
 11
36.296
 21
25.1663943847656
 72
 1
 10
36.296
 20
25.1663943847656
 11
32.32
 21
33.4793943847656
 72
 1
 10
32.32
 20
33.4793943847656
 11
27.683
 21
33.4793943847656
 72
 1
 10
27.683
 20
33.4793943847656
 11
27.683
 21
12.6933943847656
 97
 1
 330
E1
 75
 0
 76
 1
 98
 1
 10
 0.0
 20
 0.0
 0
HATCH
 5
E2
100
AcDbEntity
 8
Layer22
100
AcDbHatch
 10
 0.0
 20
 0.0
 30
 0.0
 210
 0.0
 220
 0.0
 230
 1.0
 2
SOLID
 70
 1
 71
 1
 91
1              
 92
 0
 93
12             
 72
 1
 10
44.6372
 20
33.4797943847656
 11
44.6372
 21
12.6937943847656
 72
 1
 10
44.6372
 20
12.6937943847656
 11
56.7512
 21
12.6937943847656
 72
 1
 10
56.7512
 20
12.6937943847656
 11
56.7512
 21
16.2827943847656
 72
 1
 10
56.7512
 20
16.2827943847656
 11
48.8862
 21
16.2827943847656
 72
 1
 10
48.8862
 20
16.2827943847656
 11
48.8862
 21
21.8447943847656
 72
 1
 10
48.8862
 20
21.8447943847656
 11
54.7762
 21
21.8447943847656
 72
 1
 10
54.7762
 20
21.8447943847656
 11
54.7762
 21
25.2557943847656
 72
 1
 10
54.7762
 20
25.2557943847656
 11
48.8242
 21
25.2557943847656
 72
 1
 10
48.8242
 20
25.2557943847656
 11
48.8242
 21
30.0697943847656
 72
 1
 10
48.8242
 20
30.0697943847656
 11
55.9422
 21
30.0697943847656
 72
 1
 10
55.9422
 20
30.0697943847656
 11
56.4812
 21
33.4797943847656
 72
 1
 10
56.4812
 20
33.4797943847656
 11
44.6372
 21
33.4797943847656
 97
 1
 330
E3
 75
 0
 76
 1
 98
 1
 10
 0.0
 20
 0.0
 0
HATCH
 5
E4
100
AcDbEntity
 8
Layer22
100
AcDbHatch
 10
 0.0
 20
 0.0
 30
 0.0
 210
 0.0
 220
 0.0
 230
 1.0
 2
SOLID
 70
 1
 71
 1
 91
1              
 92
 0
 93
49             
 72
 1
 10
58.3046
 20
12.6933943847656
 11
62.5216
 21
12.6933943847656
 72
 1
 10
62.5216
 20
12.6933943847656
 11
63.2386
 21
23.5503943847656
 72
 1
 10
63.2386
 20
23.5503943847656
 11
63.270598046875
 21
24.0270877441407
 72
 1
 10
63.270598046875
 20
24.0270877441407
 11
63.299584375
 21
24.4948162597656
 72
 1
 10
63.299584375
 20
24.4948162597656
 11
63.325172265625
 21
24.9556775878906
 72
 1
 10
63.325172265625
 20
24.9556775878906
 11
63.346975
 21
25.4117693847656
 72
 1
 10
63.346975
 20
25.4117693847656
 11
63.364605859375
 21
25.8651893066407
 72
 1
 10
63.364605859375
 20
25.8651893066407
 11
63.377678125
 21
26.3180350097656
 72
 1
 10
63.377678125
 20
26.3180350097656
 11
63.385805078125
 21
26.7724041503907
 72
 1
 10
63.385805078125
 20
26.7724041503907
 11
63.3886
 21
27.2303943847656
 72
 1
 10
63.3886
 20
27.2303943847656
 11
67.1876
 21
12.6933943847656
 72
 1
 10
67.1876
 20
12.6933943847656
 11
70.8666
 21
12.6933943847656
 72
 1
 10
70.8666
 20
12.6933943847656
 11
72.120703515625
 21
17.0593650878907
 72
 1
 10
72.120703515625
 20
17.0593650878907
 11
73.066053125
 21
20.3549100097657
 72
 1
 10
73.066053125
 20
20.3549100097657
 11
73.749957421875
 21
22.7489783691407
 72
 1
 10
73.749957421875
 20
22.7489783691407
 11
74.219725
 21
24.4105193847657
 72
 1
 10
74.219725
 20
24.4105193847657
 11
74.522664453125
 21
25.5084822753906
 72
 1
 10
74.522664453125
 20
25.5084822753906
 11
74.706084375
 21
26.2118162597657
 72
 1
 10
74.706084375
 20
26.2118162597657
 11
74.817293359375
 21
26.6894705566406
 72
 1
 10
74.817293359375
 20
26.6894705566406
 11
74.9036
 21
27.1103943847656
 72
 1
 10
74.9036
 20
27.1103943847656
 11
74.94472109375
 21
26.1727967285156
 72
 1
 10
74.94472109375
 20
26.1727967285156
 11
75.05313125
 21
24.3903006347656
 72
 1
 10
75.05313125
 20
24.3903006347656
 11
75.20640078125
 21
22.0618514160157
 72
 1
 10
75.20640078125
 20
22.0618514160157
 11
75.3821
 21
19.4863943847656
 72
 1
 10
75.3821
 20
19.4863943847656
 11
75.55779921875
 21
16.9628748535156
 72
 1
 10
75.55779921875
 20
16.9628748535156
 11
75.71106875
 21
14.7902381347656
 72
 1
 10
75.71106875
 20
14.7902381347656
 11
75.81947890625
 21
13.2674295410156
 72
 1
 10
75.81947890625
 20
13.2674295410156
 11
75.8606
 21
12.6933943847656
 72
 1
 10
75.8606
 20
12.6933943847656
 11
79.9886
 21
12.6933943847656
 72
 1
 10
79.9886
 20
12.6933943847656
 11
78.1346
 21
33.4793943847656
 72
 1
 10
78.1346
 20
33.4793943847656
 11
72.6606
 21
33.4793943847656
 72
 1
 10
72.6606
 20
33.4793943847656
 11
71.554762109375
 21
29.3506521972656
 72
 1
 10
71.554762109375
 20
29.3506521972656
 11
70.721209375
 21
26.2348318847656
 72
 1
 10
70.721209375
 20
26.2348318847656
 11
70.118258203125
 21
23.9727928222656
 72
 1
 10
70.118258203125
 20
23.9727928222656
 11
69.704225
 21
22.4053943847657
 72
 1
 10
69.704225
 20
22.4053943847657
 11
69.437426171875
 21
21.3734959472656
 72
 1
 10
69.437426171875
 20
21.3734959472656
 11
69.276178125
 21
20.7179568847656
 72
 1
 10
69.276178125
 20
20.7179568847656
 11
69.178797265625
 21
20.2796365722656
 72
 1
 10
69.178797265625
 20
20.2796365722656
 11
69.1036
 21
19.8993943847656
 72
 1
 10
69.1036
 20
19.8993943847656
 11
68.903734765625
 21
20.7924139160156
 72
 1
 10
68.903734765625
 20
20.7924139160156
 11
68.489428125
 21
22.4760506347656
 72
 1
 10
68.489428125
 20
22.4760506347656
 11
67.934988671875
 21
24.6699217285156
 72
 1
 10
67.934988671875
 20
24.6699217285156
 11
67.314725
 21
27.0936443847656
 72
 1
 10
67.314725
 20
27.0936443847656
 11
66.702945703125
 21
29.4668357910156
 72
 1
 10
66.702945703125
 20
29.4668357910156
 11
66.173959375
 21
31.5091131347656
 72
 1
 10
66.173959375
 20
31.5091131347656
 11
65.802074609375
 21
32.9400936035157
 72
 1
 10
65.802074609375
 20
32.9400936035157
 11
65.6616
 21
33.4793943847656
 72
 1
 10
65.6616
 20
33.4793943847656
 11
60.2496
 21
33.4793943847656
 72
 1
 10
60.2496
 20
33.4793943847656
 11
58.3046
 21
12.6933943847656
 97
 1
 330
E5
 75
 0
 76
 1
 98
 1
 10
 0.0
 20
 0.0
 0
HATCH
 5
E6
100
AcDbEntity
 8
Layer22
100
AcDbHatch
 10
 0.0
 20
 0.0
 30
 0.0
 210
 0.0
 220
 0.0
 230
 1.0
 2
SOLID
 70
 1
 71
 1
 91
2              
 92
 0
 93
56             
 72
 1
 10
93.8775
 20
27.8876943847656
 11
94.003072265625
 21
27.4327764160156
 72
 1
 10
94.003072265625
 20
27.4327764160156
 11
94.112015625
 21
26.9414131347656
 72
 1
 10
94.112015625
 20
26.9414131347656
 11
94.204294921875
 21
26.4108154785156
 72
 1
 10
94.204294921875
 20
26.4108154785156
 11
94.279875
 21
25.8381943847656
 72
 1
 10
94.279875
 20
25.8381943847656
 11
94.338720703125
 21
25.2207607910156
 72
 1
 10
94.338720703125
 20
25.2207607910156
 11
94.380796875
 21
24.5557256347656
 72
 1
 10
94.380796875
 20
24.5557256347656
 11
94.406068359375
 21
23.8402998535157
 72
 1
 10
94.406068359375
 20
23.8402998535157
 11
94.4145
 21
23.0716943847656
 72
 1
 10
94.4145
 20
23.0716943847656
 11
94.356197265625
 21
21.2297881347656
 72
 1
 10
94.356197265625
 20
21.2297881347656
 11
94.177765625
 21
19.6663193847656
 72
 1
 10
94.177765625
 20
19.6663193847656
 11
93.873919921875
 21
18.3711631347656
 72
 1
 10
93.873919921875
 20
18.3711631347656
 11
93.439375
 21
17.3341943847656
 72
 1
 10
93.439375
 20
17.3341943847656
 11
92.868845703125
 21
16.5452881347656
 72
 1
 10
92.868845703125
 20
16.5452881347656
 11
92.157046875
 21
15.9943193847656
 72
 1
 10
92.157046875
 20
15.9943193847656
 11
91.298693359375
 21
15.6711631347656
 72
 1
 10
91.298693359375
 20
15.6711631347656
 11
90.2885
 21
15.5656943847656
 72
 1
 10
90.2885
 20
15.5656943847656
 11
89.92513671875
 21
15.5768584472656
 72
 1
 10
89.92513671875
 20
15.5768584472656
 11
89.57628125
 21
15.6103818847656
 72
 1
 10
89.57628125
 20
15.6103818847656
 11
89.24228515625
 21
15.6663115722656
 72
 1
 10
89.24228515625
 20
15.6663115722656
 11
88.9235
 21
15.7446943847656
 72
 1
 10
88.9235
 20
15.7446943847656
 11
88.62027734375
 21
15.8455771972656
 72
 1
 10
88.62027734375
 20
15.8455771972656
 11
88.33296875
 21
15.9690068847656
 72
 1
 10
88.33296875
 20
15.9690068847656
 11
88.06192578125
 21
16.1150303222656
 72
 1
 10
88.06192578125
 20
16.1150303222656
 11
87.8075
 21
16.2836943847656
 72
 1
 10
87.8075
 20
16.2836943847656
 11
87.374849609375
 21
16.6911611816406
 72
 1
 10
87.374849609375
 20
16.6911611816406
 11
86.998859375
 21
17.2204912597656
 72
 1
 10
86.998859375
 20
17.2204912597656
 11
86.679845703125
 21
17.8727041503906
 72
 1
 10
86.679845703125
 20
17.8727041503906
 11
86.418125
 21
18.6488193847656
 72
 1
 10
86.418125
 20
18.6488193847656
 11
86.214013671875
 21
19.5498564941406
 72
 1
 10
86.214013671875
 20
19.5498564941406
 11
86.067828125
 21
20.5768350097656
 72
 1
 10
86.067828125
 20
20.5768350097656
 11
85.979884765625
 21
21.7307744628906
 72
 1
 10
85.979884765625
 20
21.7307744628906
 11
85.9505
 21
23.0126943847656
 72
 1
 10
85.9505
 20
23.0126943847656
 11
85.9660390625
 21
23.9228135253906
 72
 1
 10
85.9660390625
 20
23.9228135253906
 11
86.013125
 21
24.7708350097656
 72
 1
 10
86.013125
 20
24.7708350097656
 11
86.0924609375
 21
25.5592549316406
 72
 1
 10
86.0924609375
 20
25.5592549316406
 11
86.20475
 21
26.2905693847656
 72
 1
 10
86.20475
 20
26.2905693847656
 11
86.3506953125
 21
26.9672744628906
 72
 1
 10
86.3506953125
 20
26.9672744628906
 11
86.531
 21
27.5918662597656
 72
 1
 10
86.531
 20
27.5918662597656
 11
86.7463671875
 21
28.1668408691406
 72
 1
 10
86.7463671875
 20
28.1668408691406
 11
86.9975
 21
28.6946943847656
 72
 1
 10
86.9975
 20
28.6946943847656
 11
87.24202734375
 21
29.0906123535156
 72
 1
 10
87.24202734375
 20
29.0906123535156
 11
87.54465625
 21
29.4462881347656
 72
 1
 10
87.54465625
 20
29.4462881347656
 11
87.89908203125
 21
29.7578545410156
 72
 1
 10
87.89908203125
 20
29.7578545410156
 11
88.299
 21
30.0214443847656
 72
 1
 10
88.299
 20
30.0214443847656
 11
88.73810546875
 21
30.2331904785156
 72
 1
 10
88.73810546875
 20
30.2331904785156
 11
89.21009375
 21
30.3892256347656
 72
 1
 10
89.21009375
 20
30.3892256347656
 11
89.70866015625
 21
30.4856826660156
 72
 1
 10
89.70866015625
 20
30.4856826660156
 11
90.2275
 21
30.5186943847656
 72
 1
 10
90.2275
 20
30.5186943847656
 11
91.006830078125
 21
30.4486279785157
 72
 1
 10
91.006830078125
 20
30.4486279785157
 11
91.686140625
 21
30.2549756347656
 72
 1
 10
91.686140625
 20
30.2549756347656
 11
92.269287109375
 21
29.9625576660156
 72
 1
 10
92.269287109375
 20
29.9625576660156
 11
92.760125
 21
29.5961943847656
 72
 1
 10
92.760125
 20
29.5961943847656
 11
93.162509765625
 21
29.1807061035156
 72
 1
 10
93.162509765625
 20
29.1807061035156
 11
93.480296875
 21
28.7409131347656
 72
 1
 10
93.480296875
 20
28.7409131347656
 11
93.717341796875
 21
28.3016357910155
 72
 1
 10
93.717341796875
 20
28.3016357910155
 11
93.8775
 21
27.8876943847656
 97
 1
 330
E7
 92
 0
 93
56             
 72
 1
 10
85.9815
 20
32.7326943847656
 11
84.928970703125
 21
32.0273135253906
 72
 1
 10
84.928970703125
 20
32.0273135253906
 11
83.997578125
 21
31.1516475097656
 72
 1
 10
83.997578125
 20
31.1516475097656
 11
83.193240234375
 21
30.1180361816405
 72
 1
 10
83.193240234375
 20
30.1180361816405
 11
82.521875
 21
28.9388193847656
 72
 1
 10
82.521875
 20
28.9388193847656
 11
81.989400390625
 21
27.6263369628907
 72
 1
 10
81.989400390625
 20
27.6263369628907
 11
81.601734375
 21
26.1929287597656
 72
 1
 10
81.601734375
 20
26.1929287597656
 11
81.364794921875
 21
24.6509346191406
 72
 1
 10
81.364794921875
 20
24.6509346191406
 11
81.2845
 21
23.0126943847656
 72
 1
 10
81.2845
 20
23.0126943847656
 11
81.322314453125
 21
21.8883525878906
 72
 1
 10
81.322314453125
 20
21.8883525878906
 11
81.435515625
 21
20.8056475097657
 72
 1
 10
81.435515625
 20
20.8056475097657
 11
81.623740234375
 21
19.7665596191407
 72
 1
 10
81.623740234375
 20
19.7665596191407
 11
81.886625
 21
18.7730693847656
 72
 1
 10
81.886625
 20
18.7730693847656
 11
82.223806640625
 21
17.8271572753907
 72
 1
 10
82.223806640625
 20
17.8271572753907
 11
82.634921875
 21
16.9308037597656
 72
 1
 10
82.634921875
 20
16.9308037597656
 11
83.119607421875
 21
16.0859893066406
 72
 1
 10
83.119607421875
 20
16.0859893066406
 11
83.6775
 21
15.2946943847656
 72
 1
 10
83.6775
 20
15.2946943847656
 11
84.294248046875
 21
14.5767334472657
 72
 1
 10
84.294248046875
 20
14.5767334472657
 11
84.960859375
 21
13.9668193847657
 72
 1
 10
84.960859375
 20
13.9668193847657
 11
85.685009765625
 21
13.4611553222656
 72
 1
 10
85.685009765625
 20
13.4611553222656
 11
86.474375
 21
13.0559443847656
 72
 1
 10
86.474375
 20
13.0559443847656
 11
87.336630859375
 21
12.7473896972657
 72
 1
 10
87.336630859375
 20
12.7473896972657
 11
88.279453125
 21
12.5316943847657
 72
 1
 10
88.279453125
 20
12.5316943847657
 11
89.310517578125
 21
12.4050615722656
 72
 1
 10
89.310517578125
 20
12.4050615722656
 11
90.4375
 21
12.3636943847656
 72
 1
 10
90.4375
 20
12.3636943847656
 11
91.062736328125
 21
12.3766846191406
 72
 1
 10
91.062736328125
 20
12.3766846191406
 11
91.642328125
 21
12.4168037597656
 72
 1
 10
91.642328125
 20
12.4168037597656
 11
92.183974609375
 21
12.4857744628906
 72
 1
 10
92.183974609375
 20
12.4857744628906
 11
92.695375
 21
12.5853193847656
 72
 1
 10
92.695375
 20
12.5853193847656
 11
93.184228515625
 21
12.7171611816406
 72
 1
 10
93.184228515625
 20
12.7171611816406
 11
93.658234375
 21
12.8830225097657
 72
 1
 10
93.658234375
 20
12.8830225097657
 11
94.125091796875
 21
13.0846260253906
 72
 1
 10
94.125091796875
 20
13.0846260253906
 11
94.5925
 21
13.3236943847656
 72
 1
 10
94.5925
 20
13.3236943847656
 11
95.65148046875
 21
14.0351455566406
 72
 1
 10
95.65148046875
 20
14.0351455566406
 11
96.58059375
 21
14.9105537597657
 72
 1
 10
96.58059375
 20
14.9105537597657
 11
97.37634765625
 21
15.9425010253906
 72
 1
 10
97.37634765625
 20
15.9425010253906
 11
98.03525
 21
17.1235693847656
 72
 1
 10
98.03525
 20
17.1235693847656
 11
98.55380859375
 21
18.4463408691407
 72
 1
 10
98.55380859375
 20
18.4463408691407
 11
98.92853125
 21
19.9033975097657
 72
 1
 10
98.92853125
 20
19.9033975097657
 11
99.15592578125
 21
21.4873213378906
 72
 1
 10
99.15592578125
 20
21.4873213378906
 11
99.2325
 21
23.1906943847656
 72
 1
 10
99.2325
 20
23.1906943847656
 11
99.0750859375
 21
25.5166416503906
 72
 1
 10
99.0750859375
 20
25.5166416503906
 11
98.6129375
 21
27.5915850097656
 72
 1
 10
98.6129375
 20
27.5915850097656
 11
97.8611953125
 21
29.3973018066405
 72
 1
 10
97.8611953125
 20
29.3973018066405
 11
96.835
 21
30.9155693847657
 72
 1
 10
96.835
 20
30.9155693847657
 11
95.5494921875
 21
32.1281650878906
 72
 1
 10
95.5494921875
 20
32.1281650878906
 11
94.0198125
 21
33.0168662597656
 72
 1
 10
94.0198125
 20
33.0168662597656
 11
92.2611015625
 21
33.5634502441407
 72
 1
 10
92.2611015625
 20
33.5634502441407
 11
90.2885
 21
33.7496943847656
 72
 1
 10
90.2885
 20
33.7496943847656
 11
89.706935546875
 21
33.7329834472657
 72
 1
 10
89.706935546875
 20
33.7329834472657
 11
89.131359375
 21
33.6833193847656
 72
 1
 10
89.131359375
 20
33.6833193847656
 11
88.564947265625
 21
33.6014053222656
 72
 1
 10
88.564947265625
 20
33.6014053222656
 11
88.010875
 21
33.4879443847656
 72
 1
 10
88.010875
 20
33.4879443847656
 11
87.472318359375
 21
33.3436396972656
 72
 1
 10
87.472318359375
 20
33.3436396972656
 11
86.952453125
 21
33.1691943847657
 72
 1
 10
86.952453125
 20
33.1691943847657
 11
86.454455078125
 21
32.9653115722657
 72
 1
 10
86.454455078125
 20
32.9653115722657
 11
85.9815
 21
32.7326943847656
 97
 1
 330
E8
 75
 0
 76
 1
 98
 1
 10
 0.0
 20
 0.0
 0
LINE
 5
E9
100
AcDbEntity
 8
Layer8
100
AcDbLine
 39
0.25
 370
106
 10
96.0917
 20
97.5613943847656
 30
0.0
 11
95.8507
 21
97.3173943847656
 31
0.0
 0
LINE
 5
EA
100
AcDbEntity
 8
Layer8
100
AcDbLine
 39
0.25
 370
106
 10
95.8507
 20
97.3173943847656
 30
0.0
 11
95.8507
 21
96.2373943847656
 31
0.0
 0
LINE
 5
EB
100
AcDbEntity
 8
Layer8
100
AcDbLine
 39
0.25
 370
106
 10
95.8507
 20
96.2373943847656
 30
0.0
 11
95.997090625
 21
96.0126756347656
 31
0.0
 0
LINE
 5
EC
100
AcDbEntity
 8
Layer8
100
AcDbLine
 39
0.25
 370
106
 10
95.997090625
 20
96.0126756347656
 30
0.0
 11
103.5077
 21
95.9933943847656
 31
0.0
 0
LINE
 5
ED
100
AcDbEntity
 8
Layer8
100
AcDbLine
 39
0.25
 370
106
 10
103.5077
 20
95.9933943847656
 30
0.0
 11
103.5077
 21
97.5613943847656
 31
0.0
 0
LINE
 5
EE
100
AcDbEntity
 8
Layer8
100
AcDbLine
 39
0.25
 370
106
 10
103.5077
 20
97.5613943847656
 30
0.0
 11
96.0917
 21
97.5613943847656
 31
0.0
 0
TEXT
 5
EF
100
AcDbEntity
 8
Layer8
100
AcDbText
 40
9.6
 41
0.61000
 72
0
 50
-270
  1
135
  7
STANDARD
 10
40.7373
 20
281.476494384766
 30
0.0
 11
40.7373
 21
281.476494384766
 31
0.0
100
AcDbText
 73
  1
 0
TEXT
 5
F0
100
AcDbEntity
 8
Layer8
100
AcDbText
 40
9.6
 41
0.61000
 72
0
 50
0
  1
27
  7
STANDARD
 10
70.4619
 20
431.226494384766
 30
0.0
 11
70.4619
 21
431.226494384766
 31
0.0
100
AcDbText
 73
  1
 0
TEXT
 5
F1
100
AcDbEntity
 8
Layer8
100
AcDbText
 40
9.6
 41
0.61000
 72
0
 50
0
  1
30fl
  7
STANDARD
 10
99.0939
 20
333.453405484766
 30
0.0
 11
99.0939
 21
333.453405484766
 31
0.0
100
AcDbText
 73
  1
 0
TEXT
 5
F2
100
AcDbEntity
 8
Layer8
100
AcDbText
 40
9.6
 41
0.61000
 72
0
 50
0
  1
90fl
  7
STANDARD
 10
132.2402
 20
375.439394384766
 30
0.0
 11
132.2402
 21
375.439394384766
 31
0.0
100
AcDbText
 73
  1
 0
TEXT
 5
F3
100
AcDbEntity
 8
Layer8
100
AcDbText
 40
9.6
 41
0.61000
 72
0
 50
0
  1
45fl
  7
STANDARD
 10
115.3202
 20
411.225971584766
 30
0.0
 11
115.3202
 21
411.225971584766
 31
0.0
100
AcDbText
 73
  1
 0
TEXT
 5
F4
100
AcDbEntity
 8
Layer8
100
AcDbText
 40
8
 41
0.61000
 72
0
 50
-270
  1
25
  7
STANDARD
 10
37.3447
 20
89.8465943847656
 30
0.0
 11
37.3447
 21
89.8465943847656
 31
0.0
100
AcDbText
 73
  1
  0
ENDSEC
  0
SECTION
  2
OBJECTS
  0
DICTIONARY
  5
19
100
AcDbDictionary
  3
ACAD_GROUP
350
1A
  3
ACAD_MLINESTYLE
350
1B
  0
DICTIONARY
  5
1A
102
{ACAD_REACTORS
330
19
102
}
100
AcDbDictionary
  0
DICTIONARY
  5
1B
102
{ACAD_REACTORS
330
19
102
}
100
AcDbDictionary
  3
STANDARD
350
1C
  0
MLINESTYLE
  5
1C
102
{ACAD_REACTORS
330
1B
102
}
100
AcDbMlineStyle
  2
STANDARD
 70
     0
  3

 62
     0
 51
90.0
 52
90.0
 71
     2
 49
0.5
 62
   256
  6
BYLAYER
 49
-0.5
 62
   256
  6
BYLAYER
  0
ENDSEC
  0
EOF
