 999
SCAN2CAD Date : 01/26/16
 999
SCAN2CAD ScalePixelX : 1
 999
SCAN2CAD ScalePixelY : 1
 999
SCAN2CAD TileXOffset : 0
 999
SCAN2CAD TileYOffset : 0
 999
SCAN2CAD MeasureType : 1
 999
SCAN2CAD DotsPerInch : 0
 999
SCAN2CAD GeScalePixX : 1
 999
SCAN2CAD GeScalePixY : 1
 999
SCAN2CAD GeRasTiePtX : 0
 999
SCAN2CAD GeRasTiePtY : 0
 999
SCAN2CAD ScalRasDist : 1
 999
SCAN2CAD ScalVecDist : 1
 999
SCAN2CAD ScalUnitTyp : 0
 999
SCAN2CAD ScalDistFac : 1
 999
SCAN2CAD ScalAdjustX : 1
 999
SCAN2CAD ScalAdjustY : 1
 999
SCAN2CAD MeasureMeth : 1
 999
SCAN2CAD OgDrawScale : 1
 999
SCAN2CAD OgDrawUType : 0
 999
SCAN2CAD ToDrawScale : 1
 999
SCAN2CAD ToDrawUType : 0
  0
SECTION
  2
HEADER
  9
$ACADVER
  1
AC1014
  9
$ACADMAINTVER
 70
     0
  9
$DWGCODEPAGE
  3
ANSI_1252
  9
$INSBASE
 10
0.0
 20
0.0
 30
0.0
 9
$EXTMIN
 10
25.7733999999982
 20
17.2577112304688
 30
0.0
 9
$EXTMAX
 10
142.5156
 20
267.227211230469
 30
0.0
 9
$LIMMIN
 10
0
 20
0
 9
$LIMMAX
 10
169
 20
294
  9
$ORTHOMODE
 70
     0
  9
$REGENMODE
 70
     1
  9
$FILLMODE
 70
     1
  9
$QTEXTMODE
 70
     0
  9
$MIRRTEXT
 70
     1
  9
$DRAGMODE
 70
     2
  9
$LTSCALE
 40
1.0
  9
$OSMODE
 70
     0
  9
$ATTMODE
 70
     1
  9
$TEXTSIZE
 40
0.2
  9
$TRACEWID
 40
0.05
  9
$TEXTSTYLE
  7
STANDARD
  9
$CLAYER
  8
0
  9
$CELTYPE
  6
CONTINUOUS
  9
$CECOLOR
 62
   256
  9
$CELTSCALE
 40
1.0
  9
$DELOBJ
 70
     1
  9
$DISPSILH
 70
     0
  9
$DIMSCALE
 40
1.0
  9
$DIMASZ
 40
0.18
  9
$DIMEXO
 40
0.0625
  9
$DIMDLI
 40
0.38
  9
$DIMRND
 40
0.0
  9
$DIMDLE
 40
0.0
  9
$DIMEXE
 40
0.18
  9
$DIMTP
 40
0.0
  9
$DIMTM
 40
0.0
  9
$DIMTXT
 40
0.18
  9
$DIMCEN
 40
0.09
  9
$DIMTSZ
 40
0.0
  9
$DIMTOL
 70
     0
  9
$DIMLIM
 70
     0
  9
$DIMTIH
 70
     1
  9
$DIMTOH
 70
     1
  9
$DIMSE1
 70
     0
  9
$DIMSE2
 70
     0
  9
$DIMTAD
 70
     0
  9
$DIMZIN
 70
     0
  9
$DIMBLK
  1

  9
$DIMASO
 70
     1
  9
$DIMSHO
 70
     1
  9
$DIMPOST
  1

  9
$DIMAPOST
  1

  9
$DIMALT
 70
     0
  9
$DIMALTD
 70
     2
  9
$DIMALTF
 40
25.4
  9
$DIMLFAC
 40
1.0
  9
$DIMTOFL
 70
     0
  9
$DIMTVP
 40
0.0
  9
$DIMTIX
 70
     0
  9
$DIMSOXD
 70
     0
  9
$DIMSAH
 70
     0
  9
$DIMBLK1
  1

  9
$DIMBLK2
  1

  9
$DIMSTYLE
  2
STANDARD
  9
$DIMCLRD
 70
     0
  9
$DIMCLRE
 70
     0
  9
$DIMCLRT
 70
     0
  9
$DIMTFAC
 40
1.0
  9
$DIMGAP
 40
0.09
  9
$DIMJUST
 70
     0
  9
$DIMSD1
 70
     0
  9
$DIMSD2
 70
     0
  9
$DIMTOLJ
 70
     1
  9
$DIMTZIN
 70
     0
  9
$DIMALTZ
 70
     0
  9
$DIMALTTZ
 70
     0
  9
$DIMFIT
 70
     3
  9
$DIMUPT
 70
     0
  9
$DIMUNIT
 70
     2
  9
$DIMDEC
 70
     4
  9
$DIMTDEC
 70
     4
  9
$DIMALTU
 70
     2
  9
$DIMALTTD
 70
     2
  9
$DIMTXSTY
  7
STANDARD
  9
$DIMAUNIT
 70
     0
  9
$LUNITS
 70
     2
  9
$LUPREC
 70
     4
  9
$SKETCHINC
 40
0.1
  9
$FILLETRAD
 40
0.0
  9
$AUNITS
 70
     0
  9
$AUPREC
 70
     0
  9
$MENU
  1
acad
  9
$ELEVATION
 40
0.0
  9
$PELEVATION
 40
0.0
  9
$THICKNESS
 40
0.0
  9
$LIMCHECK
 70
     0
  9
$BLIPMODE
 70
     1
  9
$CHAMFERA
 40
0.0
  9
$CHAMFERB
 40
0.0
  9
$CHAMFERC
 40
0.0
  9
$CHAMFERD
 40
0.0
  9
$SKPOLY
 70
     0
  9
$TDCREATE
 40
0.000000000
  9
$TDUPDATE
 40
0.000000000
  9
$TDINDWG
 40
0.0000000000
  9
$TDUSRTIMER
 40
0.0000000000
  9
$USRTIMER
 70
     1
  9
$ANGBASE
 50
0.0
  9
$ANGDIR
 70
     0
  9
$PDMODE
 70
     0
  9
$PDSIZE
 40
0.0
  9
$PLINEWID
 40
0.0
  9
$COORDS
 70
     0
  9
$SPLFRAME
 70
     0
  9
$SPLINETYPE
 70
     6
  9
$SPLINESEGS
 70
     8
  9
$ATTDIA
 70
     0
  9
$ATTREQ
 70
     1
  9
$HANDLING
 70
     1
  9
$HANDSEED
  5
      E2
  9
$SURFTAB1
 70
     6
  9
$SURFTAB2
 70
     6
  9
$SURFTYPE
 70
     6
  9
$SURFU
 70
     6
  9
$SURFV
 70
     6
  9
$UCSNAME
  2

  9
$UCSORG
 10
0.0
 20
0.0
 30
0.0
  9
$UCSXDIR
 10
1.0
 20
0.0
 30
0.0
  9
$UCSYDIR
 10
0.0
 20
1.0
 30
0.0
  9
$PUCSNAME
  2

  9
$PUCSORG
 10
0.0
 20
0.0
 30
0.0
  9
$PUCSXDIR
 10
1.0
 20
0.0
 30
0.0
  9
$PUCSYDIR
 10
0.0
 20
1.0
 30
0.0
  9
$USERI1
 70
     0
  9
$USERI2
 70
     0
  9
$USERI3
 70
     0
  9
$USERI4
 70
     0
  9
$USERI5
 70
     0
  9
$USERR1
 40
0.0
  9
$USERR2
 40
0.0
  9
$USERR3
 40
0.0
  9
$USERR4
 40
0.0
  9
$USERR5
 40
0.0
  9
$WORLDVIEW
 70
     1
  9
$SHADEDGE
 70
     3
  9
$SHADEDIF
 70
    70
  9
$TILEMODE
 70
     1
  9
$MAXACTVP
 70
    16
  9
$PINSBASE
 10
0.0
 20
0.0
 30
0.0
  9
$PLIMCHECK
 70
     0
 9
$PEXTMIN
 10
25.7733999999982
 20
17.2577112304688
 30
0.0
 9
$PEXTMAX
 10
142.5156
 20
267.227211230469
 30
0.0
 9
$PLIMMIN
 10
0
 20
0
 9
$PLIMMAX
 10
169
 20
294
  9
$UNITMODE
 70
     0
  9
$VISRETAIN
 70
     0
  9
$PLINEGEN
 70
     1
  9
$PSLTSCALE
 70
     0
  9
$TREEDEPTH
 70
  3020
  9
$PICKSTYLE
 70
     1
  9
$CMLSTYLE
  2
STANDARD
  9
$CMLJUST
 70
     0
  9
$CMLSCALE
 40
1.0
  9
$PROXYGRAPHICS
 70
     0
  9
$MEASUREMENT
 70
     0
  0
ENDSEC
  0
SECTION
  2
CLASSES
  0
CLASS
  1
LWPOLYLINE
  2
AcDbPolyline
  3
"AutoCAD"
 90
        0
280
     0
281
     1
  0
CLASS
  1
IMAGE
  2
AcDbRasterImage
  3
ISM
 90
      127
280
     0
281
     1
  0
CLASS
  1
OLE2FRAME
  2
AcDbOle2Frame
  3
""
 90
        0
280
     0
281
     1
  0
CLASS
  1
HATCH
  2
AcDbHatch
  3
"ACAD_SEDONA"
 90
        0
280
     0
281
     1
  0
CLASS
  1
DICTIONARYVAR
  2
AcDbDictionaryVar
  3
"AutoCAD"
 90
        0
280
     0
281
     0
  0
CLASS
  1
RASTERVARIABLES
  2
AcDbRasterVariables
  3
ISM
 90
        0
280
     0
281
     0
  0
CLASS
  1
IMAGEDEF
  2
AcDbRasterImageDef
  3
ISM
 90
        0
280
     0
281
     0
  0
CLASS
  1
IMAGEDEF_REACTOR
  2
AcDbRasterImageDefReactor
  3
ISM
 90
        1
280
     0
281
     0
  0
CLASS
  1
IDBUFFER
  2
AcDbIdBuffer
  3
"Acad"
 90
        0
280
     0
281
     0
  0
CLASS
  1
SPATIAL_FILTER
  2
AcDbSpatialFilter
  3
"Acad"
 90
        0
280
     0
281
     0
  0
CLASS
  1
XRECORD
  2
AcDbXrecord
  3
"<Built In>"
 90
        0
280
     0
281
     0
  0
CLASS
  1
SORTENTSTABLE
  2
AcDbSortentsTable
  3
"AutoCAD"
 90
        0
280
     0
281
     0
  0
CLASS
  1
LAYER_INDEX
  2
AcDbLayerIndex
  3
"Acad"
 90
        0
280
     0
281
     0
  0
CLASS
  1
SPATIAL_INDEX
  2
AcDbSpatialIndex
  3
"Acad"
 90
        0
280
     0
281
     0
  0
CLASS
  1
OBJECT_PTR
  2
CAseDLPNTableRecord
  3
"ASE-LPNTableRecord"
 90
        1
280
     0
281
     0
  0
ENDSEC
  0
SECTION
  2
TABLES
  0
TABLE
  2
VPORT
  5
7
100
AcDbSymbolTable
 70
     1
  0
VPORT
  5
15
100
AcDbSymbolTableRecord
100
AcDbViewportTableRecord
 2
*ACTIVE
 70
     0
 10
0
 20
0
 11
1.0
 21
1.0
 12
0.0
 22
0.0
 13
0.0
 23
0.0
 14
1.0
 24
1.0
 15
0.0
 25
0.0
 16
0.0
 26
0.0
 36
1.0
 17
84.1444999999991
 27
142.242461230469
 37
0.0
 40
253.9695
 41
0.47542007997024
 42
50.0
 43
0.0
 44
0.0
 50
0.0
 51
0.0
 71
     0
 72
   100
 73
     1
 74
     1
 75
     0
 76
     0
 77
     0
 78
     0
   0
ENDTAB
  0
TABLE
  2
LTYPE
  5
4
100
AcDbSymbolTable
 70
3
  0
LTYPE
  5
11
100
AcDbSymbolTableRecord
100
AcDbLinetypeTableRecord
  2
BYBLOCK
 70
     0
  3

 72
    65
 73
     0
 40
0.0
  0
LTYPE
  5
12
100
AcDbSymbolTableRecord
100
AcDbLinetypeTableRecord
  2
BYLAYER
 70
     0
  3

 72
    65
 73
     0
 40
0.0
  0
LTYPE
  5
80
330
5
100
AcDbSymbolTableRecord
100
AcDbLinetypeTableRecord
  2
CONTINUOUS
 70
     0
  3
Continuous
 72
    65
 73
     0
 40
0.0
  0
LTYPE
  5
81
330
5
100
AcDbSymbolTableRecord
100
AcDbLinetypeTableRecord
  2
DASH
 70
     0
  3
Dash
 72
    65
 73
     2
 40
48.0
 49
24.0
 74
     0
 49
-24.0
 74
     0
  0
LTYPE
  5
82
330
5
100
AcDbSymbolTableRecord
100
AcDbLinetypeTableRecord
  2
DASHDOT
 70
     0
  3
DashDot
 72
    65
 73
     4
 40
48.0
 49
24.0
 74
     0
 49
 -12.0
 74
     0
 49
0.0
 74
     0
 49
 -12.0
 74
     0	
  0
ENDTAB
  0
TABLE
  2
LAYER
  5
2
100
AcDbSymbolTable
 70
4              
  0
LAYER
  5
83
100
AcDbSymbolTableRecord
100
AcDbLayerTableRecord
  2
0
 70
     0
 62
     7
  6
CONTINUOUS
 0
LAYER
  5
84
100
AcDbSymbolTableRecord
100
AcDbLayerTableRecord
 2
Layer0
 70
 64
 62
 7
 6
CONTINUOUS
 0
LAYER
  5
85
100
AcDbSymbolTableRecord
100
AcDbLayerTableRecord
 2
Layer8
 70
 64
 62
 8
 6
CONTINUOUS
 0
LAYER
  5
86
100
AcDbSymbolTableRecord
100
AcDbLayerTableRecord
 2
Layer22
 70
 64
 62
 22
 6
CONTINUOUS
  0
ENDTAB
  0
TABLE
  2
STYLE
  5
3
100
AcDbSymbolTable
 70
1              
 0
STYLE
 5
17
100
AcDbSymbolTableRecord
100
AcDbTextStyleTableRecord
 2
STANDARD
 70
 0
 40
 0.0
 41
 1.0
 50
 0.0
 71
  0
 42
 8.0
 3
 txt
 4

  0
ENDTAB
  0
TABLE
  2
VIEW
  5
5
100
AcDbSymbolTable
 70
     0
  0
ENDTAB
  0
TABLE
  2
UCS
  5
6
100
AcDbSymbolTable
 70
     0
  0
ENDTAB
  0
TABLE
  2
APPID
  5
8
100
AcDbSymbolTable
 70
     1
  0
APPID
  5
16
100
AcDbSymbolTableRecord
100
AcDbRegAppTableRecord
  2
ACAD
 70
     0
  0
ENDTAB
  0
TABLE
  2
DIMSTYLE
  5
9
100
AcDbSymbolTable
 70
     1
  0
DIMSTYLE
105
18
100
AcDbSymbolTableRecord
100
AcDbDimStyleTableRecord
  2
STANDARD
 70
     0
  3

  4

  5

  6

  7

 40
1.0
 41
0.18
 42
0.0625
 43
0.38
 44
0.18
 45
0.0
 46
0.0
 47
0.0
 48
0.0
140
0.18
141
0.09
142
0.0
143
25.4
144
1.0
145
0.0
146
1.0
147
0.09
 71
     0
 72
     0
 73
     1
 74
     1
 75
     0
 76
     0
 77
     0
 78
     0
170
     0
171
     2
172
     0
173
     0
174
     0
175
     0
176
     0
177
     0
178
     0
270
     2
271
     4
272
     4
273
     2
274
     2
340
17
275
     0
280
     0
281
     0
282
     0
283
     1
284
     0
285
     0
286
     0
287
     0
288
     0
  0
ENDTAB
  0
TABLE
  2
BLOCK_RECORD
  5
1
100
AcDbSymbolTable
 70
     0
  0
BLOCK_RECORD
  5
A
100
AcDbSymbolTableRecord
100
AcDbBlockTableRecord
  2
*MODEL_SPACE
  0
BLOCK_RECORD
  5
B
100
AcDbSymbolTableRecord
100
AcDbBlockTableRecord
  2
*PAPER_SPACE
  0
ENDTAB
  0
ENDSEC
  0
SECTION
  2
BLOCKS
  0
BLOCK
  5
D
100
AcDbEntity
  8
0
100
AcDbBlockBegin
  2
*MODEL_SPACE
 70
     0
 10
0.0
 20
0.0
 30
0.0
  3
*MODEL_SPACE
  1

  0
ENDBLK
  5
E
100
AcDbEntity
  8
0
100
AcDbBlockEnd
  0
BLOCK
  5
F
100
AcDbEntity
 67
     1
  8
0
100
AcDbBlockBegin
  2
*PAPER_SPACE
 70
     0
 10
0.0
 20
0.0
 30
0.0
  3
*PAPER_SPACE
  1

  0
ENDBLK
  5
10
100
AcDbEntity
 67
     1
  8
0
100
AcDbBlockEnd
 0
ENDSEC
 0
SECTION
 2
ENTITIES
 0
CIRCLE
 5
87
100
AcDbEntity
 8
Layer8
100
AcDbCircle
 39
0.25
 370
106
 10
106.6872
 20
212.149211230469
 30
0.0
 40
3.77999999999999
 370
106
 0
CIRCLE
 5
88
100
AcDbEntity
 8
Layer8
100
AcDbCircle
 39
0.25
 370
106
 10
93.2428
 20
233.862911230469
 30
0.0
 40
3.78175
 370
106
 0
CIRCLE
 5
89
100
AcDbEntity
 8
Layer8
100
AcDbCircle
 39
0.25
 370
106
 10
93.2428
 20
233.862411230469
 30
0.0
 40
0.415749999999989
 370
106
 0
CIRCLE
 5
8A
100
AcDbEntity
 8
Layer8
100
AcDbCircle
 39
0.25
 370
106
 10
106.6863
 20
211.874411230469
 30
0.0
 40
0.425249999999991
 370
106
 0
CIRCLE
 5
8B
100
AcDbEntity
 8
Layer8
100
AcDbCircle
 39
0.25
 370
106
 10
80.3615
 20
195.787411230469
 30
0.0
 40
3.78099999999999
 370
106
 0
CIRCLE
 5
8C
100
AcDbEntity
 8
Layer8
100
AcDbCircle
 39
0.25
 370
106
 10
80.3641
 20
195.787411230469
 30
0.0
 40
0.418000000000006
 370
106
 0
LWPOLYLINE
 5
8D
100
AcDbEntity
 8
Layer8
100
AcDbPolyline
 39
0.25
 370
106
 90
5              
 70
 1
 43
0.0
 10
68.09
 20
192.003011230469
 10
76.584
 20
192.003011230469
 10
76.584
 20
216.534011230469
 10
68.09
 20
216.534011230469
 10
68.09
 20
192.003011230469
 0
LWPOLYLINE
 5
8E
100
AcDbEntity
 8
Layer8
100
AcDbPolyline
 39
0.25
 370
106
 90
5              
 70
 1
 43
0.0
 10
81.387
 20
245.362511230469
 10
91.183
 20
230.042511230469
 10
53.495
 20
230.067511230469
 10
63.314
 20
245.375511230469
 10
81.387
 20
245.362511230469
 0
LWPOLYLINE
 5
8F
100
AcDbEntity
 8
Layer8
100
AcDbPolyline
 39
0.25
 370
106
 90
5              
 70
 1
 43
0.0
 10
68.09
 20
192.003011230469
 10
76.584
 20
192.003011230469
 10
76.584
 20
216.534011230469
 10
68.09
 20
216.534011230469
 10
68.09
 20
192.003011230469
 0
LWPOLYLINE
 5
90
100
AcDbEntity
 8
Layer8
100
AcDbPolyline
 39
0.25
 370
106
 90
5              
 70
 1
 43
0.0
 10
53.494
 20
178.791011230469
 10
91.182
 20
178.791011230469
 10
91.182
 20
177.846011230469
 10
53.494
 20
177.846011230469
 10
53.494
 20
178.791011230469
 0
LWPOLYLINE
 5
91
100
AcDbEntity
 8
Layer8
100
AcDbPolyline
 39
0.25
 370
106
 90
5              
 70
 1
 43
0.0
 10
71.204
 20
178.791011230469
 10
73.469
 20
178.791011230469
 10
73.469
 20
192.003011230469
 10
71.204
 20
192.003011230469
 10
71.204
 20
178.791011230469
 0
LWPOLYLINE
 5
92
100
AcDbEntity
 8
Layer8
100
AcDbPolyline
 39
0.25
 370
106
 90
5              
 70
 1
 43
0.0
 10
105.1692
 20
215.757611230469
 10
104.0562
 20
215.071611230469
 10
94.6432
 20
230.307611230469
 10
95.7562
 20
230.992611230469
 10
105.1692
 20
215.757611230469
 0
LWPOLYLINE
 5
93
100
AcDbEntity
 8
Layer8
100
AcDbPolyline
 39
0.25
 370
106
 90
5              
 70
 1
 43
0.0
 10
84.2561
 20
197.524611230469
 10
83.5641
 20
198.635611230469
 10
103.1241
 20
210.714611230469
 10
103.8141
 20
209.601611230469
 10
84.2561
 20
197.524611230469
 0
ARC
 5
94
100
AcDbEntity
 8
Layer8
100
AcDbCircle
 39
0.25
 370
106
 10
80.2250892615721
 20
214.939776690312
 30
0.0
 40
5.31124720561297
100
AcDbArc
 50
107.308562330957
 51
145.008845379293
 0
ARC
 5
95
100
AcDbEntity
 8
Layer8
100
AcDbCircle
 39
0.25
 370
106
 10
72.2165843946359
 20
229.594791180103
 30
0.0
 40
11.5404360262132
100
AcDbArc
 50
-56.1496694001671
 51
2.27804640569041
 0
ARC
 5
96
100
AcDbEntity
 8
Layer8
100
AcDbCircle
 39
0.25
 370
106
 10
72.3714709923082
 20
229.463061495519
 30
0.0
 40
11.4465415166451
100
AcDbArc
 50
176.973012819623
 51
-137.527548470779
 0
LINE
 5
97
100
AcDbEntity
 8
Layer8
100
AcDbLine
 39
0.25
 370
106
 10
75.8739
 20
217.985511230469
 30
0.0
 11
75.8519
 21
216.534511230469
 31
0.0
 0
LINE
 5
98
100
AcDbEntity
 8
Layer8
100
AcDbLine
 39
0.25
 370
106
 10
75.8519
 20
216.534511230469
 30
0.0
 11
68.8329
 21
216.534511230469
 31
0.0
 0
LINE
 5
99
100
AcDbEntity
 8
Layer8
100
AcDbLine
 39
0.25
 370
106
 10
68.8329
 20
216.534511230469
 30
0.0
 11
68.8278375
 21
217.801808105469
 31
0.0
 0
LINE
 5
9A
100
AcDbEntity
 8
Layer8
100
AcDbLine
 39
0.25
 370
106
 10
68.8278375
 20
217.801808105469
 30
0.0
 11
68.6769
 21
218.295511230469
 31
0.0
 0
LINE
 5
9B
100
AcDbEntity
 8
Layer8
100
AcDbLine
 39
0.25
 370
106
 10
68.6769
 20
218.295511230469
 30
0.0
 11
67.69865
 21
219.129386230469
 31
0.0
 0
LINE
 5
9C
100
AcDbEntity
 8
Layer8
100
AcDbLine
 39
0.25
 370
106
 10
67.69865
 20
219.129386230469
 30
0.0
 11
66.0419
 21
220.010511230469
 31
0.0
 0
LINE
 5
9D
100
AcDbEntity
 8
Layer8
100
AcDbLine
 39
0.25
 370
106
 10
66.0419
 20
220.010511230469
 30
0.0
 11
63.928478125
 21
221.733948730469
 31
0.0
 0
LINE
 5
9E
100
AcDbEntity
 8
Layer8
100
AcDbLine
 39
0.25
 370
106
 10
60.9409
 20
230.067511230469
 30
0.0
 11
83.7479
 21
230.053511230469
 31
0.0
 0
LINE
 5
9F
100
AcDbEntity
 8
Layer8
100
AcDbLine
 39
0.25
 370
106
 10
35.0758
 20
243.529811230469
 30
0.0
 11
37.6968
 21
243.529811230469
 31
0.0
 0
LINE
 5
A0
100
AcDbEntity
 8
Layer8
100
AcDbLine
 39
0.25
 370
106
 10
35.0758
 20
179.420611230469
 30
0.0
 11
37.6968
 21
179.420611230469
 31
0.0
 0
LINE
 5
A1
100
AcDbEntity
 8
Layer8
100
AcDbLine
 39
0.25
 370
106
 10
110.8839
 20
258.878411230469
 30
0.0
 11
110.8839
 21
256.347411230469
 31
0.0
 0
LINE
 5
A2
100
AcDbEntity
 8
Layer8
100
AcDbLine
 39
0.25
 370
106
 10
46.4182
 20
258.878411230469
 30
0.0
 11
46.4182
 21
256.347411230469
 31
0.0
 0
LINE
 5
A3
100
AcDbEntity
 8
Layer8
100
AcDbLine
 39
0.25
 370
106
 10
94.2643
 20
169.600711230469
 30
0.0
 11
94.2643
 21
166.979711230469
 31
0.0
 0
ARC
 5
A4
100
AcDbEntity
 8
Layer8
100
AcDbCircle
 39
0.25
 370
106
 10
91.1947131949458
 20
191.410304784955
 30
0.0
 40
4.50552291194299
100
AcDbArc
 50
-113.808765067645
 51
65.8101886377733
 0
LWPOLYLINE
 5
A5
100
AcDbEntity
 8
Layer8
100
AcDbPolyline
 39
0.25
 370
106
 90
4              
 70
 1
 43
0.0
 10
89.8549
 20
188.712411230469
 10
88.7389
 20
186.179411230469
 10
87.9399
 20
188.101411230469
 10
89.8549
 20
188.712411230469
 0
HATCH
 5
A6
100
AcDbEntity
 8
Layer8
100
AcDbHatch
 10
 0.0
 20
 0.0
 30
 0.0
 210
 0.0
 220
 0.0
 230
 1.0
 2
SOLID
 70
 1
 71
 1
 91
1              
 92
 0
 93
3              
 72
 1
 10
89.8549
 20
188.712411230469
 11
88.7389
 21
186.179411230469
 72
 1
 10
88.7389
 20
186.179411230469
 11
87.9399
 21
188.101411230469
 72
 1
 10
87.9399
 20
188.101411230469
 11
89.8549
 21
188.712411230469
 97
 1
 330
A7
 75
 0
 76
 1
 98
 1
 10
 0.0
 20
 0.0
 0
LWPOLYLINE
 5
A8
100
AcDbEntity
 8
Layer8
100
AcDbPolyline
 39
0.25
 370
106
 90
4              
 70
 1
 43
0.0
 10
89.8549
 20
188.712411230469
 10
88.7389
 20
186.179411230469
 10
87.9399
 20
188.101411230469
 10
89.8549
 20
188.712411230469
 0
LWPOLYLINE
 5
A9
100
AcDbEntity
 8
Layer8
100
AcDbPolyline
 39
0.25
 370
106
 90
4              
 70
 1
 43
0.0
 10
93.4872
 20
196.870511230469
 10
92.3712
 20
194.337511230469
 10
91.5722
 20
196.259511230469
 10
93.4872
 20
196.870511230469
 0
HATCH
 5
AA
100
AcDbEntity
 8
Layer8
100
AcDbHatch
 10
 0.0
 20
 0.0
 30
 0.0
 210
 0.0
 220
 0.0
 230
 1.0
 2
SOLID
 70
 1
 71
 1
 91
1              
 92
 0
 93
3              
 72
 1
 10
93.4872
 20
196.870511230469
 11
92.3712
 21
194.337511230469
 72
 1
 10
92.3712
 20
194.337511230469
 11
91.5722
 21
196.259511230469
 72
 1
 10
91.5722
 20
196.259511230469
 11
93.4872
 21
196.870511230469
 97
 1
 330
AB
 75
 0
 76
 1
 98
 1
 10
 0.0
 20
 0.0
 0
LWPOLYLINE
 5
AC
100
AcDbEntity
 8
Layer8
100
AcDbPolyline
 39
0.25
 370
106
 90
4              
 70
 1
 43
0.0
 10
93.4872
 20
196.870511230469
 10
92.3712
 20
194.337511230469
 10
91.5722
 20
196.259511230469
 10
93.4872
 20
196.870511230469
 0
ARC
 5
AD
100
AcDbEntity
 8
Layer8
100
AcDbCircle
 39
0.25
 370
106
 10
116.066199111165
 20
211.943911230469
 30
0.0
 40
4.50502269865785
100
AcDbArc
 50
-89.8181181306942
 51
89.8181181306942
 0
LWPOLYLINE
 5
AE
100
AcDbEntity
 8
Layer8
100
AcDbPolyline
 39
0.25
 370
106
 90
4              
 70
 1
 43
0.0
 10
114.4363
 20
207.598811230469
 10
115.9483
 20
206.166811230469
 10
115.9393
 20
208.935811230469
 10
114.4363
 20
207.598811230469
 0
HATCH
 5
AF
100
AcDbEntity
 8
Layer8
100
AcDbHatch
 10
 0.0
 20
 0.0
 30
 0.0
 210
 0.0
 220
 0.0
 230
 1.0
 2
SOLID
 70
 1
 71
 1
 91
1              
 92
 0
 93
3              
 72
 1
 10
115.9387
 20
208.935011230469
 11
115.9477
 21
206.168011230469
 72
 1
 10
115.9477
 20
206.168011230469
 11
114.4377
 21
207.598011230469
 72
 1
 10
114.4377
 20
207.598011230469
 11
115.9387
 21
208.935011230469
 97
 1
 330
B0
 75
 0
 76
 1
 98
 1
 10
 0.0
 20
 0.0
 0
LWPOLYLINE
 5
B1
100
AcDbEntity
 8
Layer8
100
AcDbPolyline
 39
0.25
 370
106
 90
4              
 70
 1
 43
0.0
 10
115.9387
 20
208.935011230469
 10
115.9477
 20
206.168011230469
 10
114.4377
 20
207.598011230469
 10
115.9387
 20
208.935011230469
 0
LWPOLYLINE
 5
B2
100
AcDbEntity
 8
Layer8
100
AcDbPolyline
 39
0.25
 370
106
 90
4              
 70
 1
 43
0.0
 10
114.4363
 20
216.529011230469
 10
115.9483
 20
215.097011230469
 10
115.9393
 20
217.866011230469
 10
114.4363
 20
216.529011230469
 0
HATCH
 5
B3
100
AcDbEntity
 8
Layer8
100
AcDbHatch
 10
 0.0
 20
 0.0
 30
 0.0
 210
 0.0
 220
 0.0
 230
 1.0
 2
SOLID
 70
 1
 71
 1
 91
1              
 92
 0
 93
3              
 72
 1
 10
115.9387
 20
217.865111230469
 11
115.9477
 21
215.098111230469
 72
 1
 10
115.9477
 20
215.098111230469
 11
114.4377
 21
216.528111230469
 72
 1
 10
114.4377
 20
216.528111230469
 11
115.9387
 21
217.865111230469
 97
 1
 330
B4
 75
 0
 76
 1
 98
 1
 10
 0.0
 20
 0.0
 0
LWPOLYLINE
 5
B5
100
AcDbEntity
 8
Layer8
100
AcDbPolyline
 39
0.25
 370
106
 90
4              
 70
 1
 43
0.0
 10
115.9387
 20
217.865111230469
 10
115.9477
 20
215.098111230469
 10
114.4377
 20
216.528111230469
 10
115.9387
 20
217.865111230469
 0
ARC
 5
B6
100
AcDbEntity
 8
Layer8
100
AcDbCircle
 39
0.25
 370
106
 10
101.899206294354
 20
240.267984490206
 30
0.0
 40
4.50496702470322
100
AcDbArc
 50
-45.8605012139872
 51
133.863895897998
 0
LWPOLYLINE
 5
B7
100
AcDbEntity
 8
Layer8
100
AcDbPolyline
 39
0.25
 370
106
 90
4              
 70
 1
 43
0.0
 10
103.8948
 20
238.012911230469
 10
105.8238
 20
236.029911230469
 10
103.7428
 20
236.007911230469
 10
103.8948
 20
238.012911230469
 0
HATCH
 5
B8
100
AcDbEntity
 8
Layer8
100
AcDbHatch
 10
 0.0
 20
 0.0
 30
 0.0
 210
 0.0
 220
 0.0
 230
 1.0
 2
SOLID
 70
 1
 71
 1
 91
1              
 92
 0
 93
3              
 72
 1
 10
103.8948
 20
238.012911230469
 11
105.8238
 21
236.029911230469
 72
 1
 10
105.8238
 20
236.029911230469
 11
103.7428
 21
236.007911230469
 72
 1
 10
103.7428
 20
236.007911230469
 11
103.8948
 21
238.012911230469
 97
 1
 330
B9
 75
 0
 76
 1
 98
 1
 10
 0.0
 20
 0.0
 0
LWPOLYLINE
 5
BA
100
AcDbEntity
 8
Layer8
100
AcDbPolyline
 39
0.25
 370
106
 90
4              
 70
 1
 43
0.0
 10
103.8948
 20
238.012911230469
 10
105.8238
 20
236.029911230469
 10
103.7428
 20
236.007911230469
 10
103.8948
 20
238.012911230469
 0
LWPOLYLINE
 5
BB
100
AcDbEntity
 8
Layer8
100
AcDbPolyline
 39
0.25
 370
106
 90
4              
 70
 1
 43
0.0
 10
97.6915
 20
244.436611230469
 10
99.6205
 20
242.453611230469
 10
97.5395
 20
242.431611230469
 10
97.6915
 20
244.436611230469
 0
HATCH
 5
BC
100
AcDbEntity
 8
Layer8
100
AcDbHatch
 10
 0.0
 20
 0.0
 30
 0.0
 210
 0.0
 220
 0.0
 230
 1.0
 2
SOLID
 70
 1
 71
 1
 91
1              
 92
 0
 93
3              
 72
 1
 10
97.6915
 20
244.436611230469
 11
99.6205
 21
242.453611230469
 72
 1
 10
99.6205
 20
242.453611230469
 11
97.5395
 21
242.431611230469
 72
 1
 10
97.5395
 20
242.431611230469
 11
97.6915
 21
244.436611230469
 97
 1
 330
BD
 75
 0
 76
 1
 98
 1
 10
 0.0
 20
 0.0
 0
LWPOLYLINE
 5
BE
100
AcDbEntity
 8
Layer8
100
AcDbPolyline
 39
0.25
 370
106
 90
4              
 70
 1
 43
0.0
 10
97.6915
 20
244.436611230469
 10
99.6205
 20
242.453611230469
 10
97.5395
 20
242.431611230469
 10
97.6915
 20
244.436611230469
 0
LINE
 5
BF
100
AcDbEntity
 8
Layer8
100
AcDbLine
 39
0.25
 370
106
 10
51.5384
 20
169.600711230469
 30
0.0
 11
51.5384
 21
166.979711230469
 31
0.0
 0
LINE
 5
C0
100
AcDbEntity
 8
Layer8
100
AcDbLine
 39
0.25
 370
106
 10
129.3025
 20
121.033411230469
 30
0.0
 11
137.8685
 21
121.033411230469
 31
0.0
 0
CIRCLE
 5
C1
100
AcDbEntity
 8
Layer8
100
AcDbCircle
 39
0.25
 370
106
 10
72.573
 20
97.0042112304687
 30
0.0
 40
9.15174999999999
 370
106
 0
CIRCLE
 5
C2
100
AcDbEntity
 8
Layer8
100
AcDbCircle
 39
0.25
 370
106
 10
72.573
 20
97.0039112304688
 30
0.0
 40
18.9215
 370
106
 0
LINE
 5
C3
100
AcDbEntity
 8
Layer8
100
AcDbLine
 39
0.25
 370
106
 10
129.3025
 20
73.0490112304688
 30
0.0
 11
137.8685
 21
73.0490112304688
 31
0.0
 0
LINE
 5
C4
100
AcDbEntity
 8
Layer8
100
AcDbLine
 39
0.25
 370
106
 10
111.847
 20
97.5792112304688
 30
0.0
 11
111.605
 21
97.8222112304688
 31
0.0
 0
LINE
 5
C5
100
AcDbEntity
 8
Layer8
100
AcDbLine
 39
0.25
 370
106
 10
111.605
 20
97.8222112304688
 30
0.0
 11
97.875
 21
97.8222112304688
 31
0.0
 0
LINE
 5
C6
100
AcDbEntity
 8
Layer8
100
AcDbLine
 39
0.25
 370
106
 10
97.875
 20
97.8222112304688
 30
0.0
 11
97.875
 21
96.2552112304688
 31
0.0
 0
LINE
 5
C7
100
AcDbEntity
 8
Layer8
100
AcDbLine
 39
0.25
 370
106
 10
97.875
 20
96.2552112304688
 30
0.0
 11
111.605
 21
96.2552112304688
 31
0.0
 0
LINE
 5
C8
100
AcDbEntity
 8
Layer8
100
AcDbLine
 39
0.25
 370
106
 10
111.605
 20
96.2552112304688
 30
0.0
 11
111.847
 21
96.4982112304688
 31
0.0
 0
LINE
 5
C9
100
AcDbEntity
 8
Layer8
100
AcDbLine
 39
0.25
 370
106
 10
111.847
 20
96.4982112304688
 30
0.0
 11
111.847
 21
97.5792112304688
 31
0.0
 0
CIRCLE
 5
CA
100
AcDbEntity
 8
Layer8
100
AcDbCircle
 39
0.25
 370
106
 10
72.573
 20
97.0040112304687
 30
0.0
 40
19.64475
 370
106
 0
CIRCLE
 5
CB
100
AcDbEntity
 8
Layer8
100
AcDbCircle
 39
0.25
 370
106
 10
72.572
 20
97.0051112304687
 30
0.0
 40
23.9555
 370
106
 0
HATCH
 5
CC
100
AcDbEntity
 8
Layer22
100
AcDbHatch
 10
 0.0
 20
 0.0
 30
 0.0
 210
 0.0
 220
 0.0
 230
 1.0
 2
SOLID
 70
 1
 71
 1
 91
1              
 92
 0
 93
42             
 72
 1
 10
30.2406
 20
17.5874112304688
 11
34.2786
 21
17.5874112304688
 72
 1
 10
34.2786
 20
17.5874112304688
 11
34.1576
 21
26.4684112304687
 72
 1
 10
34.1576
 20
26.4684112304687
 11
34.146488671875
 21
27.1502022460937
 72
 1
 10
34.146488671875
 20
27.1502022460937
 11
34.133959375
 21
27.8821143554687
 72
 1
 10
34.133959375
 20
27.8821143554687
 11
34.118594140625
 21
28.6469561523437
 72
 1
 10
34.118594140625
 20
28.6469561523437
 11
34.098975
 21
29.4275362304687
 72
 1
 10
34.098975
 20
29.4275362304687
 11
34.073683984375
 21
30.2066631835937
 72
 1
 10
34.073683984375
 20
30.2066631835937
 11
34.041303125
 21
30.9671456054687
 72
 1
 10
34.041303125
 20
30.9671456054687
 11
34.000414453125
 21
31.6917920898438
 72
 1
 10
34.000414453125
 20
31.6917920898438
 11
33.9496
 21
32.3634112304687
 72
 1
 10
33.9496
 20
32.3634112304687
 11
34.1354359375
 21
31.8075772460937
 72
 1
 10
34.1354359375
 20
31.8075772460937
 11
34.3930375
 21
31.1207393554687
 72
 1
 10
34.3930375
 20
31.1207393554687
 11
34.7101703125
 21
30.3260186523437
 72
 1
 10
34.7101703125
 20
30.3260186523437
 11
35.0746
 21
29.4465362304687
 72
 1
 10
35.0746
 20
29.4465362304687
 11
35.4740921875
 21
28.5054131835937
 72
 1
 10
35.4740921875
 20
28.5054131835937
 11
35.8964125
 21
27.5257706054687
 72
 1
 10
35.8964125
 20
27.5257706054687
 11
36.3293265625
 21
26.5307295898438
 72
 1
 10
36.3293265625
 20
26.5307295898438
 11
36.7606
 21
25.5434112304687
 72
 1
 10
36.7606
 20
25.5434112304687
 11
40.3206
 21
17.5874112304688
 72
 1
 10
40.3206
 20
17.5874112304688
 11
44.6866
 21
17.5874112304688
 72
 1
 10
44.6866
 20
17.5874112304688
 11
44.6866
 21
38.3734112304687
 72
 1
 10
44.6866
 20
38.3734112304687
 11
40.7086
 21
38.3734112304687
 72
 1
 10
40.7086
 20
38.3734112304687
 11
40.7986
 21
29.8794112304687
 72
 1
 10
40.7986
 20
29.8794112304687
 11
40.814949609375
 21
29.2881280273438
 72
 1
 10
40.814949609375
 20
29.2881280273438
 11
40.841271875
 21
28.6083331054688
 72
 1
 10
40.841271875
 20
28.6083331054688
 11
40.876101953125
 21
27.8667334960937
 72
 1
 10
40.876101953125
 20
27.8667334960937
 11
40.917975
 21
27.0900362304687
 72
 1
 10
40.917975
 20
27.0900362304687
 11
40.965426171875
 21
26.3049483398437
 72
 1
 10
40.965426171875
 20
26.3049483398437
 11
41.016990625
 21
25.5381768554687
 72
 1
 10
41.016990625
 20
25.5381768554687
 11
41.071203515625
 21
24.8164288085937
 72
 1
 10
41.071203515625
 20
24.8164288085937
 11
41.1266
 21
24.1664112304687
 72
 1
 10
41.1266
 20
24.1664112304687
 11
40.9519046875
 21
24.7580479492187
 72
 1
 10
40.9519046875
 20
24.7580479492187
 11
40.742475
 21
25.4065674804688
 72
 1
 10
40.742475
 20
25.4065674804688
 11
40.5000453125
 21
26.1042588867188
 72
 1
 10
40.5000453125
 20
26.1042588867188
 11
40.22635
 21
26.8434112304687
 72
 1
 10
40.22635
 20
26.8434112304687
 11
39.9231234375
 21
27.6163135742187
 72
 1
 10
39.9231234375
 20
27.6163135742187
 11
39.5921
 21
28.4152549804688
 72
 1
 10
39.5921
 20
28.4152549804688
 11
39.2350140625
 21
29.2325245117187
 72
 1
 10
39.2350140625
 20
29.2325245117187
 11
38.8536
 21
30.0604112304687
 72
 1
 10
38.8536
 20
30.0604112304687
 11
34.8776
 21
38.3734112304687
 72
 1
 10
34.8776
 20
38.3734112304687
 11
30.2406
 21
38.3734112304687
 72
 1
 10
30.2406
 20
38.3734112304687
 11
30.2406
 21
17.5874112304688
 97
 1
 330
CD
 75
 0
 76
 1
 98
 1
 10
 0.0
 20
 0.0
 0
HATCH
 5
CE
100
AcDbEntity
 8
Layer22
100
AcDbHatch
 10
 0.0
 20
 0.0
 30
 0.0
 210
 0.0
 220
 0.0
 230
 1.0
 2
SOLID
 70
 1
 71
 1
 91
1              
 92
 0
 93
12             
 72
 1
 10
47.1947
 20
38.3738112304688
 11
47.1947
 21
17.5878112304687
 72
 1
 10
47.1947
 20
17.5878112304687
 11
59.3087
 21
17.5878112304687
 72
 1
 10
59.3087
 20
17.5878112304687
 11
59.3087
 21
21.1768112304687
 72
 1
 10
59.3087
 20
21.1768112304687
 11
51.4437
 21
21.1768112304687
 72
 1
 10
51.4437
 20
21.1768112304687
 11
51.4437
 21
26.7388112304687
 72
 1
 10
51.4437
 20
26.7388112304687
 11
57.3337
 21
26.7388112304687
 72
 1
 10
57.3337
 20
26.7388112304687
 11
57.3337
 21
30.1498112304687
 72
 1
 10
57.3337
 20
30.1498112304687
 11
51.3817
 21
30.1498112304687
 72
 1
 10
51.3817
 20
30.1498112304687
 11
51.3817
 21
34.9638112304688
 72
 1
 10
51.3817
 20
34.9638112304688
 11
58.4997
 21
34.9638112304688
 72
 1
 10
58.4997
 20
34.9638112304688
 11
59.0387
 21
38.3738112304688
 72
 1
 10
59.0387
 20
38.3738112304688
 11
47.1947
 21
38.3738112304688
 97
 1
 330
CF
 75
 0
 76
 1
 98
 1
 10
 0.0
 20
 0.0
 0
HATCH
 5
D0
100
AcDbEntity
 8
Layer22
100
AcDbHatch
 10
 0.0
 20
 0.0
 30
 0.0
 210
 0.0
 220
 0.0
 230
 1.0
 2
SOLID
 70
 1
 71
 1
 91
1              
 92
 0
 93
49             
 72
 1
 10
60.8622
 20
17.5874112304688
 11
65.0792
 21
17.5874112304688
 72
 1
 10
65.0792
 20
17.5874112304688
 11
65.7962
 21
28.4444112304687
 72
 1
 10
65.7962
 20
28.4444112304687
 11
65.828198046875
 21
28.9211045898438
 72
 1
 10
65.828198046875
 20
28.9211045898438
 11
65.857184375
 21
29.3888331054688
 72
 1
 10
65.857184375
 20
29.3888331054688
 11
65.882772265625
 21
29.8496944335938
 72
 1
 10
65.882772265625
 20
29.8496944335938
 11
65.904575
 21
30.3057862304688
 72
 1
 10
65.904575
 20
30.3057862304688
 11
65.922205859375
 21
30.7592061523438
 72
 1
 10
65.922205859375
 20
30.7592061523438
 11
65.935278125
 21
31.2120518554688
 72
 1
 10
65.935278125
 20
31.2120518554688
 11
65.943405078125
 21
31.6664209960937
 72
 1
 10
65.943405078125
 20
31.6664209960937
 11
65.9462
 21
32.1244112304688
 72
 1
 10
65.9462
 20
32.1244112304688
 11
69.7452
 21
17.5874112304688
 72
 1
 10
69.7452
 20
17.5874112304688
 11
73.4242
 21
17.5874112304688
 72
 1
 10
73.4242
 20
17.5874112304688
 11
74.678303515625
 21
21.9533819335938
 72
 1
 10
74.678303515625
 20
21.9533819335938
 11
75.623653125
 21
25.2489268554688
 72
 1
 10
75.623653125
 20
25.2489268554688
 11
76.307557421875
 21
27.6429952148437
 72
 1
 10
76.307557421875
 20
27.6429952148437
 11
76.777325
 21
29.3045362304688
 72
 1
 10
76.777325
 20
29.3045362304688
 11
77.080264453125
 21
30.4024991210937
 72
 1
 10
77.080264453125
 20
30.4024991210937
 11
77.263684375
 21
31.1058331054688
 72
 1
 10
77.263684375
 20
31.1058331054688
 11
77.374893359375
 21
31.5834874023437
 72
 1
 10
77.374893359375
 20
31.5834874023437
 11
77.4612
 21
32.0044112304687
 72
 1
 10
77.4612
 20
32.0044112304687
 11
77.50232109375
 21
31.0668135742187
 72
 1
 10
77.50232109375
 20
31.0668135742187
 11
77.61073125
 21
29.2843174804688
 72
 1
 10
77.61073125
 20
29.2843174804688
 11
77.76400078125
 21
26.9558682617188
 72
 1
 10
77.76400078125
 20
26.9558682617188
 11
77.9397
 21
24.3804112304687
 72
 1
 10
77.9397
 20
24.3804112304687
 11
78.11539921875
 21
21.8568916992188
 72
 1
 10
78.11539921875
 20
21.8568916992188
 11
78.26866875
 21
19.6842549804688
 72
 1
 10
78.26866875
 20
19.6842549804688
 11
78.37707890625
 21
18.1614463867188
 72
 1
 10
78.37707890625
 20
18.1614463867188
 11
78.4182
 21
17.5874112304688
 72
 1
 10
78.4182
 20
17.5874112304688
 11
82.5462
 21
17.5874112304688
 72
 1
 10
82.5462
 20
17.5874112304688
 11
80.6922
 21
38.3734112304687
 72
 1
 10
80.6922
 20
38.3734112304687
 11
75.2182
 21
38.3734112304687
 72
 1
 10
75.2182
 20
38.3734112304687
 11
74.112362109375
 21
34.2446690429687
 72
 1
 10
74.112362109375
 20
34.2446690429687
 11
73.278809375
 21
31.1288487304687
 72
 1
 10
73.278809375
 20
31.1288487304687
 11
72.675858203125
 21
28.8668096679688
 72
 1
 10
72.675858203125
 20
28.8668096679688
 11
72.261825
 21
27.2994112304688
 72
 1
 10
72.261825
 20
27.2994112304688
 11
71.995026171875
 21
26.2675127929688
 72
 1
 10
71.995026171875
 20
26.2675127929688
 11
71.833778125
 21
25.6119737304688
 72
 1
 10
71.833778125
 20
25.6119737304688
 11
71.736397265625
 21
25.1736534179688
 72
 1
 10
71.736397265625
 20
25.1736534179688
 11
71.6612
 21
24.7934112304687
 72
 1
 10
71.6612
 20
24.7934112304687
 11
71.461334765625
 21
25.6864307617187
 72
 1
 10
71.461334765625
 20
25.6864307617187
 11
71.047028125
 21
27.3700674804687
 72
 1
 10
71.047028125
 20
27.3700674804687
 11
70.492588671875
 21
29.5639385742188
 72
 1
 10
70.492588671875
 20
29.5639385742188
 11
69.872325
 21
31.9876612304687
 72
 1
 10
69.872325
 20
31.9876612304687
 11
69.260545703125
 21
34.3608526367188
 72
 1
 10
69.260545703125
 20
34.3608526367188
 11
68.731559375
 21
36.4031299804687
 72
 1
 10
68.731559375
 20
36.4031299804687
 11
68.359674609375
 21
37.8341104492188
 72
 1
 10
68.359674609375
 20
37.8341104492188
 11
68.2192
 21
38.3734112304687
 72
 1
 10
68.2192
 20
38.3734112304687
 11
62.8072
 21
38.3734112304687
 72
 1
 10
62.8072
 20
38.3734112304687
 11
60.8622
 21
17.5874112304688
 97
 1
 330
D1
 75
 0
 76
 1
 98
 1
 10
 0.0
 20
 0.0
 0
HATCH
 5
D2
100
AcDbEntity
 8
Layer22
100
AcDbHatch
 10
 0.0
 20
 0.0
 30
 0.0
 210
 0.0
 220
 0.0
 230
 1.0
 2
SOLID
 70
 1
 71
 1
 91
2              
 92
 0
 93
56             
 72
 1
 10
96.435
 20
32.7817112304688
 11
96.560572265625
 21
32.3267932617188
 72
 1
 10
96.560572265625
 20
32.3267932617188
 11
96.669515625
 21
31.8354299804687
 72
 1
 10
96.669515625
 20
31.8354299804687
 11
96.761794921875
 21
31.3048323242188
 72
 1
 10
96.761794921875
 20
31.3048323242188
 11
96.837375
 21
30.7322112304687
 72
 1
 10
96.837375
 20
30.7322112304687
 11
96.896220703125
 21
30.1147776367187
 72
 1
 10
96.896220703125
 20
30.1147776367187
 11
96.938296875
 21
29.4497424804687
 72
 1
 10
96.938296875
 20
29.4497424804687
 11
96.963568359375
 21
28.7343166992187
 72
 1
 10
96.963568359375
 20
28.7343166992187
 11
96.972
 21
27.9657112304687
 72
 1
 10
96.972
 20
27.9657112304687
 11
96.913697265625
 21
26.1238049804687
 72
 1
 10
96.913697265625
 20
26.1238049804687
 11
96.735265625
 21
24.5603362304687
 72
 1
 10
96.735265625
 20
24.5603362304687
 11
96.431419921875
 21
23.2651799804688
 72
 1
 10
96.431419921875
 20
23.2651799804688
 11
95.996875
 21
22.2282112304688
 72
 1
 10
95.996875
 20
22.2282112304688
 11
95.426345703125
 21
21.4393049804688
 72
 1
 10
95.426345703125
 20
21.4393049804688
 11
94.714546875
 21
20.8883362304688
 72
 1
 10
94.714546875
 20
20.8883362304688
 11
93.856193359375
 21
20.5651799804688
 72
 1
 10
93.856193359375
 20
20.5651799804688
 11
92.846
 21
20.4597112304688
 72
 1
 10
92.846
 20
20.4597112304688
 11
92.48263671875
 21
20.4708752929687
 72
 1
 10
92.48263671875
 20
20.4708752929687
 11
92.13378125
 21
20.5043987304688
 72
 1
 10
92.13378125
 20
20.5043987304688
 11
91.79978515625
 21
20.5603284179688
 72
 1
 10
91.79978515625
 20
20.5603284179688
 11
91.481
 21
20.6387112304687
 72
 1
 10
91.481
 20
20.6387112304687
 11
91.17777734375
 21
20.7395940429688
 72
 1
 10
91.17777734375
 20
20.7395940429688
 11
90.89046875
 21
20.8630237304687
 72
 1
 10
90.89046875
 20
20.8630237304687
 11
90.61942578125
 21
21.0090471679688
 72
 1
 10
90.61942578125
 20
21.0090471679688
 11
90.365
 21
21.1777112304687
 72
 1
 10
90.365
 20
21.1777112304687
 11
89.932349609375
 21
21.5851780273438
 72
 1
 10
89.932349609375
 20
21.5851780273438
 11
89.556359375
 21
22.1145081054688
 72
 1
 10
89.556359375
 20
22.1145081054688
 11
89.237345703125
 21
22.7667209960937
 72
 1
 10
89.237345703125
 20
22.7667209960937
 11
88.975625
 21
23.5428362304688
 72
 1
 10
88.975625
 20
23.5428362304688
 11
88.771513671875
 21
24.4438733398438
 72
 1
 10
88.771513671875
 20
24.4438733398438
 11
88.625328125
 21
25.4708518554688
 72
 1
 10
88.625328125
 20
25.4708518554688
 11
88.537384765625
 21
26.6247913085938
 72
 1
 10
88.537384765625
 20
26.6247913085938
 11
88.508
 21
27.9067112304688
 72
 1
 10
88.508
 20
27.9067112304688
 11
88.5235390625
 21
28.8168303710938
 72
 1
 10
88.5235390625
 20
28.8168303710938
 11
88.570625
 21
29.6648518554688
 72
 1
 10
88.570625
 20
29.6648518554688
 11
88.6499609375
 21
30.4532717773438
 72
 1
 10
88.6499609375
 20
30.4532717773438
 11
88.76225
 21
31.1845862304688
 72
 1
 10
88.76225
 20
31.1845862304688
 11
88.9081953125
 21
31.8612913085938
 72
 1
 10
88.9081953125
 20
31.8612913085938
 11
89.0885
 21
32.4858831054688
 72
 1
 10
89.0885
 20
32.4858831054688
 11
89.3038671875
 21
33.0608577148437
 72
 1
 10
89.3038671875
 20
33.0608577148437
 11
89.555
 21
33.5887112304687
 72
 1
 10
89.555
 20
33.5887112304687
 11
89.79952734375
 21
33.9846291992187
 72
 1
 10
89.79952734375
 20
33.9846291992187
 11
90.10215625
 21
34.3403049804687
 72
 1
 10
90.10215625
 20
34.3403049804687
 11
90.45658203125
 21
34.6518713867187
 72
 1
 10
90.45658203125
 20
34.6518713867187
 11
90.8565
 21
34.9154612304687
 72
 1
 10
90.8565
 20
34.9154612304687
 11
91.29560546875
 21
35.1272073242188
 72
 1
 10
91.29560546875
 20
35.1272073242188
 11
91.76759375
 21
35.2832424804687
 72
 1
 10
91.76759375
 20
35.2832424804687
 11
92.26616015625
 21
35.3796995117187
 72
 1
 10
92.26616015625
 20
35.3796995117187
 11
92.785
 21
35.4127112304687
 72
 1
 10
92.785
 20
35.4127112304687
 11
93.564330078125
 21
35.3426448242187
 72
 1
 10
93.564330078125
 20
35.3426448242187
 11
94.243640625
 21
35.1489924804687
 72
 1
 10
94.243640625
 20
35.1489924804687
 11
94.826787109375
 21
34.8565745117187
 72
 1
 10
94.826787109375
 20
34.8565745117187
 11
95.317625
 21
34.4902112304687
 72
 1
 10
95.317625
 20
34.4902112304687
 11
95.720009765625
 21
34.0747229492187
 72
 1
 10
95.720009765625
 20
34.0747229492187
 11
96.037796875
 21
33.6349299804688
 72
 1
 10
96.037796875
 20
33.6349299804688
 11
96.274841796875
 21
33.1956526367188
 72
 1
 10
96.274841796875
 20
33.1956526367188
 11
96.435
 21
32.7817112304688
 97
 1
 330
D3
 92
 0
 93
56             
 72
 1
 10
88.539
 20
37.6267112304687
 11
87.486470703125
 21
36.9213303710937
 72
 1
 10
87.486470703125
 20
36.9213303710937
 11
86.555078125
 21
36.0456643554688
 72
 1
 10
86.555078125
 20
36.0456643554688
 11
85.750740234375
 21
35.0120530273437
 72
 1
 10
85.750740234375
 20
35.0120530273437
 11
85.079375
 21
33.8328362304688
 72
 1
 10
85.079375
 20
33.8328362304688
 11
84.546900390625
 21
32.5203538085938
 72
 1
 10
84.546900390625
 20
32.5203538085938
 11
84.159234375
 21
31.0869456054688
 72
 1
 10
84.159234375
 20
31.0869456054688
 11
83.922294921875
 21
29.5449514648437
 72
 1
 10
83.922294921875
 20
29.5449514648437
 11
83.842
 21
27.9067112304688
 72
 1
 10
83.842
 20
27.9067112304688
 11
83.879814453125
 21
26.7823694335938
 72
 1
 10
83.879814453125
 20
26.7823694335938
 11
83.993015625
 21
25.6996643554687
 72
 1
 10
83.993015625
 20
25.6996643554687
 11
84.181240234375
 21
24.6605764648438
 72
 1
 10
84.181240234375
 20
24.6605764648438
 11
84.444125
 21
23.6670862304687
 72
 1
 10
84.444125
 20
23.6670862304687
 11
84.781306640625
 21
22.7211741210937
 72
 1
 10
84.781306640625
 20
22.7211741210937
 11
85.192421875
 21
21.8248206054687
 72
 1
 10
85.192421875
 20
21.8248206054687
 11
85.677107421875
 21
20.9800061523437
 72
 1
 10
85.677107421875
 20
20.9800061523437
 11
86.235
 21
20.1887112304688
 72
 1
 10
86.235
 20
20.1887112304688
 11
86.851748046875
 21
19.4707502929688
 72
 1
 10
86.851748046875
 20
19.4707502929688
 11
87.518359375
 21
18.8608362304687
 72
 1
 10
87.518359375
 20
18.8608362304687
 11
88.242509765625
 21
18.3551721679688
 72
 1
 10
88.242509765625
 20
18.3551721679688
 11
89.031875
 21
17.9499612304688
 72
 1
 10
89.031875
 20
17.9499612304688
 11
89.894130859375
 21
17.6414065429688
 72
 1
 10
89.894130859375
 20
17.6414065429688
 11
90.836953125
 21
17.4257112304688
 72
 1
 10
90.836953125
 20
17.4257112304688
 11
91.868017578125
 21
17.2990784179688
 72
 1
 10
91.868017578125
 20
17.2990784179688
 11
92.995
 21
17.2577112304688
 72
 1
 10
92.995
 20
17.2577112304688
 11
93.620236328125
 21
17.2707014648438
 72
 1
 10
93.620236328125
 20
17.2707014648438
 11
94.199828125
 21
17.3108206054688
 72
 1
 10
94.199828125
 20
17.3108206054688
 11
94.741474609375
 21
17.3797913085937
 72
 1
 10
94.741474609375
 20
17.3797913085937
 11
95.252875
 21
17.4793362304688
 72
 1
 10
95.252875
 20
17.4793362304688
 11
95.741728515625
 21
17.6111780273437
 72
 1
 10
95.741728515625
 20
17.6111780273437
 11
96.215734375
 21
17.7770393554687
 72
 1
 10
96.215734375
 20
17.7770393554687
 11
96.682591796875
 21
17.9786428710937
 72
 1
 10
96.682591796875
 20
17.9786428710937
 11
97.15
 21
18.2177112304688
 72
 1
 10
97.15
 20
18.2177112304688
 11
98.20898046875
 21
18.9291624023438
 72
 1
 10
98.20898046875
 20
18.9291624023438
 11
99.13809375
 21
19.8045706054688
 72
 1
 10
99.13809375
 20
19.8045706054688
 11
99.93384765625
 21
20.8365178710938
 72
 1
 10
99.93384765625
 20
20.8365178710938
 11
100.59275
 21
22.0175862304688
 72
 1
 10
100.59275
 20
22.0175862304688
 11
101.11130859375
 21
23.3403577148438
 72
 1
 10
101.11130859375
 20
23.3403577148438
 11
101.48603125
 21
24.7974143554688
 72
 1
 10
101.48603125
 20
24.7974143554688
 11
101.71342578125
 21
26.3813381835938
 72
 1
 10
101.71342578125
 20
26.3813381835938
 11
101.79
 21
28.0847112304688
 72
 1
 10
101.79
 20
28.0847112304688
 11
101.6325859375
 21
30.4106584960937
 72
 1
 10
101.6325859375
 20
30.4106584960937
 11
101.1704375
 21
32.4856018554688
 72
 1
 10
101.1704375
 20
32.4856018554688
 11
100.4186953125
 21
34.2913186523437
 72
 1
 10
100.4186953125
 20
34.2913186523437
 11
99.3925
 21
35.8095862304687
 72
 1
 10
99.3925
 20
35.8095862304687
 11
98.1069921875
 21
37.0221819335937
 72
 1
 10
98.1069921875
 20
37.0221819335937
 11
96.5773125
 21
37.9108831054687
 72
 1
 10
96.5773125
 20
37.9108831054687
 11
94.8186015625
 21
38.4574670898437
 72
 1
 10
94.8186015625
 20
38.4574670898437
 11
92.846
 21
38.6437112304687
 72
 1
 10
92.846
 20
38.6437112304687
 11
92.264435546875
 21
38.6270002929687
 72
 1
 10
92.264435546875
 20
38.6270002929687
 11
91.688859375
 21
38.5773362304687
 72
 1
 10
91.688859375
 20
38.5773362304687
 11
91.122447265625
 21
38.4954221679687
 72
 1
 10
91.122447265625
 20
38.4954221679687
 11
90.568375
 21
38.3819612304688
 72
 1
 10
90.568375
 20
38.3819612304688
 11
90.029818359375
 21
38.2376565429687
 72
 1
 10
90.029818359375
 20
38.2376565429687
 11
89.509953125
 21
38.0632112304688
 72
 1
 10
89.509953125
 20
38.0632112304688
 11
89.011955078125
 21
37.8593284179688
 72
 1
 10
89.011955078125
 20
37.8593284179688
 11
88.539
 21
37.6267112304687
 97
 1
 330
D4
 75
 0
 76
 1
 98
 1
 10
 0.0
 20
 0.0
 0
LINE
 5
D5
100
AcDbEntity
 8
Layer8
100
AcDbLine
 39
0.25
 370
106
 10
90.4607
 20
97.8224112304687
 30
0.0
 11
90.2167
 21
97.5794112304687
 31
0.0
 0
LINE
 5
D6
100
AcDbEntity
 8
Layer8
100
AcDbLine
 39
0.25
 370
106
 10
90.2167
 20
97.5794112304687
 30
0.0
 11
90.2167
 21
96.4984112304687
 31
0.0
 0
LINE
 5
D7
100
AcDbEntity
 8
Layer8
100
AcDbLine
 39
0.25
 370
106
 10
90.2167
 20
96.4984112304687
 30
0.0
 11
90.4607
 21
96.2554112304688
 31
0.0
 0
LINE
 5
D8
100
AcDbEntity
 8
Layer8
100
AcDbLine
 39
0.25
 370
106
 10
90.4607
 20
96.2554112304688
 30
0.0
 11
97.8747
 21
96.2554112304688
 31
0.0
 0
LINE
 5
D9
100
AcDbEntity
 8
Layer8
100
AcDbLine
 39
0.25
 370
106
 10
97.8747
 20
96.2554112304688
 30
0.0
 11
97.8747
 21
97.8224112304687
 31
0.0
 0
LINE
 5
DA
100
AcDbEntity
 8
Layer8
100
AcDbLine
 39
0.25
 370
106
 10
97.8747
 20
97.8224112304687
 30
0.0
 11
90.4607
 21
97.8224112304687
 31
0.0
 0
TEXT
 5
DB
100
AcDbEntity
 8
Layer8
100
AcDbText
 40
9.6
 41
0.61000
 72
0
 50
-270
  1
36
  7
STANDARD
 10
39.7734
 20
206.149111230469
 30
0.0
 11
39.7734
 21
206.149111230469
 31
0.0
100
AcDbText
 73
  1
 0
TEXT
 5
DC
100
AcDbEntity
 8
Layer8
100
AcDbText
 40
9.6
 41
0.61000
 72
0
 50
0
  1
27
  7
STANDARD
 10
71.6602
 20
254.227211230469
 30
0.0
 11
71.6602
 21
254.227211230469
 31
0.0
100
AcDbText
 73
  1
 0
TEXT
 5
DD
100
AcDbEntity
 8
Layer8
100
AcDbText
 40
9.6
 41
0.61000
 72
0
 50
0
  1
20
  7
STANDARD
 10
67.6402
 20
164.894101230469
 30
0.0
 11
67.6402
 21
164.894101230469
 31
0.0
100
AcDbText
 73
  1
 0
TEXT
 5
DE
100
AcDbEntity
 8
Layer8
100
AcDbText
 40
9.6
 41
0.61000
 72
0
 50
0
  1
30fl
  7
STANDARD
 10
100.3642
 20
187.800710630469
 30
0.0
 11
100.3642
 21
187.800710630469
 31
0.0
100
AcDbText
 73
  1
 0
TEXT
 5
DF
100
AcDbEntity
 8
Layer8
100
AcDbText
 40
9.6
 41
0.61000
 72
0
 50
0
  1
90fl
  7
STANDARD
 10
122.5156
 20
208.290711230469
 30
0.0
 11
122.5156
 21
208.290711230469
 31
0.0
100
AcDbText
 73
  1
 0
TEXT
 5
E0
100
AcDbEntity
 8
Layer8
100
AcDbText
 40
9.6
 41
0.61000
 72
0
 50
0
  1
45fl
  7
STANDARD
 10
109.6276
 20
239.770632530469
 30
0.0
 11
109.6276
 21
239.770632530469
 31
0.0
100
AcDbText
 73
  1
 0
TEXT
 5
E1
100
AcDbEntity
 8
Layer8
100
AcDbText
 40
9.6
 41
0.61000
 72
0
 50
-270
  1
20
  7
STANDARD
 10
137.4551
 20
93.2922112304688
 30
0.0
 11
137.4551
 21
93.2922112304688
 31
0.0
100
AcDbText
 73
  1
  0
ENDSEC
  0
SECTION
  2
OBJECTS
  0
DICTIONARY
  5
19
100
AcDbDictionary
  3
ACAD_GROUP
350
1A
  3
ACAD_MLINESTYLE
350
1B
  0
DICTIONARY
  5
1A
102
{ACAD_REACTORS
330
19
102
}
100
AcDbDictionary
  0
DICTIONARY
  5
1B
102
{ACAD_REACTORS
330
19
102
}
100
AcDbDictionary
  3
STANDARD
350
1C
  0
MLINESTYLE
  5
1C
102
{ACAD_REACTORS
330
1B
102
}
100
AcDbMlineStyle
  2
STANDARD
 70
     0
  3

 62
     0
 51
90.0
 52
90.0
 71
     2
 49
0.5
 62
   256
  6
BYLAYER
 49
-0.5
 62
   256
  6
BYLAYER
  0
ENDSEC
  0
EOF
