 999
SCAN2CAD Date : 01/26/16
 999
SCAN2CAD ScalePixelX : 1
 999
SCAN2CAD ScalePixelY : 1
 999
SCAN2CAD TileXOffset : 0
 999
SCAN2CAD TileYOffset : 0
 999
SCAN2CAD MeasureType : 1
 999
SCAN2CAD DotsPerInch : 0
 999
SCAN2CAD GeScalePixX : 1
 999
SCAN2CAD GeScalePixY : 1
 999
SCAN2CAD GeRasTiePtX : 0
 999
SCAN2CAD GeRasTiePtY : 0
 999
SCAN2CAD ScalRasDist : 1
 999
SCAN2CAD ScalVecDist : 1
 999
SCAN2CAD ScalUnitTyp : 0
 999
SCAN2CAD ScalDistFac : 1
 999
SCAN2CAD ScalAdjustX : 1
 999
SCAN2CAD ScalAdjustY : 1
 999
SCAN2CAD MeasureMeth : 1
 999
SCAN2CAD OgDrawScale : 1
 999
SCAN2CAD OgDrawUType : 0
 999
SCAN2CAD ToDrawScale : 1
 999
SCAN2CAD ToDrawUType : 0
  0
SECTION
  2
HEADER
  9
$ACADVER
  1
AC1014
  9
$ACADMAINTVER
 70
     0
  9
$DWGCODEPAGE
  3
ANSI_1252
  9
$INSBASE
 10
0.0
 20
0.0
 30
0.0
 9
$EXTMIN
 10
25.6308999999979
 20
13.3965048828125
 30
0.0
 9
$EXTMAX
 10
125.8071
 20
136.556240304905
 30
0.0
 9
$LIMMIN
 10
0
 20
0
 9
$LIMMAX
 10
157
 20
165
  9
$ORTHOMODE
 70
     0
  9
$REGENMODE
 70
     1
  9
$FILLMODE
 70
     1
  9
$QTEXTMODE
 70
     0
  9
$MIRRTEXT
 70
     1
  9
$DRAGMODE
 70
     2
  9
$LTSCALE
 40
1.0
  9
$OSMODE
 70
     0
  9
$ATTMODE
 70
     1
  9
$TEXTSIZE
 40
0.2
  9
$TRACEWID
 40
0.05
  9
$TEXTSTYLE
  7
STANDARD
  9
$CLAYER
  8
0
  9
$CELTYPE
  6
CONTINUOUS
  9
$CECOLOR
 62
   256
  9
$CELTSCALE
 40
1.0
  9
$DELOBJ
 70
     1
  9
$DISPSILH
 70
     0
  9
$DIMSCALE
 40
1.0
  9
$DIMASZ
 40
0.18
  9
$DIMEXO
 40
0.0625
  9
$DIMDLI
 40
0.38
  9
$DIMRND
 40
0.0
  9
$DIMDLE
 40
0.0
  9
$DIMEXE
 40
0.18
  9
$DIMTP
 40
0.0
  9
$DIMTM
 40
0.0
  9
$DIMTXT
 40
0.18
  9
$DIMCEN
 40
0.09
  9
$DIMTSZ
 40
0.0
  9
$DIMTOL
 70
     0
  9
$DIMLIM
 70
     0
  9
$DIMTIH
 70
     1
  9
$DIMTOH
 70
     1
  9
$DIMSE1
 70
     0
  9
$DIMSE2
 70
     0
  9
$DIMTAD
 70
     0
  9
$DIMZIN
 70
     0
  9
$DIMBLK
  1

  9
$DIMASO
 70
     1
  9
$DIMSHO
 70
     1
  9
$DIMPOST
  1

  9
$DIMAPOST
  1

  9
$DIMALT
 70
     0
  9
$DIMALTD
 70
     2
  9
$DIMALTF
 40
25.4
  9
$DIMLFAC
 40
1.0
  9
$DIMTOFL
 70
     0
  9
$DIMTVP
 40
0.0
  9
$DIMTIX
 70
     0
  9
$DIMSOXD
 70
     0
  9
$DIMSAH
 70
     0
  9
$DIMBLK1
  1

  9
$DIMBLK2
  1

  9
$DIMSTYLE
  2
STANDARD
  9
$DIMCLRD
 70
     0
  9
$DIMCLRE
 70
     0
  9
$DIMCLRT
 70
     0
  9
$DIMTFAC
 40
1.0
  9
$DIMGAP
 40
0.09
  9
$DIMJUST
 70
     0
  9
$DIMSD1
 70
     0
  9
$DIMSD2
 70
     0
  9
$DIMTOLJ
 70
     1
  9
$DIMTZIN
 70
     0
  9
$DIMALTZ
 70
     0
  9
$DIMALTTZ
 70
     0
  9
$DIMFIT
 70
     3
  9
$DIMUPT
 70
     0
  9
$DIMUNIT
 70
     2
  9
$DIMDEC
 70
     4
  9
$DIMTDEC
 70
     4
  9
$DIMALTU
 70
     2
  9
$DIMALTTD
 70
     2
  9
$DIMTXSTY
  7
STANDARD
  9
$DIMAUNIT
 70
     0
  9
$LUNITS
 70
     2
  9
$LUPREC
 70
     4
  9
$SKETCHINC
 40
0.1
  9
$FILLETRAD
 40
0.0
  9
$AUNITS
 70
     0
  9
$AUPREC
 70
     0
  9
$MENU
  1
acad
  9
$ELEVATION
 40
0.0
  9
$PELEVATION
 40
0.0
  9
$THICKNESS
 40
0.0
  9
$LIMCHECK
 70
     0
  9
$BLIPMODE
 70
     1
  9
$CHAMFERA
 40
0.0
  9
$CHAMFERB
 40
0.0
  9
$CHAMFERC
 40
0.0
  9
$CHAMFERD
 40
0.0
  9
$SKPOLY
 70
     0
  9
$TDCREATE
 40
0.000000000
  9
$TDUPDATE
 40
0.000000000
  9
$TDINDWG
 40
0.0000000000
  9
$TDUSRTIMER
 40
0.0000000000
  9
$USRTIMER
 70
     1
  9
$ANGBASE
 50
0.0
  9
$ANGDIR
 70
     0
  9
$PDMODE
 70
     0
  9
$PDSIZE
 40
0.0
  9
$PLINEWID
 40
0.0
  9
$COORDS
 70
     0
  9
$SPLFRAME
 70
     0
  9
$SPLINETYPE
 70
     6
  9
$SPLINESEGS
 70
     8
  9
$ATTDIA
 70
     0
  9
$ATTREQ
 70
     1
  9
$HANDLING
 70
     1
  9
$HANDSEED
  5
      D0
  9
$SURFTAB1
 70
     6
  9
$SURFTAB2
 70
     6
  9
$SURFTYPE
 70
     6
  9
$SURFU
 70
     6
  9
$SURFV
 70
     6
  9
$UCSNAME
  2

  9
$UCSORG
 10
0.0
 20
0.0
 30
0.0
  9
$UCSXDIR
 10
1.0
 20
0.0
 30
0.0
  9
$UCSYDIR
 10
0.0
 20
1.0
 30
0.0
  9
$PUCSNAME
  2

  9
$PUCSORG
 10
0.0
 20
0.0
 30
0.0
  9
$PUCSXDIR
 10
1.0
 20
0.0
 30
0.0
  9
$PUCSYDIR
 10
0.0
 20
1.0
 30
0.0
  9
$USERI1
 70
     0
  9
$USERI2
 70
     0
  9
$USERI3
 70
     0
  9
$USERI4
 70
     0
  9
$USERI5
 70
     0
  9
$USERR1
 40
0.0
  9
$USERR2
 40
0.0
  9
$USERR3
 40
0.0
  9
$USERR4
 40
0.0
  9
$USERR5
 40
0.0
  9
$WORLDVIEW
 70
     1
  9
$SHADEDGE
 70
     3
  9
$SHADEDIF
 70
    70
  9
$TILEMODE
 70
     1
  9
$MAXACTVP
 70
    16
  9
$PINSBASE
 10
0.0
 20
0.0
 30
0.0
  9
$PLIMCHECK
 70
     0
 9
$PEXTMIN
 10
25.6308999999979
 20
13.3965048828125
 30
0.0
 9
$PEXTMAX
 10
125.8071
 20
136.556240304905
 30
0.0
 9
$PLIMMIN
 10
0
 20
0
 9
$PLIMMAX
 10
157
 20
165
  9
$UNITMODE
 70
     0
  9
$VISRETAIN
 70
     0
  9
$PLINEGEN
 70
     1
  9
$PSLTSCALE
 70
     0
  9
$TREEDEPTH
 70
  3020
  9
$PICKSTYLE
 70
     1
  9
$CMLSTYLE
  2
STANDARD
  9
$CMLJUST
 70
     0
  9
$CMLSCALE
 40
1.0
  9
$PROXYGRAPHICS
 70
     0
  9
$MEASUREMENT
 70
     0
  0
ENDSEC
  0
SECTION
  2
CLASSES
  0
CLASS
  1
LWPOLYLINE
  2
AcDbPolyline
  3
"AutoCAD"
 90
        0
280
     0
281
     1
  0
CLASS
  1
IMAGE
  2
AcDbRasterImage
  3
ISM
 90
      127
280
     0
281
     1
  0
CLASS
  1
OLE2FRAME
  2
AcDbOle2Frame
  3
""
 90
        0
280
     0
281
     1
  0
CLASS
  1
HATCH
  2
AcDbHatch
  3
"ACAD_SEDONA"
 90
        0
280
     0
281
     1
  0
CLASS
  1
DICTIONARYVAR
  2
AcDbDictionaryVar
  3
"AutoCAD"
 90
        0
280
     0
281
     0
  0
CLASS
  1
RASTERVARIABLES
  2
AcDbRasterVariables
  3
ISM
 90
        0
280
     0
281
     0
  0
CLASS
  1
IMAGEDEF
  2
AcDbRasterImageDef
  3
ISM
 90
        0
280
     0
281
     0
  0
CLASS
  1
IMAGEDEF_REACTOR
  2
AcDbRasterImageDefReactor
  3
ISM
 90
        1
280
     0
281
     0
  0
CLASS
  1
IDBUFFER
  2
AcDbIdBuffer
  3
"Acad"
 90
        0
280
     0
281
     0
  0
CLASS
  1
SPATIAL_FILTER
  2
AcDbSpatialFilter
  3
"Acad"
 90
        0
280
     0
281
     0
  0
CLASS
  1
XRECORD
  2
AcDbXrecord
  3
"<Built In>"
 90
        0
280
     0
281
     0
  0
CLASS
  1
SORTENTSTABLE
  2
AcDbSortentsTable
  3
"AutoCAD"
 90
        0
280
     0
281
     0
  0
CLASS
  1
LAYER_INDEX
  2
AcDbLayerIndex
  3
"Acad"
 90
        0
280
     0
281
     0
  0
CLASS
  1
SPATIAL_INDEX
  2
AcDbSpatialIndex
  3
"Acad"
 90
        0
280
     0
281
     0
  0
CLASS
  1
OBJECT_PTR
  2
CAseDLPNTableRecord
  3
"ASE-LPNTableRecord"
 90
        1
280
     0
281
     0
  0
ENDSEC
  0
SECTION
  2
TABLES
  0
TABLE
  2
VPORT
  5
7
100
AcDbSymbolTable
 70
     1
  0
VPORT
  5
15
100
AcDbSymbolTableRecord
100
AcDbViewportTableRecord
 2
*ACTIVE
 70
     0
 10
0
 20
0
 11
1.0
 21
1.0
 12
0.0
 22
0.0
 13
0.0
 23
0.0
 14
1.0
 24
1.0
 15
0.0
 25
0.0
 16
0.0
 26
0.0
 36
1.0
 17
75.7189999999989
 27
74.9763725938586
 37
0.0
 40
127.159735422092
 41
0.819254614317977
 42
50.0
 43
0.0
 44
0.0
 50
0.0
 51
0.0
 71
     0
 72
   100
 73
     1
 74
     1
 75
     0
 76
     0
 77
     0
 78
     0
   0
ENDTAB
  0
TABLE
  2
LTYPE
  5
4
100
AcDbSymbolTable
 70
3
  0
LTYPE
  5
11
100
AcDbSymbolTableRecord
100
AcDbLinetypeTableRecord
  2
BYBLOCK
 70
     0
  3

 72
    65
 73
     0
 40
0.0
  0
LTYPE
  5
12
100
AcDbSymbolTableRecord
100
AcDbLinetypeTableRecord
  2
BYLAYER
 70
     0
  3

 72
    65
 73
     0
 40
0.0
  0
LTYPE
  5
80
330
5
100
AcDbSymbolTableRecord
100
AcDbLinetypeTableRecord
  2
CONTINUOUS
 70
     0
  3
Continuous
 72
    65
 73
     0
 40
0.0
  0
LTYPE
  5
81
330
5
100
AcDbSymbolTableRecord
100
AcDbLinetypeTableRecord
  2
DASH
 70
     0
  3
Dash
 72
    65
 73
     2
 40
48.0
 49
24.0
 74
     0
 49
-24.0
 74
     0
  0
LTYPE
  5
82
330
5
100
AcDbSymbolTableRecord
100
AcDbLinetypeTableRecord
  2
DASHDOT
 70
     0
  3
DashDot
 72
    65
 73
     4
 40
48.0
 49
24.0
 74
     0
 49
 -12.0
 74
     0
 49
0.0
 74
     0
 49
 -12.0
 74
     0	
  0
ENDTAB
  0
TABLE
  2
LAYER
  5
2
100
AcDbSymbolTable
 70
4              
  0
LAYER
  5
83
100
AcDbSymbolTableRecord
100
AcDbLayerTableRecord
  2
0
 70
     0
 62
     7
  6
CONTINUOUS
 0
LAYER
  5
84
100
AcDbSymbolTableRecord
100
AcDbLayerTableRecord
 2
Layer0
 70
 64
 62
 7
 6
CONTINUOUS
 0
LAYER
  5
85
100
AcDbSymbolTableRecord
100
AcDbLayerTableRecord
 2
Layer8
 70
 64
 62
 8
 6
CONTINUOUS
 0
LAYER
  5
86
100
AcDbSymbolTableRecord
100
AcDbLayerTableRecord
 2
Layer22
 70
 64
 62
 22
 6
CONTINUOUS
  0
ENDTAB
  0
TABLE
  2
STYLE
  5
3
100
AcDbSymbolTable
 70
1              
 0
STYLE
 5
17
100
AcDbSymbolTableRecord
100
AcDbTextStyleTableRecord
 2
STANDARD
 70
 0
 40
 0.0
 41
 1.0
 50
 0.0
 71
  0
 42
 8.0
 3
 txt
 4

  0
ENDTAB
  0
TABLE
  2
VIEW
  5
5
100
AcDbSymbolTable
 70
     0
  0
ENDTAB
  0
TABLE
  2
UCS
  5
6
100
AcDbSymbolTable
 70
     0
  0
ENDTAB
  0
TABLE
  2
APPID
  5
8
100
AcDbSymbolTable
 70
     1
  0
APPID
  5
16
100
AcDbSymbolTableRecord
100
AcDbRegAppTableRecord
  2
ACAD
 70
     0
  0
ENDTAB
  0
TABLE
  2
DIMSTYLE
  5
9
100
AcDbSymbolTable
 70
     1
  0
DIMSTYLE
105
18
100
AcDbSymbolTableRecord
100
AcDbDimStyleTableRecord
  2
STANDARD
 70
     0
  3

  4

  5

  6

  7

 40
1.0
 41
0.18
 42
0.0625
 43
0.38
 44
0.18
 45
0.0
 46
0.0
 47
0.0
 48
0.0
140
0.18
141
0.09
142
0.0
143
25.4
144
1.0
145
0.0
146
1.0
147
0.09
 71
     0
 72
     0
 73
     1
 74
     1
 75
     0
 76
     0
 77
     0
 78
     0
170
     0
171
     2
172
     0
173
     0
174
     0
175
     0
176
     0
177
     0
178
     0
270
     2
271
     4
272
     4
273
     2
274
     2
340
17
275
     0
280
     0
281
     0
282
     0
283
     1
284
     0
285
     0
286
     0
287
     0
288
     0
  0
ENDTAB
  0
TABLE
  2
BLOCK_RECORD
  5
1
100
AcDbSymbolTable
 70
     0
  0
BLOCK_RECORD
  5
A
100
AcDbSymbolTableRecord
100
AcDbBlockTableRecord
  2
*MODEL_SPACE
  0
BLOCK_RECORD
  5
B
100
AcDbSymbolTableRecord
100
AcDbBlockTableRecord
  2
*PAPER_SPACE
  0
ENDTAB
  0
ENDSEC
  0
SECTION
  2
BLOCKS
  0
BLOCK
  5
D
100
AcDbEntity
  8
0
100
AcDbBlockBegin
  2
*MODEL_SPACE
 70
     0
 10
0.0
 20
0.0
 30
0.0
  3
*MODEL_SPACE
  1

  0
ENDBLK
  5
E
100
AcDbEntity
  8
0
100
AcDbBlockEnd
  0
BLOCK
  5
F
100
AcDbEntity
 67
     1
  8
0
100
AcDbBlockBegin
  2
*PAPER_SPACE
 70
     0
 10
0.0
 20
0.0
 30
0.0
  3
*PAPER_SPACE
  1

  0
ENDBLK
  5
10
100
AcDbEntity
 67
     1
  8
0
100
AcDbBlockEnd
 0
ENDSEC
 0
SECTION
 2
ENTITIES
 0
LINE
 5
87
100
AcDbEntity
 8
Layer8
100
AcDbLine
 39
0.25
 370
106
 10
119.8093
 20
136.527904882812
 30
0.0
 11
124.0623
 21
136.527904882812
 31
0.0
 0
LINE
 5
88
100
AcDbEntity
 8
Layer8
100
AcDbLine
 39
0.25
 370
106
 10
119.8093
 20
82.8560048828125
 30
0.0
 11
124.0623
 21
82.8560048828125
 31
0.0
 0
LINE
 5
89
100
AcDbEntity
 8
Layer8
100
AcDbLine
 39
0.25
 370
106
 10
32.6326
 20
123.022104882813
 30
0.0
 11
36.8836
 21
123.022104882813
 31
0.0
 0
LINE
 5
8A
100
AcDbEntity
 8
Layer8
100
AcDbLine
 39
0.25
 370
106
 10
32.6326
 20
95.7154048828125
 30
0.0
 11
36.8836
 21
95.7154048828125
 31
0.0
 0
LINE
 5
8B
100
AcDbEntity
 8
Layer8
100
AcDbLine
 39
0.25
 370
106
 10
56.0584
 20
89.7359048828125
 30
0.0
 11
56.0584
 21
85.4839048828125
 31
0.0
 0
LWPOLYLINE
 5
8C
100
AcDbEntity
 8
Layer8
100
AcDbPolyline
 39
0.25
 370
106
 90
5              
 70
 1
 43
0.0
 10
100.762
 20
88.7300048828125
 10
58.991
 20
88.7300048828125
 10
58.991
 20
130.007004882813
 10
100.762
 20
130.007004882813
 10
100.762
 20
88.7300048828125
 0
ARC
 5
8D
100
AcDbEntity
 8
Layer8
100
AcDbCircle
 39
0.25
 370
106
 10
96.8732099634611
 20
101.788543087293
 30
0.0
 40
44.4892128437714
100
AcDbArc
 50
148.411428470959
 51
156.487178381298
 0
LINE
 5
8E
100
AcDbEntity
 8
Layer8
100
AcDbLine
 39
0.25
 370
106
 10
48.908
 20
89.7359048828125
 30
0.0
 11
48.908
 21
85.4839048828125
 31
0.0
 0
ARC
 5
8F
100
AcDbEntity
 8
Layer8
100
AcDbCircle
 39
0.25
 370
106
 10
84.4913654721186
 20
102.994387631032
 30
0.0
 40
34.5290106730768
100
AcDbArc
 50
111.05221995508
 51
128.410263806017
 0
ARC
 5
90
100
AcDbEntity
 8
Layer8
100
AcDbCircle
 39
0.25
 370
106
 10
80.7157751423387
 20
108.06198319987
 30
0.0
 40
28.4943461415876
100
AcDbArc
 50
84.8815481977401
 51
107.62540637123
 0
ARC
 5
91
100
AcDbEntity
 8
Layer8
100
AcDbCircle
 39
0.25
 370
106
 10
79.8118744415687
 20
107.050595515331
 30
0.0
 40
29.5934314539455
100
AcDbArc
 50
58.5163558617497
 51
83.3129866139504
 0
ARC
 5
92
100
AcDbEntity
 8
Layer8
100
AcDbCircle
 39
0.25
 370
106
 10
62.2250726148846
 20
77.7220301080434
 30
0.0
 40
63.7901139160152
100
AcDbArc
 50
55.0248633363134
 51
58.8030223235105
 0
LINE
 5
93
100
AcDbEntity
 8
Layer8
100
AcDbLine
 39
0.25
 370
106
 10
58.9759
 20
125.092704882813
 30
0.0
 11
58.9759
 21
130.080704882813
 31
0.0
 0
LINE
 5
94
100
AcDbEntity
 8
Layer8
100
AcDbLine
 39
0.25
 370
106
 10
58.9759
 20
130.080704882813
 30
0.0
 11
63.0389
 21
130.050704882813
 31
0.0
 0
ARC
 5
95
100
AcDbEntity
 8
Layer8
100
AcDbCircle
 39
0.25
 370
106
 10
77.2604850120225
 20
108.195778130366
 30
0.0
 40
31.0765306257628
100
AcDbArc
 50
17.7786568605206
 51
40.8630652736012
 0
ARC
 5
96
100
AcDbEntity
 8
Layer8
100
AcDbCircle
 39
0.25
 370
106
 10
83.2299209488778
 20
109.830695268659
 30
0.0
 40
24.8943890519326
100
AcDbArc
 50
-11.7698731031335
 51
18.3905883262403
 0
ARC
 5
97
100
AcDbEntity
 8
Layer8
100
AcDbCircle
 39
0.25
 370
106
 10
75.4920559973365
 20
111.706342483878
 30
0.0
 40
32.853172435464
100
AcDbArc
 50
-31.3832844960742
 51
-12.2195344766309
 0
ARC
 5
98
100
AcDbEntity
 8
Layer8
100
AcDbCircle
 39
0.25
 370
106
 10
81.6271582416425
 20
108.253224346281
 30
0.0
 40
25.818552219327
100
AcDbArc
 50
-41.9807000863271
 51
-31.9313903484643
 0
LINE
 5
99
100
AcDbEntity
 8
Layer8
100
AcDbLine
 39
0.25
 370
106
 10
98.7909
 20
129.991704882813
 30
0.0
 11
100.7309
 21
130.050704882813
 31
0.0
 0
LINE
 5
9A
100
AcDbEntity
 8
Layer8
100
AcDbLine
 39
0.25
 370
106
 10
100.7309
 20
130.050704882813
 30
0.0
 11
100.7629
 21
128.527704882813
 31
0.0
 0
ARC
 5
9B
100
AcDbEntity
 8
Layer8
100
AcDbCircle
 39
0.25
 370
106
 10
81.1158426156271
 20
110.138168194432
 30
0.0
 40
27.2809151621806
100
AcDbArc
 50
-102.848919686411
 51
-51.6493535237218
 0
ARC
 5
9C
100
AcDbEntity
 8
Layer8
100
AcDbCircle
 39
0.25
 370
106
 10
86.0161857316714
 20
125.983623882512
 30
0.0
 40
43.8372782344234
100
AcDbArc
 50
-115.46106796433
 51
-104.488015792164
 0
ARC
 5
9D
100
AcDbEntity
 8
Layer8
100
AcDbCircle
 39
0.25
 370
106
 10
73.5066213554234
 20
99.9754985404165
 30
0.0
 40
14.9777235111117
100
AcDbArc
 50
-127.396892713675
 51
-115.0258392008
 0
ARC
 5
9E
100
AcDbEntity
 8
Layer8
100
AcDbCircle
 39
0.25
 370
106
 10
66.4016788824584
 20
90.7840426302228
 30
0.0
 40
3.36110568098424
100
AcDbArc
 50
-141.977618434282
 51
-126.335982266881
 0
LINE
 5
9F
100
AcDbEntity
 8
Layer8
100
AcDbLine
 39
0.25
 370
106
 10
100.8199
 20
90.9837048828125
 30
0.0
 11
100.8199
 21
88.6537048828125
 31
0.0
 0
LINE
 5
A0
100
AcDbEntity
 8
Layer8
100
AcDbLine
 39
0.25
 370
106
 10
100.8199
 20
88.6537048828125
 30
0.0
 11
98.0429
 21
88.7437048828125
 31
0.0
 0
ARC
 5
A1
100
AcDbEntity
 8
Layer8
100
AcDbCircle
 39
0.25
 370
106
 10
78.0437503797063
 20
107.865230510374
 30
0.0
 40
23.1447322893108
100
AcDbArc
 50
-161.863526927472
 51
-145.472345346966
 0
LWPOLYLINE
 5
A2
100
AcDbEntity
 8
Layer8
100
AcDbPolyline
 39
0.25
 370
106
 90
5              
 70
 1
 43
0.0
 10
100.762
 20
88.7300048828125
 10
58.991
 20
88.7300048828125
 10
58.991
 20
130.007004882813
 10
100.762
 20
130.007004882813
 10
100.762
 20
88.7300048828125
 0
ARC
 5
A3
100
AcDbEntity
 8
Layer8
100
AcDbCircle
 39
0.25
 370
106
 10
96.8732099634611
 20
101.788543087293
 30
0.0
 40
44.4892128437714
100
AcDbArc
 50
148.411428470959
 51
156.487178381298
 0
LINE
 5
A4
100
AcDbEntity
 8
Layer8
100
AcDbLine
 39
0.25
 370
106
 10
63.7539
 20
88.7137048828125
 30
0.0
 11
58.9759
 21
88.7137048828125
 31
0.0
 0
LINE
 5
A5
100
AcDbEntity
 8
Layer8
100
AcDbLine
 39
0.25
 370
106
 10
58.9759
 20
88.7137048828125
 30
0.0
 11
58.9759
 21
94.7467048828125
 31
0.0
 0
ARC
 5
A6
100
AcDbEntity
 8
Layer8
100
AcDbCircle
 39
0.25
 370
106
 10
84.4913654721186
 20
102.994387631032
 30
0.0
 40
34.5290106730768
100
AcDbArc
 50
111.05221995508
 51
128.410263806017
 0
ARC
 5
A7
100
AcDbEntity
 8
Layer8
100
AcDbCircle
 39
0.25
 370
106
 10
80.7157751423387
 20
108.06198319987
 30
0.0
 40
28.4943461415876
100
AcDbArc
 50
84.8815481977401
 51
107.62540637123
 0
ARC
 5
A8
100
AcDbEntity
 8
Layer8
100
AcDbCircle
 39
0.25
 370
106
 10
79.8118744415687
 20
107.050595515331
 30
0.0
 40
29.5934314539455
100
AcDbArc
 50
58.5163558617497
 51
83.3129866139504
 0
ARC
 5
A9
100
AcDbEntity
 8
Layer8
100
AcDbCircle
 39
0.25
 370
106
 10
62.2250726148846
 20
77.7220301080434
 30
0.0
 40
63.7901139160152
100
AcDbArc
 50
55.0248633363134
 51
58.8030223235105
 0
LINE
 5
AA
100
AcDbEntity
 8
Layer8
100
AcDbLine
 39
0.25
 370
106
 10
58.9759
 20
125.092704882813
 30
0.0
 11
58.9759
 21
130.080704882813
 31
0.0
 0
LINE
 5
AB
100
AcDbEntity
 8
Layer8
100
AcDbLine
 39
0.25
 370
106
 10
58.9759
 20
130.080704882813
 30
0.0
 11
63.0389
 21
130.050704882813
 31
0.0
 0
ARC
 5
AC
100
AcDbEntity
 8
Layer8
100
AcDbCircle
 39
0.25
 370
106
 10
77.2604850120225
 20
108.195778130366
 30
0.0
 40
31.0765306257628
100
AcDbArc
 50
17.7786568605206
 51
40.8630652736012
 0
ARC
 5
AD
100
AcDbEntity
 8
Layer8
100
AcDbCircle
 39
0.25
 370
106
 10
83.2299209488778
 20
109.830695268659
 30
0.0
 40
24.8943890519326
100
AcDbArc
 50
-11.7698731031335
 51
18.3905883262403
 0
ARC
 5
AE
100
AcDbEntity
 8
Layer8
100
AcDbCircle
 39
0.25
 370
106
 10
75.4920559973365
 20
111.706342483878
 30
0.0
 40
32.853172435464
100
AcDbArc
 50
-31.3832844960742
 51
-12.2195344766309
 0
ARC
 5
AF
100
AcDbEntity
 8
Layer8
100
AcDbCircle
 39
0.25
 370
106
 10
81.6271582416425
 20
108.253224346281
 30
0.0
 40
25.818552219327
100
AcDbArc
 50
-41.9807000863271
 51
-31.9313903484643
 0
LINE
 5
B0
100
AcDbEntity
 8
Layer8
100
AcDbLine
 39
0.25
 370
106
 10
98.7909
 20
129.991704882813
 30
0.0
 11
100.7309
 21
130.050704882813
 31
0.0
 0
LINE
 5
B1
100
AcDbEntity
 8
Layer8
100
AcDbLine
 39
0.25
 370
106
 10
100.7309
 20
130.050704882813
 30
0.0
 11
100.7629
 21
128.527704882813
 31
0.0
 0
ARC
 5
B2
100
AcDbEntity
 8
Layer8
100
AcDbCircle
 39
0.25
 370
106
 10
81.1158426156271
 20
110.138168194432
 30
0.0
 40
27.2809151621806
100
AcDbArc
 50
-102.848919686411
 51
-51.6493535237218
 0
ARC
 5
B3
100
AcDbEntity
 8
Layer8
100
AcDbCircle
 39
0.25
 370
106
 10
86.0161857316714
 20
125.983623882512
 30
0.0
 40
43.8372782344234
100
AcDbArc
 50
-115.46106796433
 51
-104.488015792164
 0
ARC
 5
B4
100
AcDbEntity
 8
Layer8
100
AcDbCircle
 39
0.25
 370
106
 10
73.5066213554234
 20
99.9754985404165
 30
0.0
 40
14.9777235111117
100
AcDbArc
 50
-127.396892713675
 51
-115.0258392008
 0
ARC
 5
B5
100
AcDbEntity
 8
Layer8
100
AcDbCircle
 39
0.25
 370
106
 10
66.4016788824584
 20
90.7840426302228
 30
0.0
 40
3.36110568098424
100
AcDbArc
 50
-141.977618434282
 51
-126.335982266881
 0
LINE
 5
B6
100
AcDbEntity
 8
Layer8
100
AcDbLine
 39
0.25
 370
106
 10
100.8199
 20
90.9837048828125
 30
0.0
 11
100.8199
 21
88.6537048828125
 31
0.0
 0
LINE
 5
B7
100
AcDbEntity
 8
Layer8
100
AcDbLine
 39
0.25
 370
106
 10
100.8199
 20
88.6537048828125
 30
0.0
 11
98.0429
 21
88.7437048828125
 31
0.0
 0
ARC
 5
B8
100
AcDbEntity
 8
Layer8
100
AcDbCircle
 39
0.25
 370
106
 10
78.0437503797063
 20
107.865230510374
 30
0.0
 40
23.1447322893108
100
AcDbArc
 50
-161.863526927472
 51
-145.472345346966
 0
LINE
 5
B9
100
AcDbEntity
 8
Layer8
100
AcDbLine
 39
0.25
 370
106
 10
63.7539
 20
88.7137048828125
 30
0.0
 11
58.9759
 21
88.7137048828125
 31
0.0
 0
LINE
 5
BA
100
AcDbEntity
 8
Layer8
100
AcDbLine
 39
0.25
 370
106
 10
58.9759
 20
88.7137048828125
 30
0.0
 11
58.9759
 21
94.7467048828125
 31
0.0
 0
ARC
 5
BB
100
AcDbEntity
 8
Layer8
100
AcDbCircle
 39
0.25
 370
106
 10
55.4186790257641
 20
96.3631778681109
 30
0.0
 40
0.648155996247341
100
AcDbArc
 50
-91.9698122856309
 51
9.25365032473435
 0
ARC
 5
BC
100
AcDbEntity
 8
Layer8
100
AcDbCircle
 39
0.25
 370
106
 10
55.4499000000022
 20
122.406965824643
 30
0.0
 40
0.617760054002416
100
AcDbArc
 50
-9.93295509642216
 51
94.9682217042622
 0
LINE
 5
BD
100
AcDbEntity
 8
Layer8
100
AcDbLine
 39
0.25
 370
106
 10
52.5834
 20
95.7154048828125
 30
0.0
 11
48.9084
 21
95.7154048828125
 31
0.0
 0
LINE
 5
BE
100
AcDbEntity
 8
Layer8
100
AcDbLine
 39
0.25
 370
106
 10
56.0584
 20
96.4674048828125
 30
0.0
 11
56.0584
 21
107.155404882813
 31
0.0
 0
LINE
 5
BF
100
AcDbEntity
 8
Layer8
100
AcDbLine
 39
0.25
 370
106
 10
56.0584
 20
96.5424048828125
 30
0.0
 11
56.0584
 21
122.300404882813
 31
0.0
 0
LINE
 5
C0
100
AcDbEntity
 8
Layer8
100
AcDbLine
 39
0.25
 370
106
 10
48.9024
 20
123.022404882813
 30
0.0
 11
55.3964
 21
123.022404882813
 31
0.0
 0
LINE
 5
C1
100
AcDbEntity
 8
Layer8
100
AcDbLine
 39
0.25
 370
106
 10
55.3964
 20
123.022404882813
 30
0.0
 11
55.3964
 21
95.7154048828125
 31
0.0
 0
LINE
 5
C2
100
AcDbEntity
 8
Layer8
100
AcDbLine
 39
0.25
 370
106
 10
55.3964
 20
95.7154048828125
 30
0.0
 11
52.5834
 21
95.7154048828125
 31
0.0
 0
HATCH
 5
C3
100
AcDbEntity
 8
Layer22
100
AcDbHatch
 10
 0.0
 20
 0.0
 30
 0.0
 210
 0.0
 220
 0.0
 230
 1.0
 2
SOLID
 70
 1
 71
 1
 91
1              
 92
 0
 93
42             
 72
 1
 10
25.8362
 20
13.7262048828125
 11
29.8742
 21
13.7262048828125
 72
 1
 10
29.8742
 20
13.7262048828125
 11
29.7532
 21
22.6072048828125
 72
 1
 10
29.7532
 20
22.6072048828125
 11
29.742088671875
 21
23.2889958984375
 72
 1
 10
29.742088671875
 20
23.2889958984375
 11
29.729559375
 21
24.0209080078125
 72
 1
 10
29.729559375
 20
24.0209080078125
 11
29.714194140625
 21
24.7857498046875
 72
 1
 10
29.714194140625
 20
24.7857498046875
 11
29.694575
 21
25.5663298828125
 72
 1
 10
29.694575
 20
25.5663298828125
 11
29.669283984375
 21
26.3454568359375
 72
 1
 10
29.669283984375
 20
26.3454568359375
 11
29.636903125
 21
27.1059392578125
 72
 1
 10
29.636903125
 20
27.1059392578125
 11
29.596014453125
 21
27.8305857421875
 72
 1
 10
29.596014453125
 20
27.8305857421875
 11
29.5452
 21
28.5022048828125
 72
 1
 10
29.5452
 20
28.5022048828125
 11
29.731323046875
 21
27.9463708984375
 72
 1
 10
29.731323046875
 20
27.9463708984375
 11
29.989059375
 21
27.2595330078125
 72
 1
 10
29.989059375
 20
27.2595330078125
 11
30.306209765625
 21
26.4648123046875
 72
 1
 10
30.306209765625
 20
26.4648123046875
 11
30.670575
 21
25.5853298828125
 72
 1
 10
30.670575
 20
25.5853298828125
 11
31.069955859375
 21
24.6442068359375
 72
 1
 10
31.069955859375
 20
24.6442068359375
 11
31.492153125
 21
23.6645642578125
 72
 1
 10
31.492153125
 20
23.6645642578125
 11
31.924967578125
 21
22.6695232421875
 72
 1
 10
31.924967578125
 20
22.6695232421875
 11
32.3562
 21
21.6822048828125
 72
 1
 10
32.3562
 20
21.6822048828125
 11
35.9162
 21
13.7262048828125
 72
 1
 10
35.9162
 20
13.7262048828125
 11
40.2822
 21
13.7262048828125
 72
 1
 10
40.2822
 20
13.7262048828125
 11
40.2822
 21
34.5122048828125
 72
 1
 10
40.2822
 20
34.5122048828125
 11
36.3042
 21
34.5122048828125
 72
 1
 10
36.3042
 20
34.5122048828125
 11
36.3942
 21
26.0182048828125
 72
 1
 10
36.3942
 20
26.0182048828125
 11
36.410549609375
 21
25.4269216796875
 72
 1
 10
36.410549609375
 20
25.4269216796875
 11
36.436871875
 21
24.7471267578125
 72
 1
 10
36.436871875
 20
24.7471267578125
 11
36.471701953125
 21
24.0055271484375
 72
 1
 10
36.471701953125
 20
24.0055271484375
 11
36.513575
 21
23.2288298828125
 72
 1
 10
36.513575
 20
23.2288298828125
 11
36.561026171875
 21
22.4437419921875
 72
 1
 10
36.561026171875
 20
22.4437419921875
 11
36.612590625
 21
21.6769705078125
 72
 1
 10
36.612590625
 20
21.6769705078125
 11
36.666803515625
 21
20.9552224609375
 72
 1
 10
36.666803515625
 20
20.9552224609375
 11
36.7222
 21
20.3052048828125
 72
 1
 10
36.7222
 20
20.3052048828125
 11
36.5475046875
 21
20.8968416015625
 72
 1
 10
36.5475046875
 20
20.8968416015625
 11
36.338075
 21
21.5453611328125
 72
 1
 10
36.338075
 20
21.5453611328125
 11
36.0956453125
 21
22.2430525390625
 72
 1
 10
36.0956453125
 20
22.2430525390625
 11
35.82195
 21
22.9822048828125
 72
 1
 10
35.82195
 20
22.9822048828125
 11
35.5187234375
 21
23.7551072265625
 72
 1
 10
35.5187234375
 20
23.7551072265625
 11
35.1877
 21
24.5540486328125
 72
 1
 10
35.1877
 20
24.5540486328125
 11
34.8306140625
 21
25.3713181640625
 72
 1
 10
34.8306140625
 20
25.3713181640625
 11
34.4492
 21
26.1992048828125
 72
 1
 10
34.4492
 20
26.1992048828125
 11
30.4732
 21
34.5122048828125
 72
 1
 10
30.4732
 20
34.5122048828125
 11
25.8362
 21
34.5122048828125
 72
 1
 10
25.8362
 20
34.5122048828125
 11
25.8362
 21
13.7262048828125
 97
 1
 330
C4
 75
 0
 76
 1
 98
 1
 10
 0.0
 20
 0.0
 0
HATCH
 5
C5
100
AcDbEntity
 8
Layer22
100
AcDbHatch
 10
 0.0
 20
 0.0
 30
 0.0
 210
 0.0
 220
 0.0
 230
 1.0
 2
SOLID
 70
 1
 71
 1
 91
1              
 92
 0
 93
12             
 72
 1
 10
42.7903
 20
34.5126048828125
 11
42.7903
 21
13.7266048828125
 72
 1
 10
42.7903
 20
13.7266048828125
 11
54.9043
 21
13.7266048828125
 72
 1
 10
54.9043
 20
13.7266048828125
 11
54.9043
 21
17.3156048828125
 72
 1
 10
54.9043
 20
17.3156048828125
 11
47.0393
 21
17.3156048828125
 72
 1
 10
47.0393
 20
17.3156048828125
 11
47.0393
 21
22.8776048828125
 72
 1
 10
47.0393
 20
22.8776048828125
 11
52.9293
 21
22.8776048828125
 72
 1
 10
52.9293
 20
22.8776048828125
 11
52.9293
 21
26.2886048828125
 72
 1
 10
52.9293
 20
26.2886048828125
 11
46.9773
 21
26.2886048828125
 72
 1
 10
46.9773
 20
26.2886048828125
 11
46.9773
 21
31.1026048828125
 72
 1
 10
46.9773
 20
31.1026048828125
 11
54.0953
 21
31.1026048828125
 72
 1
 10
54.0953
 20
31.1026048828125
 11
54.6343
 21
34.5126048828125
 72
 1
 10
54.6343
 20
34.5126048828125
 11
42.7903
 21
34.5126048828125
 97
 1
 330
C6
 75
 0
 76
 1
 98
 1
 10
 0.0
 20
 0.0
 0
HATCH
 5
C7
100
AcDbEntity
 8
Layer22
100
AcDbHatch
 10
 0.0
 20
 0.0
 30
 0.0
 210
 0.0
 220
 0.0
 230
 1.0
 2
SOLID
 70
 1
 71
 1
 91
1              
 92
 0
 93
49             
 72
 1
 10
56.4578
 20
13.7262048828125
 11
60.6748
 21
13.7262048828125
 72
 1
 10
60.6748
 20
13.7262048828125
 11
61.3918
 21
24.5832048828125
 72
 1
 10
61.3918
 20
24.5832048828125
 11
61.423798046875
 21
25.0598982421875
 72
 1
 10
61.423798046875
 20
25.0598982421875
 11
61.452784375
 21
25.5276267578125
 72
 1
 10
61.452784375
 20
25.5276267578125
 11
61.478372265625
 21
25.9884880859375
 72
 1
 10
61.478372265625
 20
25.9884880859375
 11
61.500175
 21
26.4445798828125
 72
 1
 10
61.500175
 20
26.4445798828125
 11
61.517805859375
 21
26.8979998046875
 72
 1
 10
61.517805859375
 20
26.8979998046875
 11
61.530878125
 21
27.3508455078125
 72
 1
 10
61.530878125
 20
27.3508455078125
 11
61.539005078125
 21
27.8052146484375
 72
 1
 10
61.539005078125
 20
27.8052146484375
 11
61.5418
 21
28.2632048828125
 72
 1
 10
61.5418
 20
28.2632048828125
 11
65.3408
 21
13.7262048828125
 72
 1
 10
65.3408
 20
13.7262048828125
 11
69.0198
 21
13.7262048828125
 72
 1
 10
69.0198
 20
13.7262048828125
 11
70.273903515625
 21
18.0921755859375
 72
 1
 10
70.273903515625
 20
18.0921755859375
 11
71.219253125
 21
21.3877205078125
 72
 1
 10
71.219253125
 20
21.3877205078125
 11
71.903157421875
 21
23.7817888671875
 72
 1
 10
71.903157421875
 20
23.7817888671875
 11
72.372925
 21
25.4433298828125
 72
 1
 10
72.372925
 20
25.4433298828125
 11
72.675864453125
 21
26.5412927734375
 72
 1
 10
72.675864453125
 20
26.5412927734375
 11
72.859284375
 21
27.2446267578125
 72
 1
 10
72.859284375
 20
27.2446267578125
 11
72.970493359375
 21
27.7222810546875
 72
 1
 10
72.970493359375
 20
27.7222810546875
 11
73.0568
 21
28.1432048828125
 72
 1
 10
73.0568
 20
28.1432048828125
 11
73.09792109375
 21
27.2056072265625
 72
 1
 10
73.09792109375
 20
27.2056072265625
 11
73.20633125
 21
25.4231111328125
 72
 1
 10
73.20633125
 20
25.4231111328125
 11
73.35960078125
 21
23.0946619140625
 72
 1
 10
73.35960078125
 20
23.0946619140625
 11
73.5353
 21
20.5192048828125
 72
 1
 10
73.5353
 20
20.5192048828125
 11
73.71099921875
 21
17.9956853515625
 72
 1
 10
73.71099921875
 20
17.9956853515625
 11
73.86426875
 21
15.8230486328125
 72
 1
 10
73.86426875
 20
15.8230486328125
 11
73.97267890625
 21
14.3002400390625
 72
 1
 10
73.97267890625
 20
14.3002400390625
 11
74.0138
 21
13.7262048828125
 72
 1
 10
74.0138
 20
13.7262048828125
 11
78.1418
 21
13.7262048828125
 72
 1
 10
78.1418
 20
13.7262048828125
 11
76.2878
 21
34.5122048828125
 72
 1
 10
76.2878
 20
34.5122048828125
 11
70.8138
 21
34.5122048828125
 72
 1
 10
70.8138
 20
34.5122048828125
 11
69.707962109375
 21
30.3834626953125
 72
 1
 10
69.707962109375
 20
30.3834626953125
 11
68.874409375
 21
27.2676423828125
 72
 1
 10
68.874409375
 20
27.2676423828125
 11
68.271458203125
 21
25.0056033203125
 72
 1
 10
68.271458203125
 20
25.0056033203125
 11
67.857425
 21
23.4382048828125
 72
 1
 10
67.857425
 20
23.4382048828125
 11
67.590626171875
 21
22.4063064453125
 72
 1
 10
67.590626171875
 20
22.4063064453125
 11
67.429378125
 21
21.7507673828125
 72
 1
 10
67.429378125
 20
21.7507673828125
 11
67.331997265625
 21
21.3124470703125
 72
 1
 10
67.331997265625
 20
21.3124470703125
 11
67.2568
 21
20.9322048828125
 72
 1
 10
67.2568
 20
20.9322048828125
 11
67.056934765625
 21
21.8252244140625
 72
 1
 10
67.056934765625
 20
21.8252244140625
 11
66.642628125
 21
23.5088611328125
 72
 1
 10
66.642628125
 20
23.5088611328125
 11
66.088188671875
 21
25.7027322265625
 72
 1
 10
66.088188671875
 20
25.7027322265625
 11
65.467925
 21
28.1264548828125
 72
 1
 10
65.467925
 20
28.1264548828125
 11
64.856145703125
 21
30.4996462890625
 72
 1
 10
64.856145703125
 20
30.4996462890625
 11
64.327159375
 21
32.5419236328125
 72
 1
 10
64.327159375
 20
32.5419236328125
 11
63.955274609375
 21
33.9729041015625
 72
 1
 10
63.955274609375
 20
33.9729041015625
 11
63.8148
 21
34.5122048828125
 72
 1
 10
63.8148
 20
34.5122048828125
 11
58.4028
 21
34.5122048828125
 72
 1
 10
58.4028
 20
34.5122048828125
 11
56.4578
 21
13.7262048828125
 97
 1
 330
C8
 75
 0
 76
 1
 98
 1
 10
 0.0
 20
 0.0
 0
HATCH
 5
C9
100
AcDbEntity
 8
Layer22
100
AcDbHatch
 10
 0.0
 20
 0.0
 30
 0.0
 210
 0.0
 220
 0.0
 230
 1.0
 2
SOLID
 70
 1
 71
 1
 91
2              
 92
 0
 93
56             
 72
 1
 10
92.0306
 20
28.9205048828125
 11
92.156172265625
 21
28.4655869140625
 72
 1
 10
92.156172265625
 20
28.4655869140625
 11
92.265115625
 21
27.9742236328125
 72
 1
 10
92.265115625
 20
27.9742236328125
 11
92.357394921875
 21
27.4436259765625
 72
 1
 10
92.357394921875
 20
27.4436259765625
 11
92.432975
 21
26.8710048828125
 72
 1
 10
92.432975
 20
26.8710048828125
 11
92.491820703125
 21
26.2535712890625
 72
 1
 10
92.491820703125
 20
26.2535712890625
 11
92.533896875
 21
25.5885361328125
 72
 1
 10
92.533896875
 20
25.5885361328125
 11
92.559168359375
 21
24.8731103515625
 72
 1
 10
92.559168359375
 20
24.8731103515625
 11
92.5676
 21
24.1045048828125
 72
 1
 10
92.5676
 20
24.1045048828125
 11
92.509297265625
 21
22.2625986328125
 72
 1
 10
92.509297265625
 20
22.2625986328125
 11
92.330865625
 21
20.6991298828125
 72
 1
 10
92.330865625
 20
20.6991298828125
 11
92.027019921875
 21
19.4039736328125
 72
 1
 10
92.027019921875
 20
19.4039736328125
 11
91.592475
 21
18.3670048828125
 72
 1
 10
91.592475
 20
18.3670048828125
 11
91.021945703125
 21
17.5780986328125
 72
 1
 10
91.021945703125
 20
17.5780986328125
 11
90.310146875
 21
17.0271298828125
 72
 1
 10
90.310146875
 20
17.0271298828125
 11
89.451793359375
 21
16.7039736328125
 72
 1
 10
89.451793359375
 20
16.7039736328125
 11
88.4416
 21
16.5985048828125
 72
 1
 10
88.4416
 20
16.5985048828125
 11
88.07823671875
 21
16.6096689453125
 72
 1
 10
88.07823671875
 20
16.6096689453125
 11
87.72938125
 21
16.6431923828125
 72
 1
 10
87.72938125
 20
16.6431923828125
 11
87.39538515625
 21
16.6991220703125
 72
 1
 10
87.39538515625
 20
16.6991220703125
 11
87.0766
 21
16.7775048828125
 72
 1
 10
87.0766
 20
16.7775048828125
 11
86.77337734375
 21
16.8783876953125
 72
 1
 10
86.77337734375
 20
16.8783876953125
 11
86.48606875
 21
17.0018173828125
 72
 1
 10
86.48606875
 20
17.0018173828125
 11
86.21502578125
 21
17.1478408203125
 72
 1
 10
86.21502578125
 20
17.1478408203125
 11
85.9606
 21
17.3165048828125
 72
 1
 10
85.9606
 20
17.3165048828125
 11
85.527949609375
 21
17.7239716796875
 72
 1
 10
85.527949609375
 20
17.7239716796875
 11
85.151959375
 21
18.2533017578125
 72
 1
 10
85.151959375
 20
18.2533017578125
 11
84.832945703125
 21
18.9055146484375
 72
 1
 10
84.832945703125
 20
18.9055146484375
 11
84.571225
 21
19.6816298828125
 72
 1
 10
84.571225
 20
19.6816298828125
 11
84.367113671875
 21
20.5826669921875
 72
 1
 10
84.367113671875
 20
20.5826669921875
 11
84.220928125
 21
21.6096455078125
 72
 1
 10
84.220928125
 20
21.6096455078125
 11
84.132984765625
 21
22.7635849609375
 72
 1
 10
84.132984765625
 20
22.7635849609375
 11
84.1036
 21
24.0455048828125
 72
 1
 10
84.1036
 20
24.0455048828125
 11
84.1191390625
 21
24.9556240234375
 72
 1
 10
84.1191390625
 20
24.9556240234375
 11
84.166225
 21
25.8036455078125
 72
 1
 10
84.166225
 20
25.8036455078125
 11
84.2455609375
 21
26.5920654296875
 72
 1
 10
84.2455609375
 20
26.5920654296875
 11
84.35785
 21
27.3233798828125
 72
 1
 10
84.35785
 20
27.3233798828125
 11
84.5037953125
 21
28.0000849609375
 72
 1
 10
84.5037953125
 20
28.0000849609375
 11
84.6841
 21
28.6246767578125
 72
 1
 10
84.6841
 20
28.6246767578125
 11
84.8994671875
 21
29.1996513671875
 72
 1
 10
84.8994671875
 20
29.1996513671875
 11
85.1506
 21
29.7275048828125
 72
 1
 10
85.1506
 20
29.7275048828125
 11
85.39512734375
 21
30.1234228515625
 72
 1
 10
85.39512734375
 20
30.1234228515625
 11
85.69775625
 21
30.4790986328125
 72
 1
 10
85.69775625
 20
30.4790986328125
 11
86.05218203125
 21
30.7906650390625
 72
 1
 10
86.05218203125
 20
30.7906650390625
 11
86.4521
 21
31.0542548828125
 72
 1
 10
86.4521
 20
31.0542548828125
 11
86.89120546875
 21
31.2660009765625
 72
 1
 10
86.89120546875
 20
31.2660009765625
 11
87.36319375
 21
31.4220361328125
 72
 1
 10
87.36319375
 20
31.4220361328125
 11
87.86176015625
 21
31.5184931640625
 72
 1
 10
87.86176015625
 20
31.5184931640625
 11
88.3806
 21
31.5515048828125
 72
 1
 10
88.3806
 20
31.5515048828125
 11
89.159930078125
 21
31.4814384765625
 72
 1
 10
89.159930078125
 20
31.4814384765625
 11
89.839240625
 21
31.2877861328125
 72
 1
 10
89.839240625
 20
31.2877861328125
 11
90.422387109375
 21
30.9953681640625
 72
 1
 10
90.422387109375
 20
30.9953681640625
 11
90.913225
 21
30.6290048828125
 72
 1
 10
90.913225
 20
30.6290048828125
 11
91.315609765625
 21
30.2135166015625
 72
 1
 10
91.315609765625
 20
30.2135166015625
 11
91.633396875
 21
29.7737236328125
 72
 1
 10
91.633396875
 20
29.7737236328125
 11
91.870441796875
 21
29.3344462890625
 72
 1
 10
91.870441796875
 20
29.3344462890625
 11
92.0306
 21
28.9205048828125
 97
 1
 330
CA
 92
 0
 93
56             
 72
 1
 10
84.1346
 20
33.7655048828125
 11
83.082070703125
 21
33.0601240234375
 72
 1
 10
83.082070703125
 20
33.0601240234375
 11
82.150678125
 21
32.1844580078125
 72
 1
 10
82.150678125
 20
32.1844580078125
 11
81.346340234375
 21
31.1508466796875
 72
 1
 10
81.346340234375
 20
31.1508466796875
 11
80.674975
 21
29.9716298828125
 72
 1
 10
80.674975
 20
29.9716298828125
 11
80.142500390625
 21
28.6591474609375
 72
 1
 10
80.142500390625
 20
28.6591474609375
 11
79.754834375
 21
27.2257392578125
 72
 1
 10
79.754834375
 20
27.2257392578125
 11
79.517894921875
 21
25.6837451171875
 72
 1
 10
79.517894921875
 20
25.6837451171875
 11
79.4376
 21
24.0455048828125
 72
 1
 10
79.4376
 20
24.0455048828125
 11
79.475414453125
 21
22.9211630859375
 72
 1
 10
79.475414453125
 20
22.9211630859375
 11
79.588615625
 21
21.8384580078125
 72
 1
 10
79.588615625
 20
21.8384580078125
 11
79.776840234375
 21
20.7993701171875
 72
 1
 10
79.776840234375
 20
20.7993701171875
 11
80.039725
 21
19.8058798828125
 72
 1
 10
80.039725
 20
19.8058798828125
 11
80.376906640625
 21
18.8599677734375
 72
 1
 10
80.376906640625
 20
18.8599677734375
 11
80.788021875
 21
17.9636142578125
 72
 1
 10
80.788021875
 20
17.9636142578125
 11
81.272707421875
 21
17.1187998046875
 72
 1
 10
81.272707421875
 20
17.1187998046875
 11
81.8306
 21
16.3275048828125
 72
 1
 10
81.8306
 20
16.3275048828125
 11
82.447348046875
 21
15.6095439453125
 72
 1
 10
82.447348046875
 20
15.6095439453125
 11
83.113959375
 21
14.9996298828125
 72
 1
 10
83.113959375
 20
14.9996298828125
 11
83.838109765625
 21
14.4939658203125
 72
 1
 10
83.838109765625
 20
14.4939658203125
 11
84.627475
 21
14.0887548828125
 72
 1
 10
84.627475
 20
14.0887548828125
 11
85.489730859375
 21
13.7802001953125
 72
 1
 10
85.489730859375
 20
13.7802001953125
 11
86.432553125
 21
13.5645048828125
 72
 1
 10
86.432553125
 20
13.5645048828125
 11
87.463617578125
 21
13.4378720703125
 72
 1
 10
87.463617578125
 20
13.4378720703125
 11
88.5906
 21
13.3965048828125
 72
 1
 10
88.5906
 20
13.3965048828125
 11
89.215836328125
 21
13.4094951171875
 72
 1
 10
89.215836328125
 20
13.4094951171875
 11
89.795428125
 21
13.4496142578125
 72
 1
 10
89.795428125
 20
13.4496142578125
 11
90.337074609375
 21
13.5185849609375
 72
 1
 10
90.337074609375
 20
13.5185849609375
 11
90.848475
 21
13.6181298828125
 72
 1
 10
90.848475
 20
13.6181298828125
 11
91.337328515625
 21
13.7499716796875
 72
 1
 10
91.337328515625
 20
13.7499716796875
 11
91.811334375
 21
13.9158330078125
 72
 1
 10
91.811334375
 20
13.9158330078125
 11
92.278191796875
 21
14.1174365234375
 72
 1
 10
92.278191796875
 20
14.1174365234375
 11
92.7456
 21
14.3565048828125
 72
 1
 10
92.7456
 20
14.3565048828125
 11
93.80458046875
 21
15.0679560546875
 72
 1
 10
93.80458046875
 20
15.0679560546875
 11
94.73369375
 21
15.9433642578125
 72
 1
 10
94.73369375
 20
15.9433642578125
 11
95.52944765625
 21
16.9753115234375
 72
 1
 10
95.52944765625
 20
16.9753115234375
 11
96.18835
 21
18.1563798828125
 72
 1
 10
96.18835
 20
18.1563798828125
 11
96.70690859375
 21
19.4791513671875
 72
 1
 10
96.70690859375
 20
19.4791513671875
 11
97.08163125
 21
20.9362080078125
 72
 1
 10
97.08163125
 20
20.9362080078125
 11
97.30902578125
 21
22.5201318359375
 72
 1
 10
97.30902578125
 20
22.5201318359375
 11
97.3856
 21
24.2235048828125
 72
 1
 10
97.3856
 20
24.2235048828125
 11
97.2281859375
 21
26.5494521484375
 72
 1
 10
97.2281859375
 20
26.5494521484375
 11
96.7660375
 21
28.6243955078125
 72
 1
 10
96.7660375
 20
28.6243955078125
 11
96.0142953125
 21
30.4301123046875
 72
 1
 10
96.0142953125
 20
30.4301123046875
 11
94.9881
 21
31.9483798828125
 72
 1
 10
94.9881
 20
31.9483798828125
 11
93.7025921875
 21
33.1609755859375
 72
 1
 10
93.7025921875
 20
33.1609755859375
 11
92.1729125
 21
34.0496767578125
 72
 1
 10
92.1729125
 20
34.0496767578125
 11
90.4142015625
 21
34.5962607421875
 72
 1
 10
90.4142015625
 20
34.5962607421875
 11
88.4416
 21
34.7825048828125
 72
 1
 10
88.4416
 20
34.7825048828125
 11
87.860035546875
 21
34.7657939453125
 72
 1
 10
87.860035546875
 20
34.7657939453125
 11
87.284459375
 21
34.7161298828125
 72
 1
 10
87.284459375
 20
34.7161298828125
 11
86.718047265625
 21
34.6342158203125
 72
 1
 10
86.718047265625
 20
34.6342158203125
 11
86.163975
 21
34.5207548828125
 72
 1
 10
86.163975
 20
34.5207548828125
 11
85.625418359375
 21
34.3764501953125
 72
 1
 10
85.625418359375
 20
34.3764501953125
 11
85.105553125
 21
34.2020048828125
 72
 1
 10
85.105553125
 20
34.2020048828125
 11
84.607555078125
 21
33.9981220703125
 72
 1
 10
84.607555078125
 20
33.9981220703125
 11
84.1346
 21
33.7655048828125
 97
 1
 330
CB
 75
 0
 76
 1
 98
 1
 10
 0.0
 20
 0.0
 0
LINE
 5
CC
100
AcDbEntity
 8
Layer8
100
AcDbLine
 39
0.25
 370
106
 10
48.908
 20
123.022104882813
 30
0.0
 11
48.908
 21
95.7151048828125
 31
0.0
 0
TEXT
 5
CD
100
AcDbEntity
 8
Layer8
100
AcDbText
 40
8.8
 41
0.61000
 72
0
 50
0
  1
2
  7
STANDARD
 10
49.8242
 20
74.7989048828125
 30
0.0
 11
49.8242
 21
74.7989048828125
 31
0.0
100
AcDbText
 73
  1
 0
TEXT
 5
CE
100
AcDbEntity
 8
Layer8
100
AcDbText
 40
8.8
 41
0.61000
 72
0
 50
-270
  1
7,5
  7
STANDARD
 10
38.6309
 20
102.833104882813
 30
0.0
 11
38.6309
 21
102.833104882813
 31
0.0
100
AcDbText
 73
  1
 0
TEXT
 5
CF
100
AcDbEntity
 8
Layer8
100
AcDbText
 40
8.8
 41
0.61000
 72
0
 50
-270
  1
Ø 15
  7
STANDARD
 10
125.8071
 20
100.042104882813
 30
0.0
 11
125.8071
 21
100.042104882813
 31
0.0
100
AcDbText
 73
  1
  0
ENDSEC
  0
SECTION
  2
OBJECTS
  0
DICTIONARY
  5
19
100
AcDbDictionary
  3
ACAD_GROUP
350
1A
  3
ACAD_MLINESTYLE
350
1B
  0
DICTIONARY
  5
1A
102
{ACAD_REACTORS
330
19
102
}
100
AcDbDictionary
  0
DICTIONARY
  5
1B
102
{ACAD_REACTORS
330
19
102
}
100
AcDbDictionary
  3
STANDARD
350
1C
  0
MLINESTYLE
  5
1C
102
{ACAD_REACTORS
330
1B
102
}
100
AcDbMlineStyle
  2
STANDARD
 70
     0
  3

 62
     0
 51
90.0
 52
90.0
 71
     2
 49
0.5
 62
   256
  6
BYLAYER
 49
-0.5
 62
   256
  6
BYLAYER
  0
ENDSEC
  0
EOF
