 999
SCAN2CAD Date : 01/26/16
 999
SCAN2CAD ScalePixelX : 1
 999
SCAN2CAD ScalePixelY : 1
 999
SCAN2CAD TileXOffset : 0
 999
SCAN2CAD TileYOffset : 0
 999
SCAN2CAD MeasureType : 1
 999
SCAN2CAD DotsPerInch : 0
 999
SCAN2CAD GeScalePixX : 1
 999
SCAN2CAD GeScalePixY : 1
 999
SCAN2CAD GeRasTiePtX : 0
 999
SCAN2CAD GeRasTiePtY : 0
 999
SCAN2CAD ScalRasDist : 1
 999
SCAN2CAD ScalVecDist : 1
 999
SCAN2CAD ScalUnitTyp : 0
 999
SCAN2CAD ScalDistFac : 1
 999
SCAN2CAD ScalAdjustX : 1
 999
SCAN2CAD ScalAdjustY : 1
 999
SCAN2CAD MeasureMeth : 1
 999
SCAN2CAD OgDrawScale : 1
 999
SCAN2CAD OgDrawUType : 0
 999
SCAN2CAD ToDrawScale : 1
 999
SCAN2CAD ToDrawUType : 0
  0
SECTION
  2
HEADER
  9
$ACADVER
  1
AC1014
  9
$ACADMAINTVER
 70
     0
  9
$DWGCODEPAGE
  3
ANSI_1252
  9
$INSBASE
 10
0.0
 20
0.0
 30
0.0
 9
$EXTMIN
 10
25.3905999999983
 20
31.6523938964844
 30
0.0
 9
$EXTMAX
 10
447.1217
 20
357.653493896484
 30
0.0
 9
$LIMMIN
 10
0
 20
0
 9
$LIMMAX
 10
476
 20
386
  9
$ORTHOMODE
 70
     0
  9
$REGENMODE
 70
     1
  9
$FILLMODE
 70
     1
  9
$QTEXTMODE
 70
     0
  9
$MIRRTEXT
 70
     1
  9
$DRAGMODE
 70
     2
  9
$LTSCALE
 40
1.0
  9
$OSMODE
 70
     0
  9
$ATTMODE
 70
     1
  9
$TEXTSIZE
 40
0.2
  9
$TRACEWID
 40
0.05
  9
$TEXTSTYLE
  7
STANDARD
  9
$CLAYER
  8
0
  9
$CELTYPE
  6
CONTINUOUS
  9
$CECOLOR
 62
   256
  9
$CELTSCALE
 40
1.0
  9
$DELOBJ
 70
     1
  9
$DISPSILH
 70
     0
  9
$DIMSCALE
 40
1.0
  9
$DIMASZ
 40
0.18
  9
$DIMEXO
 40
0.0625
  9
$DIMDLI
 40
0.38
  9
$DIMRND
 40
0.0
  9
$DIMDLE
 40
0.0
  9
$DIMEXE
 40
0.18
  9
$DIMTP
 40
0.0
  9
$DIMTM
 40
0.0
  9
$DIMTXT
 40
0.18
  9
$DIMCEN
 40
0.09
  9
$DIMTSZ
 40
0.0
  9
$DIMTOL
 70
     0
  9
$DIMLIM
 70
     0
  9
$DIMTIH
 70
     1
  9
$DIMTOH
 70
     1
  9
$DIMSE1
 70
     0
  9
$DIMSE2
 70
     0
  9
$DIMTAD
 70
     0
  9
$DIMZIN
 70
     0
  9
$DIMBLK
  1

  9
$DIMASO
 70
     1
  9
$DIMSHO
 70
     1
  9
$DIMPOST
  1

  9
$DIMAPOST
  1

  9
$DIMALT
 70
     0
  9
$DIMALTD
 70
     2
  9
$DIMALTF
 40
25.4
  9
$DIMLFAC
 40
1.0
  9
$DIMTOFL
 70
     0
  9
$DIMTVP
 40
0.0
  9
$DIMTIX
 70
     0
  9
$DIMSOXD
 70
     0
  9
$DIMSAH
 70
     0
  9
$DIMBLK1
  1

  9
$DIMBLK2
  1

  9
$DIMSTYLE
  2
STANDARD
  9
$DIMCLRD
 70
     0
  9
$DIMCLRE
 70
     0
  9
$DIMCLRT
 70
     0
  9
$DIMTFAC
 40
1.0
  9
$DIMGAP
 40
0.09
  9
$DIMJUST
 70
     0
  9
$DIMSD1
 70
     0
  9
$DIMSD2
 70
     0
  9
$DIMTOLJ
 70
     1
  9
$DIMTZIN
 70
     0
  9
$DIMALTZ
 70
     0
  9
$DIMALTTZ
 70
     0
  9
$DIMFIT
 70
     3
  9
$DIMUPT
 70
     0
  9
$DIMUNIT
 70
     2
  9
$DIMDEC
 70
     4
  9
$DIMTDEC
 70
     4
  9
$DIMALTU
 70
     2
  9
$DIMALTTD
 70
     2
  9
$DIMTXSTY
  7
STANDARD
  9
$DIMAUNIT
 70
     0
  9
$LUNITS
 70
     2
  9
$LUPREC
 70
     4
  9
$SKETCHINC
 40
0.1
  9
$FILLETRAD
 40
0.0
  9
$AUNITS
 70
     0
  9
$AUPREC
 70
     0
  9
$MENU
  1
acad
  9
$ELEVATION
 40
0.0
  9
$PELEVATION
 40
0.0
  9
$THICKNESS
 40
0.0
  9
$LIMCHECK
 70
     0
  9
$BLIPMODE
 70
     1
  9
$CHAMFERA
 40
0.0
  9
$CHAMFERB
 40
0.0
  9
$CHAMFERC
 40
0.0
  9
$CHAMFERD
 40
0.0
  9
$SKPOLY
 70
     0
  9
$TDCREATE
 40
0.000000000
  9
$TDUPDATE
 40
0.000000000
  9
$TDINDWG
 40
0.0000000000
  9
$TDUSRTIMER
 40
0.0000000000
  9
$USRTIMER
 70
     1
  9
$ANGBASE
 50
0.0
  9
$ANGDIR
 70
     0
  9
$PDMODE
 70
     0
  9
$PDSIZE
 40
0.0
  9
$PLINEWID
 40
0.0
  9
$COORDS
 70
     0
  9
$SPLFRAME
 70
     0
  9
$SPLINETYPE
 70
     6
  9
$SPLINESEGS
 70
     8
  9
$ATTDIA
 70
     0
  9
$ATTREQ
 70
     1
  9
$HANDLING
 70
     1
  9
$HANDSEED
  5
     36E
  9
$SURFTAB1
 70
     6
  9
$SURFTAB2
 70
     6
  9
$SURFTYPE
 70
     6
  9
$SURFU
 70
     6
  9
$SURFV
 70
     6
  9
$UCSNAME
  2

  9
$UCSORG
 10
0.0
 20
0.0
 30
0.0
  9
$UCSXDIR
 10
1.0
 20
0.0
 30
0.0
  9
$UCSYDIR
 10
0.0
 20
1.0
 30
0.0
  9
$PUCSNAME
  2

  9
$PUCSORG
 10
0.0
 20
0.0
 30
0.0
  9
$PUCSXDIR
 10
1.0
 20
0.0
 30
0.0
  9
$PUCSYDIR
 10
0.0
 20
1.0
 30
0.0
  9
$USERI1
 70
     0
  9
$USERI2
 70
     0
  9
$USERI3
 70
     0
  9
$USERI4
 70
     0
  9
$USERI5
 70
     0
  9
$USERR1
 40
0.0
  9
$USERR2
 40
0.0
  9
$USERR3
 40
0.0
  9
$USERR4
 40
0.0
  9
$USERR5
 40
0.0
  9
$WORLDVIEW
 70
     1
  9
$SHADEDGE
 70
     3
  9
$SHADEDIF
 70
    70
  9
$TILEMODE
 70
     1
  9
$MAXACTVP
 70
    16
  9
$PINSBASE
 10
0.0
 20
0.0
 30
0.0
  9
$PLIMCHECK
 70
     0
 9
$PEXTMIN
 10
25.3905999999983
 20
31.6523938964844
 30
0.0
 9
$PEXTMAX
 10
447.1217
 20
357.653493896484
 30
0.0
 9
$PLIMMIN
 10
0
 20
0
 9
$PLIMMAX
 10
476
 20
386
  9
$UNITMODE
 70
     0
  9
$VISRETAIN
 70
     0
  9
$PLINEGEN
 70
     1
  9
$PSLTSCALE
 70
     0
  9
$TREEDEPTH
 70
  3020
  9
$PICKSTYLE
 70
     1
  9
$CMLSTYLE
  2
STANDARD
  9
$CMLJUST
 70
     0
  9
$CMLSCALE
 40
1.0
  9
$PROXYGRAPHICS
 70
     0
  9
$MEASUREMENT
 70
     0
  0
ENDSEC
  0
SECTION
  2
CLASSES
  0
CLASS
  1
LWPOLYLINE
  2
AcDbPolyline
  3
"AutoCAD"
 90
        0
280
     0
281
     1
  0
CLASS
  1
IMAGE
  2
AcDbRasterImage
  3
ISM
 90
      127
280
     0
281
     1
  0
CLASS
  1
OLE2FRAME
  2
AcDbOle2Frame
  3
""
 90
        0
280
     0
281
     1
  0
CLASS
  1
HATCH
  2
AcDbHatch
  3
"ACAD_SEDONA"
 90
        0
280
     0
281
     1
  0
CLASS
  1
DICTIONARYVAR
  2
AcDbDictionaryVar
  3
"AutoCAD"
 90
        0
280
     0
281
     0
  0
CLASS
  1
RASTERVARIABLES
  2
AcDbRasterVariables
  3
ISM
 90
        0
280
     0
281
     0
  0
CLASS
  1
IMAGEDEF
  2
AcDbRasterImageDef
  3
ISM
 90
        0
280
     0
281
     0
  0
CLASS
  1
IMAGEDEF_REACTOR
  2
AcDbRasterImageDefReactor
  3
ISM
 90
        1
280
     0
281
     0
  0
CLASS
  1
IDBUFFER
  2
AcDbIdBuffer
  3
"Acad"
 90
        0
280
     0
281
     0
  0
CLASS
  1
SPATIAL_FILTER
  2
AcDbSpatialFilter
  3
"Acad"
 90
        0
280
     0
281
     0
  0
CLASS
  1
XRECORD
  2
AcDbXrecord
  3
"<Built In>"
 90
        0
280
     0
281
     0
  0
CLASS
  1
SORTENTSTABLE
  2
AcDbSortentsTable
  3
"AutoCAD"
 90
        0
280
     0
281
     0
  0
CLASS
  1
LAYER_INDEX
  2
AcDbLayerIndex
  3
"Acad"
 90
        0
280
     0
281
     0
  0
CLASS
  1
SPATIAL_INDEX
  2
AcDbSpatialIndex
  3
"Acad"
 90
        0
280
     0
281
     0
  0
CLASS
  1
OBJECT_PTR
  2
CAseDLPNTableRecord
  3
"ASE-LPNTableRecord"
 90
        1
280
     0
281
     0
  0
ENDSEC
  0
SECTION
  2
TABLES
  0
TABLE
  2
VPORT
  5
7
100
AcDbSymbolTable
 70
     1
  0
VPORT
  5
15
100
AcDbSymbolTableRecord
100
AcDbViewportTableRecord
 2
*ACTIVE
 70
     0
 10
0
 20
0
 11
1.0
 21
1.0
 12
0.0
 22
0.0
 13
0.0
 23
0.0
 14
1.0
 24
1.0
 15
0.0
 25
0.0
 16
0.0
 26
0.0
 36
1.0
 17
236.256149999999
 27
194.652943896484
 37
0.0
 40
330.0011
 41
1.29008994212444
 42
50.0
 43
0.0
 44
0.0
 50
0.0
 51
0.0
 71
     0
 72
   100
 73
     1
 74
     1
 75
     0
 76
     0
 77
     0
 78
     0
   0
ENDTAB
  0
TABLE
  2
LTYPE
  5
4
100
AcDbSymbolTable
 70
3
  0
LTYPE
  5
11
100
AcDbSymbolTableRecord
100
AcDbLinetypeTableRecord
  2
BYBLOCK
 70
     0
  3

 72
    65
 73
     0
 40
0.0
  0
LTYPE
  5
12
100
AcDbSymbolTableRecord
100
AcDbLinetypeTableRecord
  2
BYLAYER
 70
     0
  3

 72
    65
 73
     0
 40
0.0
  0
LTYPE
  5
80
330
5
100
AcDbSymbolTableRecord
100
AcDbLinetypeTableRecord
  2
CONTINUOUS
 70
     0
  3
Continuous
 72
    65
 73
     0
 40
0.0
  0
LTYPE
  5
81
330
5
100
AcDbSymbolTableRecord
100
AcDbLinetypeTableRecord
  2
DASH
 70
     0
  3
Dash
 72
    65
 73
     2
 40
48.0
 49
24.0
 74
     0
 49
-24.0
 74
     0
  0
LTYPE
  5
82
330
5
100
AcDbSymbolTableRecord
100
AcDbLinetypeTableRecord
  2
DASHDOT
 70
     0
  3
DashDot
 72
    65
 73
     4
 40
48.0
 49
24.0
 74
     0
 49
 -12.0
 74
     0
 49
0.0
 74
     0
 49
 -12.0
 74
     0	
  0
ENDTAB
  0
TABLE
  2
LAYER
  5
2
100
AcDbSymbolTable
 70
4              
  0
LAYER
  5
83
100
AcDbSymbolTableRecord
100
AcDbLayerTableRecord
  2
0
 70
     0
 62
     7
  6
CONTINUOUS
 0
LAYER
  5
84
100
AcDbSymbolTableRecord
100
AcDbLayerTableRecord
 2
Layer0
 70
 64
 62
 7
 6
CONTINUOUS
 0
LAYER
  5
85
100
AcDbSymbolTableRecord
100
AcDbLayerTableRecord
 2
Layer8
 70
 64
 62
 8
 6
CONTINUOUS
 0
LAYER
  5
86
100
AcDbSymbolTableRecord
100
AcDbLayerTableRecord
 2
Layer22
 70
 64
 62
 22
 6
CONTINUOUS
  0
ENDTAB
  0
TABLE
  2
STYLE
  5
3
100
AcDbSymbolTable
 70
1              
 0
STYLE
 5
17
100
AcDbSymbolTableRecord
100
AcDbTextStyleTableRecord
 2
STANDARD
 70
 0
 40
 0.0
 41
 1.0
 50
 0.0
 71
  0
 42
 8.0
 3
 txt
 4

  0
ENDTAB
  0
TABLE
  2
VIEW
  5
5
100
AcDbSymbolTable
 70
     0
  0
ENDTAB
  0
TABLE
  2
UCS
  5
6
100
AcDbSymbolTable
 70
     0
  0
ENDTAB
  0
TABLE
  2
APPID
  5
8
100
AcDbSymbolTable
 70
     1
  0
APPID
  5
16
100
AcDbSymbolTableRecord
100
AcDbRegAppTableRecord
  2
ACAD
 70
     0
  0
ENDTAB
  0
TABLE
  2
DIMSTYLE
  5
9
100
AcDbSymbolTable
 70
     1
  0
DIMSTYLE
105
18
100
AcDbSymbolTableRecord
100
AcDbDimStyleTableRecord
  2
STANDARD
 70
     0
  3

  4

  5

  6

  7

 40
1.0
 41
0.18
 42
0.0625
 43
0.38
 44
0.18
 45
0.0
 46
0.0
 47
0.0
 48
0.0
140
0.18
141
0.09
142
0.0
143
25.4
144
1.0
145
0.0
146
1.0
147
0.09
 71
     0
 72
     0
 73
     1
 74
     1
 75
     0
 76
     0
 77
     0
 78
     0
170
     0
171
     2
172
     0
173
     0
174
     0
175
     0
176
     0
177
     0
178
     0
270
     2
271
     4
272
     4
273
     2
274
     2
340
17
275
     0
280
     0
281
     0
282
     0
283
     1
284
     0
285
     0
286
     0
287
     0
288
     0
  0
ENDTAB
  0
TABLE
  2
BLOCK_RECORD
  5
1
100
AcDbSymbolTable
 70
     0
  0
BLOCK_RECORD
  5
A
100
AcDbSymbolTableRecord
100
AcDbBlockTableRecord
  2
*MODEL_SPACE
  0
BLOCK_RECORD
  5
B
100
AcDbSymbolTableRecord
100
AcDbBlockTableRecord
  2
*PAPER_SPACE
  0
ENDTAB
  0
ENDSEC
  0
SECTION
  2
BLOCKS
  0
BLOCK
  5
D
100
AcDbEntity
  8
0
100
AcDbBlockBegin
  2
*MODEL_SPACE
 70
     0
 10
0.0
 20
0.0
 30
0.0
  3
*MODEL_SPACE
  1

  0
ENDBLK
  5
E
100
AcDbEntity
  8
0
100
AcDbBlockEnd
  0
BLOCK
  5
F
100
AcDbEntity
 67
     1
  8
0
100
AcDbBlockBegin
  2
*PAPER_SPACE
 70
     0
 10
0.0
 20
0.0
 30
0.0
  3
*PAPER_SPACE
  1

  0
ENDBLK
  5
10
100
AcDbEntity
 67
     1
  8
0
100
AcDbBlockEnd
 0
ENDSEC
 0
SECTION
 2
ENTITIES
 0
LINE
 5
87
100
AcDbEntity
 8
Layer8
100
AcDbLine
 39
0.25
 370
106
 10
34.5073
 20
191.012293896484
 30
0.0
 11
38.8603
 21
191.012293896484
 31
0.0
 0
LINE
 5
88
100
AcDbEntity
 8
Layer8
100
AcDbLine
 39
0.25
 370
106
 10
34.5073
 20
133.859293896484
 30
0.0
 11
38.8603
 21
133.859293896484
 31
0.0
 0
LINE
 5
89
100
AcDbEntity
 8
Layer8
100
AcDbLine
 39
0.25
 370
106
 10
111.0029
 20
183.640193896484
 30
0.0
 11
109.3259
 21
183.119193896484
 31
0.0
 0
LINE
 5
8A
100
AcDbEntity
 8
Layer8
100
AcDbLine
 39
0.25
 370
106
 10
109.3259
 20
183.119193896484
 30
0.0
 11
108.2189
 21
182.455193896484
 31
0.0
 0
LINE
 5
8B
100
AcDbEntity
 8
Layer8
100
AcDbLine
 39
0.25
 370
106
 10
108.2189
 20
182.455193896484
 30
0.0
 11
107.5139
 21
181.649193896484
 31
0.0
 0
LINE
 5
8C
100
AcDbEntity
 8
Layer8
100
AcDbLine
 39
0.25
 370
106
 10
107.5139
 20
181.649193896484
 30
0.0
 11
107.2719
 21
180.769193896484
 31
0.0
 0
ARC
 5
8D
100
AcDbEntity
 8
Layer8
100
AcDbCircle
 39
0.25
 370
106
 10
98.8893946613523
 20
180.13972114063
 30
0.0
 40
3.15395928930176
100
AcDbArc
 50
11.5125027522969
 51
70.8524428093512
 0
LINE
 5
8E
100
AcDbEntity
 8
Layer8
100
AcDbLine
 39
0.25
 370
106
 10
99.9239
 20
183.119193896484
 30
0.0
 11
98.2469
 21
183.640193896484
 31
0.0
 0
LINE
 5
8F
100
AcDbEntity
 8
Layer8
100
AcDbLine
 39
0.25
 370
106
 10
115.3959
 20
184.526193896484
 30
0.0
 11
111.0029
 21
183.640193896484
 31
0.0
 0
LINE
 5
90
100
AcDbEntity
 8
Layer8
100
AcDbLine
 39
0.25
 370
106
 10
115.4009
 20
184.519193896484
 30
0.0
 11
115.3679
 21
184.543193896484
 31
0.0
 0
LINE
 5
91
100
AcDbEntity
 8
Layer8
100
AcDbLine
 39
0.25
 370
106
 10
93.8819
 20
184.543193896484
 30
0.0
 11
93.8529
 21
184.523193896484
 31
0.0
 0
LINE
 5
92
100
AcDbEntity
 8
Layer8
100
AcDbLine
 39
0.25
 370
106
 10
93.9299
 20
184.546193896484
 30
0.0
 11
93.8819
 21
184.543193896484
 31
0.0
 0
LINE
 5
93
100
AcDbEntity
 8
Layer8
100
AcDbLine
 39
0.25
 370
106
 10
115.3679
 20
184.543193896484
 30
0.0
 11
115.3149
 21
184.546193896484
 31
0.0
 0
LINE
 5
94
100
AcDbEntity
 8
Layer8
100
AcDbLine
 39
0.25
 370
106
 10
109.4099
 20
190.018193896484
 30
0.0
 11
108.4199
 21
190.018193896484
 31
0.0
 0
LINE
 5
95
100
AcDbEntity
 8
Layer8
100
AcDbLine
 39
0.25
 370
106
 10
112.3119
 20
190.018193896484
 30
0.0
 11
111.3209
 21
190.018193896484
 31
0.0
 0
ARC
 5
96
100
AcDbEntity
 8
Layer8
100
AcDbCircle
 39
0.25
 370
106
 10
84.9565466340355
 20
135.216265017744
 30
0.0
 40
9.5608183095245
100
AcDbArc
 50
119.987804363064
 51
161.422654708898
 0
ARC
 5
97
100
AcDbEntity
 8
Layer8
100
AcDbCircle
 39
0.25
 370
106
 10
122.598122313478
 20
133.551752095924
 30
0.0
 40
11.8668281416241
100
AcDbArc
 50
16.5910676754412
 51
56.9387249942443
 0
ARC
 5
98
100
AcDbEntity
 8
Layer8
100
AcDbCircle
 39
0.25
 370
106
 10
139.709763989356
 20
140.396579138842
 30
0.0
 40
6.69934017884747
100
AcDbArc
 50
-148.940415514382
 51
101.467101916913
 0
ARC
 5
99
100
AcDbEntity
 8
Layer8
100
AcDbCircle
 39
0.25
 370
106
 10
69.5426667468956
 20
140.395452356589
 30
0.0
 40
6.69992205125905
100
AcDbArc
 50
78.5568619751259
 51
-18.5662208121504
 0
ARC
 5
9A
100
AcDbEntity
 8
Layer8
100
AcDbCircle
 39
0.25
 370
106
 10
136.490217040954
 20
156.370399710007
 30
0.0
 40
9.59571172886479
100
AcDbArc
 50
-119.927364630705
 51
-78.6546926537734
 0
ARC
 5
9B
100
AcDbEntity
 8
Layer8
100
AcDbCircle
 39
0.25
 370
106
 10
72.7607117091291
 20
156.363500070076
 30
0.0
 40
9.58916927800109
100
AcDbArc
 50
-101.360029880637
 51
-60.0579128348967
 0
LINE
 5
9C
100
AcDbEntity
 8
Layer8
100
AcDbLine
 39
0.25
 370
106
 10
96.6539
 20
153.010193896484
 30
0.0
 11
80.1779
 21
143.497193896484
 31
0.0
 0
LINE
 5
9D
100
AcDbEntity
 8
Layer8
100
AcDbLine
 39
0.25
 370
106
 10
112.5959
 20
153.010193896484
 30
0.0
 11
129.0719
 21
143.497193896484
 31
0.0
 0
ARC
 5
9E
100
AcDbEntity
 8
Layer8
100
AcDbCircle
 39
0.25
 370
106
 10
104.6249
 20
139.266333431375
 30
0.0
 40
15.8880628612925
100
AcDbArc
 50
59.8876365222876
 51
120.112363477718
 0
LINE
 5
9F
100
AcDbEntity
 8
Layer8
100
AcDbLine
 39
0.25
 370
106
 10
94.0239
 20
157.568193896484
 30
0.0
 11
77.5469
 21
148.054193896484
 31
0.0
 0
LINE
 5
A0
100
AcDbEntity
 8
Layer8
100
AcDbLine
 39
0.25
 370
106
 10
115.2279
 20
157.568193896484
 30
0.0
 11
131.7029
 21
148.054193896484
 31
0.0
 0
ARC
 5
A1
100
AcDbEntity
 8
Layer8
100
AcDbCircle
 39
0.25
 370
106
 10
86.0610387595384
 20
171.368518786872
 30
0.0
 40
15.9328630890717
100
AcDbArc
 50
-60.0148241892599
 51
0.0276002751435652
 0
ARC
 5
A2
100
AcDbEntity
 8
Layer8
100
AcDbCircle
 39
0.25
 370
106
 10
123.186467870826
 20
171.368347942416
 30
0.0
 40
15.9305698029285
100
AcDbArc
 50
179.971781293573
 51
-119.972108169917
 0
LINE
 5
A3
100
AcDbEntity
 8
Layer8
100
AcDbLine
 39
0.25
 370
106
 10
101.9939
 20
180.580193896484
 30
0.0
 11
102.1289
 21
180.580193896484
 31
0.0
 0
LINE
 5
A4
100
AcDbEntity
 8
Layer8
100
AcDbLine
 39
0.25
 370
106
 10
101.9939
 20
171.376193896484
 30
0.0
 11
101.9939
 21
180.580193896484
 31
0.0
 0
LINE
 5
A5
100
AcDbEntity
 8
Layer8
100
AcDbLine
 39
0.25
 370
106
 10
107.2559
 20
180.580193896484
 30
0.0
 11
107.1209
 21
180.580193896484
 31
0.0
 0
LINE
 5
A6
100
AcDbEntity
 8
Layer8
100
AcDbLine
 39
0.25
 370
106
 10
107.2559
 20
171.376193896484
 30
0.0
 11
107.2559
 21
180.580193896484
 31
0.0
 0
LINE
 5
A7
100
AcDbEntity
 8
Layer8
100
AcDbLine
 39
0.25
 370
106
 10
102.7919
 20
180.673193896484
 30
0.0
 11
106.4579
 21
180.673193896484
 31
0.0
 0
LINE
 5
A8
100
AcDbEntity
 8
Layer8
100
AcDbLine
 39
0.25
 370
106
 10
106.7789
 20
180.673193896484
 30
0.0
 11
106.7789
 21
180.580193896484
 31
0.0
 0
LINE
 5
A9
100
AcDbEntity
 8
Layer8
100
AcDbLine
 39
0.25
 370
106
 10
106.4579
 20
180.673193896484
 30
0.0
 11
106.5569
 21
180.673193896484
 31
0.0
 0
LINE
 5
AA
100
AcDbEntity
 8
Layer8
100
AcDbLine
 39
0.25
 370
106
 10
106.4579
 20
180.673193896484
 30
0.0
 11
106.4579
 21
180.580193896484
 31
0.0
 0
LINE
 5
AB
100
AcDbEntity
 8
Layer8
100
AcDbLine
 39
0.25
 370
106
 10
102.7919
 20
180.673193896484
 30
0.0
 11
102.7919
 21
180.580193896484
 31
0.0
 0
LINE
 5
AC
100
AcDbEntity
 8
Layer8
100
AcDbLine
 39
0.25
 370
106
 10
102.7919
 20
180.673193896484
 30
0.0
 11
102.6929
 21
180.673193896484
 31
0.0
 0
LINE
 5
AD
100
AcDbEntity
 8
Layer8
100
AcDbLine
 39
0.25
 370
106
 10
102.4709
 20
180.673193896484
 30
0.0
 11
102.4709
 21
180.580193896484
 31
0.0
 0
LINE
 5
AE
100
AcDbEntity
 8
Layer8
100
AcDbLine
 39
0.25
 370
106
 10
106.4849
 20
180.580193896484
 30
0.0
 11
102.7649
 21
180.580193896484
 31
0.0
 0
LINE
 5
AF
100
AcDbEntity
 8
Layer8
100
AcDbLine
 39
0.25
 370
106
 10
107.1209
 20
180.580193896484
 30
0.0
 11
106.4849
 21
180.580193896484
 31
0.0
 0
LINE
 5
B0
100
AcDbEntity
 8
Layer8
100
AcDbLine
 39
0.25
 370
106
 10
102.1289
 20
180.580193896484
 30
0.0
 11
102.7649
 21
180.580193896484
 31
0.0
 0
LINE
 5
B1
100
AcDbEntity
 8
Layer8
100
AcDbLine
 39
0.25
 370
106
 10
106.9529
 20
180.673193896484
 30
0.0
 11
106.8059
 21
180.673193896484
 31
0.0
 0
LINE
 5
B2
100
AcDbEntity
 8
Layer8
100
AcDbLine
 39
0.25
 370
106
 10
102.4439
 20
180.673193896484
 30
0.0
 11
102.2969
 21
180.673193896484
 31
0.0
 0
LINE
 5
B3
100
AcDbEntity
 8
Layer8
100
AcDbLine
 39
0.25
 370
106
 10
102.6929
 20
180.673193896484
 30
0.0
 11
102.4439
 21
180.673193896484
 31
0.0
 0
LINE
 5
B4
100
AcDbEntity
 8
Layer8
100
AcDbLine
 39
0.25
 370
106
 10
102.4439
 20
180.673193896484
 30
0.0
 11
102.4439
 21
180.769193896484
 31
0.0
 0
LINE
 5
B5
100
AcDbEntity
 8
Layer8
100
AcDbLine
 39
0.25
 370
106
 10
102.7619
 20
180.673193896484
 30
0.0
 11
102.7619
 21
180.769193896484
 31
0.0
 0
LINE
 5
B6
100
AcDbEntity
 8
Layer8
100
AcDbLine
 39
0.25
 370
106
 10
106.8059
 20
180.673193896484
 30
0.0
 11
106.5569
 21
180.673193896484
 31
0.0
 0
LINE
 5
B7
100
AcDbEntity
 8
Layer8
100
AcDbLine
 39
0.25
 370
106
 10
106.4879
 20
180.673193896484
 30
0.0
 11
106.4879
 21
180.769193896484
 31
0.0
 0
LINE
 5
B8
100
AcDbEntity
 8
Layer8
100
AcDbLine
 39
0.25
 370
106
 10
106.8059
 20
180.673193896484
 30
0.0
 11
106.8059
 21
180.769193896484
 31
0.0
 0
LINE
 5
B9
100
AcDbEntity
 8
Layer8
100
AcDbLine
 39
0.25
 370
106
 10
107.1209
 20
180.769193896484
 30
0.0
 11
106.4879
 21
180.769193896484
 31
0.0
 0
LINE
 5
BA
100
AcDbEntity
 8
Layer8
100
AcDbLine
 39
0.25
 370
106
 10
107.2719
 20
180.769193896484
 30
0.0
 11
107.1209
 21
180.769193896484
 31
0.0
 0
LINE
 5
BB
100
AcDbEntity
 8
Layer8
100
AcDbLine
 39
0.25
 370
106
 10
102.1289
 20
180.769193896484
 30
0.0
 11
101.9799
 21
180.769193896484
 31
0.0
 0
LINE
 5
BC
100
AcDbEntity
 8
Layer8
100
AcDbLine
 39
0.25
 370
106
 10
102.7619
 20
180.769193896484
 30
0.0
 11
102.1289
 21
180.769193896484
 31
0.0
 0
LINE
 5
BD
100
AcDbEntity
 8
Layer8
100
AcDbLine
 39
0.25
 370
106
 10
106.4879
 20
180.769193896484
 30
0.0
 11
102.7619
 21
180.769193896484
 31
0.0
 0
ARC
 5
BE
100
AcDbEntity
 8
Layer8
100
AcDbCircle
 39
0.25
 370
106
 10
93.9418258388918
 20
185.016340678802
 30
0.0
 40
0.476926602092044
100
AcDbArc
 50
179.897498277356
 51
-97.2182953729338
 0
LINE
 5
BF
100
AcDbEntity
 8
Layer8
100
AcDbLine
 39
0.25
 370
106
 10
98.2409
 20
184.537193896484
 30
0.0
 11
95.3609
 21
184.558193896484
 31
0.0
 0
LINE
 5
C0
100
AcDbEntity
 8
Layer8
100
AcDbLine
 39
0.25
 370
106
 10
95.3609
 20
184.558193896484
 30
0.0
 11
94.4489
 21
184.558193896484
 31
0.0
 0
LINE
 5
C1
100
AcDbEntity
 8
Layer8
100
AcDbLine
 39
0.25
 370
106
 10
94.4489
 20
184.558193896484
 30
0.0
 11
93.9299
 21
184.546193896484
 31
0.0
 0
LINE
 5
C2
100
AcDbEntity
 8
Layer8
100
AcDbLine
 39
0.25
 370
106
 10
93.4649
 20
185.872193896484
 30
0.0
 11
93.4649
 21
185.017193896484
 31
0.0
 0
LINE
 5
C3
100
AcDbEntity
 8
Layer8
100
AcDbLine
 39
0.25
 370
106
 10
93.4649
 20
185.017193896484
 30
0.0
 11
98.2469
 21
185.008193896484
 31
0.0
 0
LINE
 5
C4
100
AcDbEntity
 8
Layer8
100
AcDbLine
 39
0.25
 370
106
 10
110.7279
 20
184.535193896484
 30
0.0
 11
107.0249
 21
184.523193896484
 31
0.0
 0
LINE
 5
C5
100
AcDbEntity
 8
Layer8
100
AcDbLine
 39
0.25
 370
106
 10
107.0249
 20
184.523193896484
 30
0.0
 11
103.0439
 21
184.523193896484
 31
0.0
 0
LINE
 5
C6
100
AcDbEntity
 8
Layer8
100
AcDbLine
 39
0.25
 370
106
 10
103.0439
 20
184.523193896484
 30
0.0
 11
98.5239
 21
184.535193896484
 31
0.0
 0
LINE
 5
C7
100
AcDbEntity
 8
Layer8
100
AcDbLine
 39
0.25
 370
106
 10
111.0089
 20
184.537193896484
 30
0.0
 11
110.7279
 21
184.535193896484
 31
0.0
 0
LINE
 5
C8
100
AcDbEntity
 8
Layer8
100
AcDbLine
 39
0.25
 370
106
 10
98.5239
 20
184.535193896484
 30
0.0
 11
98.2409
 21
184.537193896484
 31
0.0
 0
LINE
 5
C9
100
AcDbEntity
 8
Layer8
100
AcDbLine
 39
0.25
 370
106
 10
98.2469
 20
185.008193896484
 30
0.0
 11
103.0439
 21
184.991193896484
 31
0.0
 0
LINE
 5
CA
100
AcDbEntity
 8
Layer8
100
AcDbLine
 39
0.25
 370
106
 10
103.0439
 20
184.991193896484
 30
0.0
 11
107.0249
 21
184.991193896484
 31
0.0
 0
LINE
 5
CB
100
AcDbEntity
 8
Layer8
100
AcDbLine
 39
0.25
 370
106
 10
107.0249
 20
184.991193896484
 30
0.0
 11
111.0029
 21
185.008193896484
 31
0.0
 0
LINE
 5
CC
100
AcDbEntity
 8
Layer8
100
AcDbLine
 39
0.25
 370
106
 10
115.3149
 20
184.546193896484
 30
0.0
 11
114.6909
 21
184.558193896484
 31
0.0
 0
LINE
 5
CD
100
AcDbEntity
 8
Layer8
100
AcDbLine
 39
0.25
 370
106
 10
114.6909
 20
184.558193896484
 30
0.0
 11
113.7209
 21
184.558193896484
 31
0.0
 0
LINE
 5
CE
100
AcDbEntity
 8
Layer8
100
AcDbLine
 39
0.25
 370
106
 10
113.7209
 20
184.558193896484
 30
0.0
 11
111.0089
 21
184.537193896484
 31
0.0
 0
ARC
 5
CF
100
AcDbEntity
 8
Layer8
100
AcDbCircle
 39
0.25
 370
106
 10
115.307974161124
 20
185.016340678796
 30
0.0
 40
0.476926602085286
100
AcDbArc
 50
-82.7817046288458
 51
0.102501723386339
 0
LINE
 5
D0
100
AcDbEntity
 8
Layer8
100
AcDbLine
 39
0.25
 370
106
 10
111.0029
 20
185.008193896484
 30
0.0
 11
112.1939
 21
185.024193896484
 31
0.0
 0
LINE
 5
D1
100
AcDbEntity
 8
Layer8
100
AcDbLine
 39
0.25
 370
106
 10
112.1939
 20
185.024193896484
 30
0.0
 11
114.2909
 21
185.036193896484
 31
0.0
 0
LINE
 5
D2
100
AcDbEntity
 8
Layer8
100
AcDbLine
 39
0.25
 370
106
 10
114.2909
 20
185.036193896484
 30
0.0
 11
115.5639
 21
185.030193896484
 31
0.0
 0
LINE
 5
D3
100
AcDbEntity
 8
Layer8
100
AcDbLine
 39
0.25
 370
106
 10
115.5639
 20
185.030193896484
 30
0.0
 11
115.7189
 21
185.027193896484
 31
0.0
 0
LINE
 5
D4
100
AcDbEntity
 8
Layer8
100
AcDbLine
 39
0.25
 370
106
 10
115.7189
 20
185.027193896484
 30
0.0
 11
115.7849
 21
185.017193896484
 31
0.0
 0
LINE
 5
D5
100
AcDbEntity
 8
Layer8
100
AcDbLine
 39
0.25
 370
106
 10
115.7849
 20
185.872193896484
 30
0.0
 11
115.7849
 21
185.017193896484
 31
0.0
 0
LINE
 5
D6
100
AcDbEntity
 8
Layer8
100
AcDbLine
 39
0.25
 370
106
 10
108.5789
 20
190.177193896484
 30
0.0
 11
111.3209
 21
190.177193896484
 31
0.0
 0
LINE
 5
D7
100
AcDbEntity
 8
Layer8
100
AcDbLine
 39
0.25
 370
106
 10
109.4099
 20
190.018193896484
 30
0.0
 11
109.4099
 21
190.177193896484
 31
0.0
 0
LINE
 5
D8
100
AcDbEntity
 8
Layer8
100
AcDbLine
 39
0.25
 370
106
 10
111.3209
 20
190.177193896484
 30
0.0
 11
112.1519
 21
190.177193896484
 31
0.0
 0
LINE
 5
D9
100
AcDbEntity
 8
Layer8
100
AcDbLine
 39
0.25
 370
106
 10
111.3209
 20
190.018193896484
 30
0.0
 11
111.3209
 21
190.177193896484
 31
0.0
 0
LINE
 5
DA
100
AcDbEntity
 8
Layer8
100
AcDbLine
 39
0.25
 370
106
 10
111.3209
 20
190.018193896484
 30
0.0
 11
109.4099
 21
190.018193896484
 31
0.0
 0
LINE
 5
DB
100
AcDbEntity
 8
Layer8
100
AcDbLine
 39
0.25
 370
106
 10
109.4099
 20
189.860193896484
 30
0.0
 11
109.4099
 21
190.018193896484
 31
0.0
 0
LINE
 5
DC
100
AcDbEntity
 8
Layer8
100
AcDbLine
 39
0.25
 370
106
 10
111.3209
 20
189.860193896484
 30
0.0
 11
111.3209
 21
190.018193896484
 31
0.0
 0
LINE
 5
DD
100
AcDbEntity
 8
Layer8
100
AcDbLine
 39
0.25
 370
106
 10
99.8729
 20
190.018193896484
 30
0.0
 11
99.8279
 21
190.132193896484
 31
0.0
 0
LINE
 5
DE
100
AcDbEntity
 8
Layer8
100
AcDbLine
 39
0.25
 370
106
 10
99.8279
 20
190.132193896484
 30
0.0
 11
99.7139
 21
190.177193896484
 31
0.0
 0
LINE
 5
DF
100
AcDbEntity
 8
Layer8
100
AcDbLine
 39
0.25
 370
106
 10
98.0549
 20
190.177193896484
 30
0.0
 11
99.7139
 21
190.177193896484
 31
0.0
 0
LINE
 5
E0
100
AcDbEntity
 8
Layer8
100
AcDbLine
 39
0.25
 370
106
 10
97.8969
 20
190.018193896484
 30
0.0
 11
97.9439
 21
190.132193896484
 31
0.0
 0
LINE
 5
E1
100
AcDbEntity
 8
Layer8
100
AcDbLine
 39
0.25
 370
106
 10
97.9439
 20
190.132193896484
 30
0.0
 11
98.0549
 21
190.177193896484
 31
0.0
 0
LINE
 5
E2
100
AcDbEntity
 8
Layer8
100
AcDbLine
 39
0.25
 370
106
 10
108.1139
 20
189.860193896484
 30
0.0
 11
100.0319
 21
189.860193896484
 31
0.0
 0
LINE
 5
E3
100
AcDbEntity
 8
Layer8
100
AcDbLine
 39
0.25
 370
106
 10
100.0319
 20
189.860193896484
 30
0.0
 11
99.8729
 21
190.018193896484
 31
0.0
 0
LINE
 5
E4
100
AcDbEntity
 8
Layer8
100
AcDbLine
 39
0.25
 370
106
 10
99.8729
 20
190.018193896484
 30
0.0
 11
97.8969
 21
190.018193896484
 31
0.0
 0
LINE
 5
E5
100
AcDbEntity
 8
Layer8
100
AcDbLine
 39
0.25
 370
106
 10
97.7369
 20
189.860193896484
 30
0.0
 11
97.8509
 21
189.905193896484
 31
0.0
 0
LINE
 5
E6
100
AcDbEntity
 8
Layer8
100
AcDbLine
 39
0.25
 370
106
 10
97.8509
 20
189.905193896484
 30
0.0
 11
97.8969
 21
190.018193896484
 31
0.0
 0
LINE
 5
E7
100
AcDbEntity
 8
Layer8
100
AcDbLine
 39
0.25
 370
106
 10
98.2469
 20
189.860193896484
 30
0.0
 11
93.4649
 21
189.860193896484
 31
0.0
 0
LINE
 5
E8
100
AcDbEntity
 8
Layer8
100
AcDbLine
 39
0.25
 370
106
 10
93.4649
 20
185.872193896484
 30
0.0
 11
93.4649
 21
189.860193896484
 31
0.0
 0
LINE
 5
E9
100
AcDbEntity
 8
Layer8
100
AcDbLine
 39
0.25
 370
106
 10
115.7849
 20
189.860193896484
 30
0.0
 11
111.0029
 21
189.860193896484
 31
0.0
 0
LINE
 5
EA
100
AcDbEntity
 8
Layer8
100
AcDbLine
 39
0.25
 370
106
 10
115.7849
 20
185.774193896484
 30
0.0
 11
115.7849
 21
189.860193896484
 31
0.0
 0
LINE
 5
EB
100
AcDbEntity
 8
Layer8
100
AcDbLine
 39
0.25
 370
106
 10
106.9529
 20
180.673193896484
 30
0.0
 11
106.9529
 21
180.769193896484
 31
0.0
 0
LINE
 5
EC
100
AcDbEntity
 8
Layer8
100
AcDbLine
 39
0.25
 370
106
 10
102.2969
 20
180.769193896484
 30
0.0
 11
102.2969
 21
180.673193896484
 31
0.0
 0
ARC
 5
ED
100
AcDbEntity
 8
Layer8
100
AcDbCircle
 39
0.25
 370
106
 10
115.304652293846
 20
184.989700547143
 30
0.0
 40
0.480250069499437
100
AcDbArc
 50
-78.4389680973166
 51
-0.179749824201866
 0
ARC
 5
EE
100
AcDbEntity
 8
Layer8
100
AcDbCircle
 39
0.25
 370
106
 10
93.9367932221451
 20
184.983592766818
 30
0.0
 40
0.471915652951542
100
AcDbArc
 50
179.441363120402
 51
-100.239991278466
 0
ARC
 5
EF
100
AcDbEntity
 8
Layer8
100
AcDbCircle
 39
0.25
 370
106
 10
97.6657875792542
 20
178.34449338752
 30
0.0
 40
5.30389566620059
100
AcDbArc
 50
45.1572639675075
 51
80.4702384348461
 0
LINE
 5
F0
100
AcDbEntity
 8
Layer8
100
AcDbLine
 39
0.25
 370
106
 10
93.8529
 20
184.519193896484
 30
0.0
 11
98.5439
 21
183.575193896484
 31
0.0
 0
LINE
 5
F1
100
AcDbEntity
 8
Layer8
100
AcDbLine
 39
0.25
 370
106
 10
101.4059
 20
182.105193896484
 30
0.0
 11
101.7869
 21
181.555193896484
 31
0.0
 0
LINE
 5
F2
100
AcDbEntity
 8
Layer8
100
AcDbLine
 39
0.25
 370
106
 10
101.7869
 20
181.555193896484
 30
0.0
 11
101.9799
 21
180.769193896484
 31
0.0
 0
ARC
 5
F3
100
AcDbEntity
 8
Layer8
100
AcDbCircle
 39
0.25
 370
106
 10
109.832397899143
 20
180.463381921705
 30
0.0
 40
2.57869549490387
100
AcDbArc
 50
118.703742194002
 51
173.18916537903
 0
LINE
 5
F4
100
AcDbEntity
 8
Layer8
100
AcDbLine
 39
0.25
 370
106
 10
108.5939
 20
182.725193896484
 30
0.0
 11
109.3889
 21
183.145193896484
 31
0.0
 0
LINE
 5
F5
100
AcDbEntity
 8
Layer8
100
AcDbLine
 39
0.25
 370
106
 10
109.3889
 20
183.145193896484
 30
0.0
 11
111.2519
 21
183.692193896484
 31
0.0
 0
LINE
 5
F6
100
AcDbEntity
 8
Layer8
100
AcDbLine
 39
0.25
 370
106
 10
111.2519
 20
183.692193896484
 30
0.0
 11
115.4009
 21
184.519193896484
 31
0.0
 0
LINE
 5
F7
100
AcDbEntity
 8
Layer8
100
AcDbLine
 39
0.25
 370
106
 10
108.5789
 20
190.177193896484
 30
0.0
 11
108.4679
 21
190.132193896484
 31
0.0
 0
LINE
 5
F8
100
AcDbEntity
 8
Layer8
100
AcDbLine
 39
0.25
 370
106
 10
108.4679
 20
190.132193896484
 30
0.0
 11
108.4199
 21
190.018193896484
 31
0.0
 0
LINE
 5
F9
100
AcDbEntity
 8
Layer8
100
AcDbLine
 39
0.25
 370
106
 10
112.3119
 20
190.018193896484
 30
0.0
 11
112.2629
 21
190.132193896484
 31
0.0
 0
LINE
 5
FA
100
AcDbEntity
 8
Layer8
100
AcDbLine
 39
0.25
 370
106
 10
112.2629
 20
190.132193896484
 30
0.0
 11
112.1519
 21
190.177193896484
 31
0.0
 0
LINE
 5
FB
100
AcDbEntity
 8
Layer8
100
AcDbLine
 39
0.25
 370
106
 10
108.4199
 20
190.018193896484
 30
0.0
 11
108.3719
 21
189.905193896484
 31
0.0
 0
LINE
 5
FC
100
AcDbEntity
 8
Layer8
100
AcDbLine
 39
0.25
 370
106
 10
108.3719
 20
189.905193896484
 30
0.0
 11
108.2609
 21
189.860193896484
 31
0.0
 0
CIRCLE
 5
FD
100
AcDbEntity
 8
Layer8
100
AcDbCircle
 39
0.25
 370
106
 10
139.7225328125
 20
140.353951708984
 30
0.0
 40
5.6345078125
 370
106
 0
CIRCLE
 5
FE
100
AcDbEntity
 8
Layer8
100
AcDbCircle
 39
0.25
 370
106
 10
139.7225328125
 20
140.353951708984
 30
0.0
 40
5.6345078125
 370
106
 0
CIRCLE
 5
FF
100
AcDbEntity
 8
Layer8
100
AcDbCircle
 39
0.25
 370
106
 10
139.7187359375
 20
140.353693896484
 30
0.0
 40
4.74844140625001
 370
106
 0
CIRCLE
 5
100
100
AcDbEntity
 8
Layer8
100
AcDbCircle
 39
0.25
 370
106
 10
69.4297671875
 20
140.353951708984
 30
0.0
 40
5.63417968750001
 370
106
 0
CIRCLE
 5
101
100
AcDbEntity
 8
Layer8
100
AcDbCircle
 39
0.25
 370
106
 10
69.42636875
 20
140.353693896484
 30
0.0
 40
4.748125
 370
106
 0
LINE
 5
102
100
AcDbEntity
 8
Layer8
100
AcDbLine
 39
0.25
 370
106
 10
112.4699
 20
189.860193896484
 30
0.0
 11
112.3569
 21
189.905193896484
 31
0.0
 0
LINE
 5
103
100
AcDbEntity
 8
Layer8
100
AcDbLine
 39
0.25
 370
106
 10
112.3569
 20
189.905193896484
 30
0.0
 11
112.3119
 21
190.018193896484
 31
0.0
 0
LINE
 5
104
100
AcDbEntity
 8
Layer8
100
AcDbLine
 39
0.25
 370
106
 10
62.9995
 20
286.075293896484
 30
0.0
 11
62.9995
 21
290.428293896484
 31
0.0
 0
LINE
 5
105
100
AcDbEntity
 8
Layer8
100
AcDbLine
 39
0.25
 370
106
 10
146.2495
 20
286.075293896484
 30
0.0
 11
146.2495
 21
290.428293896484
 31
0.0
 0
LINE
 5
106
100
AcDbEntity
 8
Layer8
100
AcDbLine
 39
0.25
 370
106
 10
133.8398
 20
331.491293896484
 30
0.0
 11
133.8398
 21
331.650293896484
 31
0.0
 0
LINE
 5
107
100
AcDbEntity
 8
Layer8
100
AcDbLine
 39
0.25
 370
106
 10
75.4088
 20
331.491293896484
 30
0.0
 11
75.4088
 21
331.650293896484
 31
0.0
 0
LINE
 5
108
100
AcDbEntity
 8
Layer8
100
AcDbLine
 39
0.25
 370
106
 10
63.8048
 20
335.478293896484
 30
0.0
 11
75.2858
 21
335.478293896484
 31
0.0
 0
LINE
 5
109
100
AcDbEntity
 8
Layer8
100
AcDbLine
 39
0.25
 370
106
 10
112.9898
 20
327.663293896484
 30
0.0
 11
96.2588
 21
327.663293896484
 31
0.0
 0
LINE
 5
10A
100
AcDbEntity
 8
Layer8
100
AcDbLine
 39
0.25
 370
106
 10
79.7858
 20
327.663293896484
 30
0.0
 11
96.2588
 21
327.663293896484
 31
0.0
 0
LINE
 5
10B
100
AcDbEntity
 8
Layer8
100
AcDbLine
 39
0.25
 370
106
 10
129.4628
 20
327.663293896484
 30
0.0
 11
112.9898
 21
327.663293896484
 31
0.0
 0
LINE
 5
10C
100
AcDbEntity
 8
Layer8
100
AcDbLine
 39
0.25
 370
106
 10
134.1008
 20
327.663293896484
 30
0.0
 11
129.4628
 21
327.663293896484
 31
0.0
 0
LINE
 5
10D
100
AcDbEntity
 8
Layer8
100
AcDbLine
 39
0.25
 370
106
 10
75.1508
 20
327.663293896484
 30
0.0
 11
79.7858
 21
327.663293896484
 31
0.0
 0
ARC
 5
10E
100
AcDbEntity
 8
Layer8
100
AcDbCircle
 39
0.25
 370
106
 10
134.121196121256
 20
328.288032862151
 30
0.0
 40
0.625071817455473
100
AcDbArc
 50
-175.803691751067
 51
-91.8698957578403
 0
LINE
 5
10F
100
AcDbEntity
 8
Layer8
100
AcDbLine
 39
0.25
 370
106
 10
145.6148
 20
327.663293896484
 30
0.0
 11
134.1008
 21
327.663293896484
 31
0.0
 0
LINE
 5
110
100
AcDbEntity
 8
Layer8
100
AcDbLine
 39
0.25
 370
106
 10
63.6338
 20
327.663293896484
 30
0.0
 11
75.1508
 21
327.663293896484
 31
0.0
 0
LINE
 5
111
100
AcDbEntity
 8
Layer8
100
AcDbLine
 39
0.25
 370
106
 10
75.1508
 20
327.663293896484
 30
0.0
 11
75.5588
 21
327.831293896484
 31
0.0
 0
LINE
 5
112
100
AcDbEntity
 8
Layer8
100
AcDbLine
 39
0.25
 370
106
 10
75.5588
 20
327.831293896484
 30
0.0
 11
75.7508
 21
328.242293896484
 31
0.0
 0
LINE
 5
113
100
AcDbEntity
 8
Layer8
100
AcDbLine
 39
0.25
 370
106
 10
133.3578
 20
331.491293896484
 30
0.0
 11
146.4018
 21
331.491293896484
 31
0.0
 0
LINE
 5
114
100
AcDbEntity
 8
Layer8
100
AcDbLine
 39
0.25
 370
106
 10
133.4978
 20
328.242293896484
 30
0.0
 11
133.3578
 21
331.491293896484
 31
0.0
 0
LINE
 5
115
100
AcDbEntity
 8
Layer8
100
AcDbLine
 39
0.25
 370
106
 10
75.7508
 20
328.242293896484
 30
0.0
 11
75.8948
 21
331.491293896484
 31
0.0
 0
LINE
 5
116
100
AcDbEntity
 8
Layer8
100
AcDbLine
 39
0.25
 370
106
 10
75.8948
 20
331.491293896484
 30
0.0
 11
62.8478
 21
331.491293896484
 31
0.0
 0
LINE
 5
117
100
AcDbEntity
 8
Layer8
100
AcDbLine
 39
0.25
 370
106
 10
112.9848
 20
335.319293896484
 30
0.0
 11
96.2678
 21
335.319293896484
 31
0.0
 0
LINE
 5
118
100
AcDbEntity
 8
Layer8
100
AcDbLine
 39
0.25
 370
106
 10
129.4568
 20
335.319293896484
 30
0.0
 11
112.9848
 21
335.319293896484
 31
0.0
 0
LINE
 5
119
100
AcDbEntity
 8
Layer8
100
AcDbLine
 39
0.25
 370
106
 10
79.7918
 20
335.319293896484
 30
0.0
 11
96.2678
 21
335.319293896484
 31
0.0
 0
LINE
 5
11A
100
AcDbEntity
 8
Layer8
100
AcDbLine
 39
0.25
 370
106
 10
134.0858
 20
335.319293896484
 30
0.0
 11
129.4568
 21
335.319293896484
 31
0.0
 0
LINE
 5
11B
100
AcDbEntity
 8
Layer8
100
AcDbLine
 39
0.25
 370
106
 10
75.1628
 20
335.319293896484
 30
0.0
 11
79.7918
 21
335.319293896484
 31
0.0
 0
ARC
 5
11C
100
AcDbEntity
 8
Layer8
100
AcDbCircle
 39
0.25
 370
106
 10
75.1503187165914
 20
334.703151650515
 30
0.0
 40
0.616268650598359
100
AcDbArc
 50
2.89659314833085
 51
88.8395097506429
 0
LINE
 5
11D
100
AcDbEntity
 8
Layer8
100
AcDbLine
 39
0.25
 370
106
 10
63.6188
 20
335.319293896484
 30
0.0
 11
75.1628
 21
335.319293896484
 31
0.0
 0
LINE
 5
11E
100
AcDbEntity
 8
Layer8
100
AcDbLine
 39
0.25
 370
106
 10
145.6298
 20
335.319293896484
 30
0.0
 11
134.0858
 21
335.319293896484
 31
0.0
 0
ARC
 5
11F
100
AcDbEntity
 8
Layer8
100
AcDbCircle
 39
0.25
 370
106
 10
134.098007349678
 20
334.704484794781
 30
0.0
 40
0.614930281352248
100
AcDbArc
 50
91.1374875887265
 51
177.221464958483
 0
LINE
 5
120
100
AcDbEntity
 8
Layer8
100
AcDbLine
 39
0.25
 370
106
 10
75.8948
 20
331.650293896484
 30
0.0
 11
62.8478
 21
331.650293896484
 31
0.0
 0
LINE
 5
121
100
AcDbEntity
 8
Layer8
100
AcDbLine
 39
0.25
 370
106
 10
75.8948
 20
331.650293896484
 30
0.0
 11
75.7658
 21
334.734293896484
 31
0.0
 0
LINE
 5
122
100
AcDbEntity
 8
Layer8
100
AcDbLine
 39
0.25
 370
106
 10
133.3578
 20
331.650293896484
 30
0.0
 11
133.4838
 21
334.734293896484
 31
0.0
 0
LINE
 5
123
100
AcDbEntity
 8
Layer8
100
AcDbLine
 39
0.25
 370
106
 10
133.3578
 20
331.650293896484
 30
0.0
 11
146.4018
 21
331.650293896484
 31
0.0
 0
LINE
 5
124
100
AcDbEntity
 8
Layer8
100
AcDbLine
 39
0.25
 370
106
 10
98.2478
 20
342.645293896484
 30
0.0
 11
111.0038
 21
342.645293896484
 31
0.0
 0
LINE
 5
125
100
AcDbEntity
 8
Layer8
100
AcDbLine
 39
0.25
 370
106
 10
111.0038
 20
320.322293896484
 30
0.0
 11
98.2478
 21
320.322293896484
 31
0.0
 0
LINE
 5
126
100
AcDbEntity
 8
Layer8
100
AcDbLine
 39
0.25
 370
106
 10
93.4628
 20
335.319293896484
 30
0.0
 11
93.4628
 21
337.860293896484
 31
0.0
 0
LINE
 5
127
100
AcDbEntity
 8
Layer8
100
AcDbLine
 39
0.25
 370
106
 10
93.4628
 20
325.104293896484
 30
0.0
 11
93.4628
 21
327.663293896484
 31
0.0
 0
LINE
 5
128
100
AcDbEntity
 8
Layer8
100
AcDbLine
 39
0.25
 370
106
 10
115.7858
 20
327.663293896484
 30
0.0
 11
115.7858
 21
325.104293896484
 31
0.0
 0
LINE
 5
129
100
AcDbEntity
 8
Layer8
100
AcDbLine
 39
0.25
 370
106
 10
115.7858
 20
337.860293896484
 30
0.0
 11
115.7858
 21
335.319293896484
 31
0.0
 0
ARC
 5
12A
100
AcDbEntity
 8
Layer8
100
AcDbCircle
 39
0.25
 370
106
 10
98.2462999999957
 20
337.861793896488
 30
0.0
 40
4.78350023517997
100
AcDbArc
 50
89.9820333089393
 51
-179.982033308952
 0
ARC
 5
12B
100
AcDbEntity
 8
Layer8
100
AcDbCircle
 39
0.25
 370
106
 10
111.002299999999
 20
325.105793896484
 30
0.0
 40
4.7835002351827
100
AcDbArc
 50
-89.9820333089816
 51
-0.0179666910027214
 0
ARC
 5
12C
100
AcDbEntity
 8
Layer8
100
AcDbCircle
 39
0.25
 370
106
 10
111.0023
 20
337.861793896484
 30
0.0
 40
4.78350023518384
100
AcDbArc
 50
-0.0179666910027229
 51
89.9820333089865
 0
ARC
 5
12D
100
AcDbEntity
 8
Layer8
100
AcDbCircle
 39
0.25
 370
106
 10
98.2505128217447
 20
325.110009361153
 30
0.0
 40
4.78771623324054
100
AcDbArc
 50
-179.931601610194
 51
-90.0324650078033
 0
LINE
 5
12E
100
AcDbEntity
 8
Layer8
100
AcDbLine
 39
0.25
 370
106
 10
102.6608
 20
327.663293896484
 30
0.0
 11
102.7628
 21
327.657293896484
 31
0.0
 0
LINE
 5
12F
100
AcDbEntity
 8
Layer8
100
AcDbLine
 39
0.25
 370
106
 10
102.7628
 20
327.657293896484
 30
0.0
 11
106.4888
 21
327.657293896484
 31
0.0
 0
LINE
 5
130
100
AcDbEntity
 8
Layer8
100
AcDbLine
 39
0.25
 370
106
 10
106.4888
 20
327.657293896484
 30
0.0
 11
106.5878
 21
327.663293896484
 31
0.0
 0
LINE
 5
131
100
AcDbEntity
 8
Layer8
100
AcDbLine
 39
0.25
 370
106
 10
92.4858
 20
335.325293896484
 30
0.0
 11
90.7338
 21
335.325293896484
 31
0.0
 0
LINE
 5
132
100
AcDbEntity
 8
Layer8
100
AcDbLine
 39
0.25
 370
106
 10
145.8908
 20
331.491293896484
 30
0.0
 11
145.8908
 21
331.650293896484
 31
0.0
 0
LINE
 5
133
100
AcDbEntity
 8
Layer8
100
AcDbLine
 39
0.25
 370
106
 10
63.3608
 20
331.650293896484
 30
0.0
 11
63.3608
 21
331.491293896484
 31
0.0
 0
ARC
 5
134
100
AcDbEntity
 8
Layer8
100
AcDbCircle
 39
0.25
 370
106
 10
145.618521321835
 20
328.298011926387
 30
0.0
 40
0.634728938776072
100
AcDbArc
 50
-90.3359186005518
 51
-5.03604298841546
 0
ARC
 5
135
100
AcDbEntity
 8
Layer8
100
AcDbCircle
 39
0.25
 370
106
 10
63.6396008303892
 20
328.308471492559
 30
0.0
 40
0.64520367335475
100
AcDbArc
 50
-174.112902508373
 51
-90.515135902804
 0
LINE
 5
136
100
AcDbEntity
 8
Layer8
100
AcDbLine
 39
0.25
 370
106
 10
146.2508
 20
328.242293896484
 30
0.0
 11
146.4018
 21
331.491293896484
 31
0.0
 0
LINE
 5
137
100
AcDbEntity
 8
Layer8
100
AcDbLine
 39
0.25
 370
106
 10
62.8478
 20
331.491293896484
 30
0.0
 11
62.9978
 21
328.242293896484
 31
0.0
 0
ARC
 5
138
100
AcDbEntity
 8
Layer8
100
AcDbCircle
 39
0.25
 370
106
 10
63.6185654572989
 20
334.681325809584
 30
0.0
 40
0.637968130014059
100
AcDbArc
 50
89.978935770363
 51
175.237465228586
 0
ARC
 5
139
100
AcDbEntity
 8
Layer8
100
AcDbCircle
 39
0.25
 370
106
 10
145.62415931561
 20
334.674938383219
 30
0.0
 40
0.644380202069224
100
AcDbArc
 50
5.28515310688825
 51
89.4984458931987
 0
LINE
 5
13A
100
AcDbEntity
 8
Layer8
100
AcDbLine
 39
0.25
 370
106
 10
62.9828
 20
334.734293896484
 30
0.0
 11
62.8478
 21
331.650293896484
 31
0.0
 0
LINE
 5
13B
100
AcDbEntity
 8
Layer8
100
AcDbLine
 39
0.25
 370
106
 10
146.4018
 20
331.650293896484
 30
0.0
 11
146.2658
 21
334.734293896484
 31
0.0
 0
LINE
 5
13C
100
AcDbEntity
 8
Layer8
100
AcDbLine
 39
0.25
 370
106
 10
75.1268
 20
335.319293896484
 30
0.0
 11
75.2408
 21
335.364293896484
 31
0.0
 0
LINE
 5
13D
100
AcDbEntity
 8
Layer8
100
AcDbLine
 39
0.25
 370
106
 10
75.2408
 20
335.364293896484
 30
0.0
 11
75.2858
 21
335.478293896484
 31
0.0
 0
LINE
 5
13E
100
AcDbEntity
 8
Layer8
100
AcDbLine
 39
0.25
 370
106
 10
63.8048
 20
335.478293896484
 30
0.0
 11
63.8528
 21
335.364293896484
 31
0.0
 0
LINE
 5
13F
100
AcDbEntity
 8
Layer8
100
AcDbLine
 39
0.25
 370
106
 10
63.8528
 20
335.364293896484
 30
0.0
 11
63.9668
 21
335.319293896484
 31
0.0
 0
LINE
 5
140
100
AcDbEntity
 8
Layer8
100
AcDbLine
 39
0.25
 370
106
 10
64.1678
 20
308.208293896484
 30
0.0
 11
74.9258
 21
308.208293896484
 31
0.0
 0
LINE
 5
141
100
AcDbEntity
 8
Layer8
100
AcDbLine
 39
0.25
 370
106
 10
75.2858
 20
357.480293896484
 30
0.0
 11
63.8048
 21
357.480293896484
 31
0.0
 0
LINE
 5
142
100
AcDbEntity
 8
Layer8
100
AcDbLine
 39
0.25
 370
106
 10
74.6078
 20
307.893293896484
 30
0.0
 11
64.4858
 21
307.893293896484
 31
0.0
 0
LINE
 5
143
100
AcDbEntity
 8
Layer8
100
AcDbLine
 39
0.25
 370
106
 10
63.9668
 20
357.642293896484
 30
0.0
 11
75.1268
 21
357.642293896484
 31
0.0
 0
ARC
 5
144
100
AcDbEntity
 8
Layer8
100
AcDbCircle
 39
0.25
 370
106
 10
74.6007916540318
 20
308.2183832743
 30
0.0
 40
0.325164912746657
100
AcDbArc
 50
-88.76499669743
 51
-1.77808719047631
 0
ARC
 5
145
100
AcDbEntity
 8
Layer8
100
AcDbCircle
 39
0.25
 370
106
 10
64.4873071598979
 20
308.212829695995
 30
0.0
 40
0.319539353919346
100
AcDbArc
 50
-179.186670143542
 51
-90.270245966043
 0
LINE
 5
146
100
AcDbEntity
 8
Layer8
100
AcDbLine
 39
0.25
 370
106
 10
74.9258
 20
308.208293896484
 30
0.0
 11
75.0938
 21
327.663293896484
 31
0.0
 0
LINE
 5
147
100
AcDbEntity
 8
Layer8
100
AcDbLine
 39
0.25
 370
106
 10
63.9968
 20
327.663293896484
 30
0.0
 11
64.1678
 21
308.208293896484
 31
0.0
 0
LINE
 5
148
100
AcDbEntity
 8
Layer8
100
AcDbLine
 39
0.25
 370
106
 10
75.2858
 20
357.480293896484
 30
0.0
 11
75.2408
 21
357.594293896484
 31
0.0
 0
LINE
 5
149
100
AcDbEntity
 8
Layer8
100
AcDbLine
 39
0.25
 370
106
 10
75.2408
 20
357.594293896484
 30
0.0
 11
75.1268
 21
357.642293896484
 31
0.0
 0
LINE
 5
14A
100
AcDbEntity
 8
Layer8
100
AcDbLine
 39
0.25
 370
106
 10
63.9668
 20
357.642293896484
 30
0.0
 11
63.8048
 21
357.480293896484
 31
0.0
 0
LINE
 5
14B
100
AcDbEntity
 8
Layer8
100
AcDbLine
 39
0.25
 370
106
 10
63.8048
 20
357.480293896484
 30
0.0
 11
63.8048
 21
335.478293896484
 31
0.0
 0
LINE
 5
14C
100
AcDbEntity
 8
Layer8
100
AcDbLine
 39
0.25
 370
106
 10
75.2858
 20
335.478293896484
 30
0.0
 11
75.2858
 21
357.480293896484
 31
0.0
 0
LINE
 5
14D
100
AcDbEntity
 8
Layer8
100
AcDbLine
 39
0.25
 370
106
 10
134.3318
 20
308.208293896484
 30
0.0
 11
145.0898
 21
308.208293896484
 31
0.0
 0
LINE
 5
14E
100
AcDbEntity
 8
Layer8
100
AcDbLine
 39
0.25
 370
106
 10
145.4528
 20
357.480293896484
 30
0.0
 11
133.9718
 21
357.480293896484
 31
0.0
 0
LINE
 5
14F
100
AcDbEntity
 8
Layer8
100
AcDbLine
 39
0.25
 370
106
 10
144.7718
 20
307.893293896484
 30
0.0
 11
134.6528
 21
307.893293896484
 31
0.0
 0
LINE
 5
150
100
AcDbEntity
 8
Layer8
100
AcDbLine
 39
0.25
 370
106
 10
134.1308
 20
357.642293896484
 30
0.0
 11
145.2908
 21
357.642293896484
 31
0.0
 0
ARC
 5
151
100
AcDbEntity
 8
Layer8
100
AcDbCircle
 39
0.25
 370
106
 10
144.777019068398
 20
308.206039408381
 30
0.0
 40
0.312789056532415
100
AcDbArc
 50
-90.9560579666338
 51
0.412974076453279
 0
ARC
 5
152
100
AcDbEntity
 8
Layer8
100
AcDbCircle
 39
0.25
 370
106
 10
134.651306958554
 20
308.212829559008
 30
0.0
 40
0.319539150650872
100
AcDbArc
 50
-179.186694191474
 51
-89.7322854347645
 0
LINE
 5
153
100
AcDbEntity
 8
Layer8
100
AcDbLine
 39
0.25
 370
106
 10
145.0898
 20
308.208293896484
 30
0.0
 11
145.2608
 21
327.663293896484
 31
0.0
 0
LINE
 5
154
100
AcDbEntity
 8
Layer8
100
AcDbLine
 39
0.25
 370
106
 10
134.1638
 20
327.663293896484
 30
0.0
 11
134.3318
 21
308.208293896484
 31
0.0
 0
LINE
 5
155
100
AcDbEntity
 8
Layer8
100
AcDbLine
 39
0.25
 370
106
 10
145.4528
 20
357.480293896484
 30
0.0
 11
145.4048
 21
357.594293896484
 31
0.0
 0
LINE
 5
156
100
AcDbEntity
 8
Layer8
100
AcDbLine
 39
0.25
 370
106
 10
145.4048
 20
357.594293896484
 30
0.0
 11
145.2908
 21
357.642293896484
 31
0.0
 0
LINE
 5
157
100
AcDbEntity
 8
Layer8
100
AcDbLine
 39
0.25
 370
106
 10
134.1308
 20
357.642293896484
 30
0.0
 11
133.9718
 21
357.480293896484
 31
0.0
 0
LINE
 5
158
100
AcDbEntity
 8
Layer8
100
AcDbLine
 39
0.25
 370
106
 10
133.9718
 20
357.480293896484
 30
0.0
 11
133.9718
 21
335.478293896484
 31
0.0
 0
LINE
 5
159
100
AcDbEntity
 8
Layer8
100
AcDbLine
 39
0.25
 370
106
 10
145.4528
 20
335.478293896484
 30
0.0
 11
145.4528
 21
357.480293896484
 31
0.0
 0
LINE
 5
15A
100
AcDbEntity
 8
Layer8
100
AcDbLine
 39
0.25
 370
106
 10
92.4858
 20
335.319293896484
 30
0.0
 11
92.4858
 21
335.325293896484
 31
0.0
 0
LINE
 5
15B
100
AcDbEntity
 8
Layer8
100
AcDbLine
 39
0.25
 370
106
 10
90.7338
 20
335.325293896484
 30
0.0
 11
90.7338
 21
335.319293896484
 31
0.0
 0
LINE
 5
15C
100
AcDbEntity
 8
Layer8
100
AcDbLine
 39
0.25
 370
106
 10
30.5879
 20
357.490793896484
 30
0.0
 11
34.9409
 21
357.490793896484
 31
0.0
 0
LINE
 5
15D
100
AcDbEntity
 8
Layer8
100
AcDbLine
 39
0.25
 370
106
 10
30.5879
 20
308.041793896484
 30
0.0
 11
34.9409
 21
308.041793896484
 31
0.0
 0
LINE
 5
15E
100
AcDbEntity
 8
Layer8
100
AcDbLine
 39
0.25
 370
106
 10
263.0127
 20
169.271093896484
 30
0.0
 11
267.3657
 21
169.271093896484
 31
0.0
 0
LINE
 5
15F
100
AcDbEntity
 8
Layer8
100
AcDbLine
 39
0.25
 370
106
 10
263.0127
 20
72.0760938964844
 30
0.0
 11
267.3657
 21
72.0760938964844
 31
0.0
 0
LINE
 5
160
100
AcDbEntity
 8
Layer8
100
AcDbLine
 39
0.25
 370
106
 10
376.2656
 20
163.314093896484
 30
0.0
 11
374.7326
 21
162.857093896484
 31
0.0
 0
LINE
 5
161
100
AcDbEntity
 8
Layer8
100
AcDbLine
 39
0.25
 370
106
 10
374.7326
 20
162.857093896484
 30
0.0
 11
373.5296
 21
162.175093896484
 31
0.0
 0
LINE
 5
162
100
AcDbEntity
 8
Layer8
100
AcDbLine
 39
0.25
 370
106
 10
373.5296
 20
162.175093896484
 30
0.0
 11
372.7586
 21
161.335093896484
 31
0.0
 0
LINE
 5
163
100
AcDbEntity
 8
Layer8
100
AcDbLine
 39
0.25
 370
106
 10
372.7586
 20
161.335093896484
 30
0.0
 11
372.4916
 21
160.410093896484
 31
0.0
 0
ARC
 5
164
100
AcDbEntity
 8
Layer8
100
AcDbCircle
 39
0.25
 370
106
 10
363.910499157949
 20
159.702505017434
 30
0.0
 40
3.30571841963148
100
AcDbArc
 50
12.3597962322779
 51
72.6080610122791
 0
LINE
 5
165
100
AcDbEntity
 8
Layer8
100
AcDbLine
 39
0.25
 370
106
 10
364.8986
 20
162.857093896484
 30
0.0
 11
363.3656
 21
163.314093896484
 31
0.0
 0
LINE
 5
166
100
AcDbEntity
 8
Layer8
100
AcDbLine
 39
0.25
 370
106
 10
381.1016
 20
164.279093896484
 30
0.0
 11
376.2656
 21
163.314093896484
 31
0.0
 0
LINE
 5
167
100
AcDbEntity
 8
Layer8
100
AcDbLine
 39
0.25
 370
106
 10
358.5296
 20
164.279093896484
 30
0.0
 11
363.3686
 21
163.314093896484
 31
0.0
 0
LINE
 5
168
100
AcDbEntity
 8
Layer8
100
AcDbLine
 39
0.25
 370
106
 10
358.5296
 20
164.279093896484
 30
0.0
 11
358.5296
 21
165.314093896484
 31
0.0
 0
LINE
 5
169
100
AcDbEntity
 8
Layer8
100
AcDbLine
 39
0.25
 370
106
 10
380.6966
 20
164.212093896484
 30
0.0
 11
380.6786
 21
164.226093896484
 31
0.0
 0
LINE
 5
16A
100
AcDbEntity
 8
Layer8
100
AcDbLine
 39
0.25
 370
106
 10
358.9526
 20
164.226093896484
 30
0.0
 11
358.9376
 21
164.212093896484
 31
0.0
 0
LINE
 5
16B
100
AcDbEntity
 8
Layer8
100
AcDbLine
 39
0.25
 370
106
 10
377.5886
 20
169.763093896484
 30
0.0
 11
376.5896
 21
169.763093896484
 31
0.0
 0
LINE
 5
16C
100
AcDbEntity
 8
Layer8
100
AcDbLine
 39
0.25
 370
106
 10
374.6546
 20
169.763093896484
 30
0.0
 11
373.6526
 21
169.763093896484
 31
0.0
 0
LINE
 5
16D
100
AcDbEntity
 8
Layer8
100
AcDbLine
 39
0.25
 370
106
 10
363.3656
 20
165.570093896484
 30
0.0
 11
363.3656
 21
165.732093896484
 31
0.0
 0
LINE
 5
16E
100
AcDbEntity
 8
Layer8
100
AcDbLine
 39
0.25
 370
106
 10
376.2656
 20
165.570093896484
 30
0.0
 11
376.2656
 21
165.732093896484
 31
0.0
 0
ARC
 5
16F
100
AcDbEntity
 8
Layer8
100
AcDbCircle
 39
0.25
 370
106
 10
314.93714777215
 20
145.579227314607
 30
0.0
 40
9.66165677628356
100
AcDbArc
 50
-161.447183759853
 51
-119.97753809131
 0
LINE
 5
170
100
AcDbEntity
 8
Layer8
100
AcDbLine
 39
0.25
 370
106
 10
305.6336
 20
142.457093896484
 30
0.0
 11
305.7776
 21
142.505093896484
 31
0.0
 0
ARC
 5
171
100
AcDbEntity
 8
Layer8
100
AcDbCircle
 39
0.25
 370
106
 10
299.366036117711
 20
140.341398790568
 30
0.0
 40
6.76681076490528
100
AcDbArc
 50
18.6478724283749
 51
-78.6427177420662
 0
LINE
 5
172
100
AcDbEntity
 8
Layer8
100
AcDbLine
 39
0.25
 370
106
 10
300.6686
 20
133.857093896484
 30
0.0
 11
300.6986
 21
133.707093896484
 31
0.0
 0
ARC
 5
173
100
AcDbEntity
 8
Layer8
100
AcDbCircle
 39
0.25
 370
106
 10
302.617537872122
 20
124.25254012549
 30
0.0
 40
9.64732655017341
100
AcDbArc
 50
59.9492471385829
 51
101.473154217254
 0
LINE
 5
174
100
AcDbEntity
 8
Layer8
100
AcDbLine
 39
0.25
 370
106
 10
350.9516
 20
132.246093896484
 30
0.0
 11
351.0266
 21
132.117093896484
 31
0.0
 0
LINE
 5
175
100
AcDbEntity
 8
Layer8
100
AcDbLine
 39
0.25
 370
106
 10
342.8906
 20
127.593093896484
 30
0.0
 11
350.9516
 21
132.246093896484
 31
0.0
 0
LINE
 5
176
100
AcDbEntity
 8
Layer8
100
AcDbLine
 39
0.25
 370
106
 10
353.6096
 20
127.638093896484
 30
0.0
 11
353.5346
 21
127.769093896484
 31
0.0
 0
LINE
 5
177
100
AcDbEntity
 8
Layer8
100
AcDbLine
 39
0.25
 370
106
 10
345.5516
 20
122.984093896484
 30
0.0
 11
353.6096
 21
127.638093896484
 31
0.0
 0
LINE
 5
178
100
AcDbEntity
 8
Layer8
100
AcDbLine
 39
0.25
 370
106
 10
310.1096
 20
137.210093896484
 30
0.0
 11
326.7686
 21
127.593093896484
 31
0.0
 0
LINE
 5
179
100
AcDbEntity
 8
Layer8
100
AcDbLine
 39
0.25
 370
106
 10
310.0356
 20
137.078093896484
 30
0.0
 11
310.1096
 21
137.210093896484
 31
0.0
 0
LINE
 5
17A
100
AcDbEntity
 8
Layer8
100
AcDbLine
 39
0.25
 370
106
 10
342.9656
 20
127.460093896484
 30
0.0
 11
342.8906
 21
127.593093896484
 31
0.0
 0
ARC
 5
17B
100
AcDbEntity
 8
Layer8
100
AcDbCircle
 39
0.25
 370
106
 10
334.8296
 20
141.538343686226
 30
0.0
 40
16.107442773398
100
AcDbArc
 50
-120.02990057232
 51
-59.9700994276864
 0
LINE
 5
17C
100
AcDbEntity
 8
Layer8
100
AcDbLine
 39
0.25
 370
106
 10
326.6936
 20
127.460093896484
 30
0.0
 11
326.7686
 21
127.593093896484
 31
0.0
 0
LINE
 5
17D
100
AcDbEntity
 8
Layer8
100
AcDbLine
 39
0.25
 370
106
 10
307.5236
 20
132.734093896484
 30
0.0
 11
307.4486
 21
132.603093896484
 31
0.0
 0
LINE
 5
17E
100
AcDbEntity
 8
Layer8
100
AcDbLine
 39
0.25
 370
106
 10
324.1076
 20
122.984093896484
 30
0.0
 11
307.4486
 21
132.603093896484
 31
0.0
 0
LINE
 5
17F
100
AcDbEntity
 8
Layer8
100
AcDbLine
 39
0.25
 370
106
 10
345.4766
 20
123.117093896484
 30
0.0
 11
345.5516
 21
122.984093896484
 31
0.0
 0
ARC
 5
180
100
AcDbEntity
 8
Layer8
100
AcDbCircle
 39
0.25
 370
106
 10
353.604724857531
 20
109.026579357658
 30
0.0
 40
16.1141252344808
100
AcDbArc
 50
119.983834128904
 51
-179.987607008543
 0
LINE
 5
181
100
AcDbEntity
 8
Layer8
100
AcDbLine
 39
0.25
 370
106
 10
324.1826
 20
123.117093896484
 30
0.0
 11
324.1076
 21
122.984093896484
 31
0.0
 0
ARC
 5
182
100
AcDbEntity
 8
Layer8
100
AcDbCircle
 39
0.25
 370
106
 10
316.046921532195
 20
109.022217947127
 30
0.0
 40
16.1216784916021
100
AcDbArc
 50
0.00311308784093241
 51
60.0006597917988
 0
LINE
 5
183
100
AcDbEntity
 8
Layer8
100
AcDbLine
 39
0.25
 370
106
 10
337.3376
 20
109.023093896484
 30
0.0
 11
337.4906
 21
109.023093896484
 31
0.0
 0
LINE
 5
184
100
AcDbEntity
 8
Layer8
100
AcDbLine
 39
0.25
 370
106
 10
337.4906
 20
89.7870938964844
 30
0.0
 11
337.4906
 21
109.023093896484
 31
0.0
 0
LINE
 5
185
100
AcDbEntity
 8
Layer8
100
AcDbLine
 39
0.25
 370
106
 10
332.3186
 20
109.023093896484
 30
0.0
 11
332.1686
 21
109.023093896484
 31
0.0
 0
LINE
 5
186
100
AcDbEntity
 8
Layer8
100
AcDbLine
 39
0.25
 370
106
 10
332.1686
 20
109.023093896484
 30
0.0
 11
332.1686
 21
89.7870938964844
 31
0.0
 0
LINE
 5
187
100
AcDbEntity
 8
Layer8
100
AcDbLine
 39
0.25
 370
106
 10
337.3376
 20
89.7870938964844
 30
0.0
 11
337.4906
 21
89.7870938964844
 31
0.0
 0
ARC
 5
188
100
AcDbEntity
 8
Layer8
100
AcDbCircle
 39
0.25
 370
106
 10
347.130445200084
 20
89.7733703762161
 30
0.0
 40
9.63985496864881
100
AcDbArc
 50
179.918432376883
 51
-138.518128481584
 0
ARC
 5
189
100
AcDbEntity
 8
Layer8
100
AcDbCircle
 39
0.25
 370
106
 10
322.532667480428
 20
89.7730197856614
 30
0.0
 40
9.63594279779326
100
AcDbArc
 50
-41.4996586815238
 51
0.0836853698894063
 0
LINE
 5
18A
100
AcDbEntity
 8
Layer8
100
AcDbLine
 39
0.25
 370
106
 10
332.3186
 20
89.7870938964844
 30
0.0
 11
332.1686
 21
89.7870938964844
 31
0.0
 0
LINE
 5
18B
100
AcDbEntity
 8
Layer8
100
AcDbLine
 39
0.25
 370
106
 10
339.7946
 20
83.2850938964843
 30
0.0
 11
339.9086
 21
83.3880938964843
 31
0.0
 0
ARC
 5
18C
100
AcDbEntity
 8
Layer8
100
AcDbCircle
 39
0.25
 370
106
 10
334.829099999999
 20
78.9153489985255
 30
0.0
 40
6.76806967843935
100
AcDbArc
 50
138.634524081418
 51
41.3654759185799
 0
LINE
 5
18D
100
AcDbEntity
 8
Layer8
100
AcDbLine
 39
0.25
 370
106
 10
329.8646
 20
83.2850938964843
 30
0.0
 11
329.7496
 21
83.3880938964843
 31
0.0
 0
LINE
 5
18E
100
AcDbEntity
 8
Layer8
100
AcDbLine
 39
0.25
 370
106
 10
351.2086
 20
131.798093896484
 30
0.0
 11
351.2936
 21
131.847093896484
 31
0.0
 0
LINE
 5
18F
100
AcDbEntity
 8
Layer8
100
AcDbLine
 39
0.25
 370
106
 10
353.3546
 20
128.084093896484
 30
0.0
 11
353.4386
 21
128.132093896484
 31
0.0
 0
LINE
 5
190
100
AcDbEntity
 8
Layer8
100
AcDbLine
 39
0.25
 370
106
 10
353.2766
 20
128.412093896484
 30
0.0
 11
351.4526
 21
131.568093896484
 31
0.0
 0
LINE
 5
191
100
AcDbEntity
 8
Layer8
100
AcDbLine
 39
0.25
 370
106
 10
351.3686
 20
131.519093896484
 30
0.0
 11
351.4526
 21
131.568093896484
 31
0.0
 0
LINE
 5
192
100
AcDbEntity
 8
Layer8
100
AcDbLine
 39
0.25
 370
106
 10
353.1926
 20
128.363093896484
 30
0.0
 11
353.2766
 21
128.412093896484
 31
0.0
 0
ARC
 5
193
100
AcDbEntity
 8
Layer8
100
AcDbCircle
 39
0.25
 370
106
 10
317.211533676455
 20
147.812727389231
 30
0.0
 40
12.9122569813526
100
AcDbArc
 50
-162.877207162377
 51
-123.762104827928
 0
ARC
 5
194
100
AcDbEntity
 8
Layer8
100
AcDbCircle
 39
0.25
 370
106
 10
299.366317223217
 20
140.341537230301
 30
0.0
 40
6.61617597851501
100
AcDbArc
 50
33.685514707846
 51
-86.1756724166665
 0
ARC
 5
195
100
AcDbEntity
 8
Layer8
100
AcDbCircle
 39
0.25
 370
106
 10
302.443606950185
 20
123.864431498494
 30
0.0
 40
10.2214108830678
100
AcDbArc
 50
60.1985918110105
 51
104.944941301923
 0
LINE
 5
196
100
AcDbEntity
 8
Layer8
100
AcDbLine
 39
0.25
 370
106
 10
351.0266
 20
132.117093896484
 30
0.0
 11
351.3476
 21
131.558093896484
 31
0.0
 0
LINE
 5
197
100
AcDbEntity
 8
Layer8
100
AcDbLine
 39
0.25
 370
106
 10
342.9656
 20
127.460093896484
 30
0.0
 11
351.0266
 21
132.117093896484
 31
0.0
 0
LINE
 5
198
100
AcDbEntity
 8
Layer8
100
AcDbLine
 39
0.25
 370
106
 10
353.5346
 20
127.769093896484
 30
0.0
 11
353.2136
 21
128.324093896484
 31
0.0
 0
LINE
 5
199
100
AcDbEntity
 8
Layer8
100
AcDbLine
 39
0.25
 370
106
 10
345.4766
 20
123.117093896484
 30
0.0
 11
353.5346
 21
127.769093896484
 31
0.0
 0
LINE
 5
19A
100
AcDbEntity
 8
Layer8
100
AcDbLine
 39
0.25
 370
106
 10
326.6936
 20
127.460093896484
 30
0.0
 11
310.0356
 21
137.078093896484
 31
0.0
 0
ARC
 5
19B
100
AcDbEntity
 8
Layer8
100
AcDbCircle
 39
0.25
 370
106
 10
334.8296
 20
141.562646648779
 30
0.0
 40
16.2811698022981
100
AcDbArc
 50
-119.981370739397
 51
-60.0186292606103
 0
LINE
 5
19C
100
AcDbEntity
 8
Layer8
100
AcDbLine
 39
0.25
 370
106
 10
307.5236
 20
132.734093896484
 30
0.0
 11
324.1826
 21
123.117093896484
 31
0.0
 0
ARC
 5
19D
100
AcDbEntity
 8
Layer8
100
AcDbCircle
 39
0.25
 370
106
 10
353.637494836024
 20
109.007288194029
 30
0.0
 40
16.299902499269
100
AcDbArc
 50
120.044428733632
 51
179.944441374126
 0
ARC
 5
19E
100
AcDbEntity
 8
Layer8
100
AcDbCircle
 39
0.25
 370
106
 10
316.079775127987
 20
109.044279283266
 30
0.0
 40
16.2388386913758
100
AcDbArc
 50
-0.0747487931457419
 51
60.0675853794496
 0
LINE
 5
19F
100
AcDbEntity
 8
Layer8
100
AcDbLine
 39
0.25
 370
106
 10
337.3376
 20
109.023093896484
 30
0.0
 11
337.3376
 21
89.7870938964844
 31
0.0
 0
LINE
 5
1A0
100
AcDbEntity
 8
Layer8
100
AcDbLine
 39
0.25
 370
106
 10
332.3186
 20
89.7870938964844
 30
0.0
 11
332.3186
 21
109.023093896484
 31
0.0
 0
ARC
 5
1A1
100
AcDbEntity
 8
Layer8
100
AcDbCircle
 39
0.25
 370
106
 10
347.174538445875
 20
89.7890827093901
 30
0.0
 40
9.83693864692218
100
AcDbArc
 50
-179.988416051929
 51
-138.610058156042
 0
CIRCLE
 5
1A2
100
AcDbEntity
 8
Layer8
100
AcDbCircle
 39
0.25
 370
106
 10
299.3576
 20
140.345593896484
 30
0.0
 40
5.63675000000001
 370
106
 0
ARC
 5
1A3
100
AcDbEntity
 8
Layer8
100
AcDbCircle
 39
0.25
 370
106
 10
322.499317294925
 20
89.7790132687154
 30
0.0
 40
9.81928602998759
100
AcDbArc
 50
-41.4024038089774
 51
0.0471506704069745
 0
CIRCLE
 5
1A4
100
AcDbEntity
 8
Layer8
100
AcDbCircle
 39
0.25
 370
106
 10
334.8296
 20
78.9085938964844
 30
0.0
 40
5.63724999999999
 370
106
 0
LINE
 5
1A5
100
AcDbEntity
 8
Layer8
100
AcDbLine
 39
0.25
 370
106
 10
351.3476
 20
131.558093896484
 30
0.0
 11
353.2136
 21
128.324093896484
 31
0.0
 0
ARC
 5
1A6
100
AcDbEntity
 8
Layer8
100
AcDbCircle
 39
0.25
 370
106
 10
334.829600000001
 20
78.8981022646904
 30
0.0
 40
6.62547512088277
100
AcDbArc
 50
138.536719074928
 51
41.463280925085
 0
ARC
 5
1A7
100
AcDbEntity
 8
Layer8
100
AcDbCircle
 39
0.25
 370
106
 10
424.665883852786
 20
145.604727107011
 30
0.0
 40
9.69932932415857
100
AcDbArc
 50
-59.9382402711336
 51
-18.6370378777224
 0
LINE
 5
1A8
100
AcDbEntity
 8
Layer8
100
AcDbLine
 39
0.25
 370
106
 10
433.9996
 20
142.457093896484
 30
0.0
 11
433.8566
 21
142.505093896484
 31
0.0
 0
ARC
 5
1A9
100
AcDbEntity
 8
Layer8
100
AcDbCircle
 39
0.25
 370
106
 10
440.278141341477
 20
140.347158680908
 30
0.0
 40
6.77442821165898
100
AcDbArc
 50
-101.430422463324
 51
161.425267777007
 0
LINE
 5
1AA
100
AcDbEntity
 8
Layer8
100
AcDbLine
 39
0.25
 370
106
 10
438.9656
 20
133.857093896484
 30
0.0
 11
438.9356
 21
133.707093896484
 31
0.0
 0
ARC
 5
1AB
100
AcDbEntity
 8
Layer8
100
AcDbCircle
 39
0.25
 370
106
 10
437.016662127877
 20
124.252540125498
 30
0.0
 40
9.64732655016579
100
AcDbArc
 50
78.5268457827329
 51
120.050752861439
 0
LINE
 5
1AC
100
AcDbEntity
 8
Layer8
100
AcDbLine
 39
0.25
 370
106
 10
388.6826
 20
132.246093896484
 30
0.0
 11
388.6076
 21
132.117093896484
 31
0.0
 0
LINE
 5
1AD
100
AcDbEntity
 8
Layer8
100
AcDbLine
 39
0.25
 370
106
 10
396.7406
 20
127.593093896484
 30
0.0
 11
388.6826
 21
132.246093896484
 31
0.0
 0
LINE
 5
1AE
100
AcDbEntity
 8
Layer8
100
AcDbLine
 39
0.25
 370
106
 10
429.5996
 20
137.078093896484
 30
0.0
 11
429.5246
 21
137.210093896484
 31
0.0
 0
LINE
 5
1AF
100
AcDbEntity
 8
Layer8
100
AcDbLine
 39
0.25
 370
106
 10
429.5246
 20
137.210093896484
 30
0.0
 11
412.8656
 21
127.593093896484
 31
0.0
 0
LINE
 5
1B0
100
AcDbEntity
 8
Layer8
100
AcDbLine
 39
0.25
 370
106
 10
386.0216
 20
127.638093896484
 30
0.0
 11
386.0966
 21
127.769093896484
 31
0.0
 0
LINE
 5
1B1
100
AcDbEntity
 8
Layer8
100
AcDbLine
 39
0.25
 370
106
 10
394.0816
 20
122.984093896484
 30
0.0
 11
386.0216
 21
127.638093896484
 31
0.0
 0
LINE
 5
1B2
100
AcDbEntity
 8
Layer8
100
AcDbLine
 39
0.25
 370
106
 10
396.6646
 20
127.460093896484
 30
0.0
 11
396.7406
 21
127.593093896484
 31
0.0
 0
ARC
 5
1B3
100
AcDbEntity
 8
Layer8
100
AcDbCircle
 39
0.25
 370
106
 10
404.8031
 20
141.541556890595
 30
0.0
 40
16.1109753319927
100
AcDbArc
 50
-120.028800219851
 51
-59.971199780156
 0
LINE
 5
1B4
100
AcDbEntity
 8
Layer8
100
AcDbLine
 39
0.25
 370
106
 10
412.9406
 20
127.460093896484
 30
0.0
 11
412.8656
 21
127.593093896484
 31
0.0
 0
LINE
 5
1B5
100
AcDbEntity
 8
Layer8
100
AcDbLine
 39
0.25
 370
106
 10
432.1076
 20
132.734093896484
 30
0.0
 11
432.1856
 21
132.603093896484
 31
0.0
 0
LINE
 5
1B6
100
AcDbEntity
 8
Layer8
100
AcDbLine
 39
0.25
 370
106
 10
415.5266
 20
122.984093896484
 30
0.0
 11
432.1856
 21
132.603093896484
 31
0.0
 0
ARC
 5
1B7
100
AcDbEntity
 8
Layer8
100
AcDbCircle
 39
0.25
 370
106
 10
423.552719713112
 20
109.04217197059
 30
0.0
 40
16.0871310256654
100
AcDbArc
 50
119.928278809256
 51
-179.9320516889
 0
LINE
 5
1B8
100
AcDbEntity
 8
Layer8
100
AcDbLine
 39
0.25
 370
106
 10
415.4486
 20
123.117093896484
 30
0.0
 11
415.5266
 21
122.984093896484
 31
0.0
 0
LINE
 5
1B9
100
AcDbEntity
 8
Layer8
100
AcDbLine
 39
0.25
 370
106
 10
394.1576
 20
123.117093896484
 30
0.0
 11
394.0816
 21
122.984093896484
 31
0.0
 0
ARC
 5
1BA
100
AcDbEntity
 8
Layer8
100
AcDbCircle
 39
0.25
 370
106
 10
386.02711951845
 20
109.024642271081
 30
0.0
 40
16.1164805559292
100
AcDbArc
 50
-0.00550463417296351
 51
60.0154330711637
 0
LINE
 5
1BB
100
AcDbEntity
 8
Layer8
100
AcDbLine
 39
0.25
 370
106
 10
407.4656
 20
109.023093896484
 30
0.0
 11
407.4656
 21
89.7870938964844
 31
0.0
 0
LINE
 5
1BC
100
AcDbEntity
 8
Layer8
100
AcDbLine
 39
0.25
 370
106
 10
407.3126
 20
109.023093896484
 30
0.0
 11
407.4656
 21
109.023093896484
 31
0.0
 0
LINE
 5
1BD
100
AcDbEntity
 8
Layer8
100
AcDbLine
 39
0.25
 370
106
 10
402.2936
 20
109.023093896484
 30
0.0
 11
402.1436
 21
109.023093896484
 31
0.0
 0
LINE
 5
1BE
100
AcDbEntity
 8
Layer8
100
AcDbLine
 39
0.25
 370
106
 10
402.1436
 20
89.7870938964844
 30
0.0
 11
402.1436
 21
109.023093896484
 31
0.0
 0
ARC
 5
1BF
100
AcDbEntity
 8
Layer8
100
AcDbCircle
 39
0.25
 370
106
 10
417.147046953387
 20
89.7856845188379
 30
0.0
 40
9.68144705597223
100
AcDbArc
 50
179.991659161007
 51
-138.638373230172
 0
LINE
 5
1C0
100
AcDbEntity
 8
Layer8
100
AcDbLine
 39
0.25
 370
106
 10
407.3126
 20
89.7870938964844
 30
0.0
 11
407.4656
 21
89.7870938964844
 31
0.0
 0
LINE
 5
1C1
100
AcDbEntity
 8
Layer8
100
AcDbLine
 39
0.25
 370
106
 10
402.2936
 20
89.7870938964844
 30
0.0
 11
402.1436
 21
89.7870938964844
 31
0.0
 0
ARC
 5
1C2
100
AcDbEntity
 8
Layer8
100
AcDbCircle
 39
0.25
 370
106
 10
392.446732354684
 20
89.7949175355493
 30
0.0
 40
9.69687080145462
100
AcDbArc
 50
-41.3540764517627
 51
-0.0462274435398278
 0
LINE
 5
1C3
100
AcDbEntity
 8
Layer8
100
AcDbLine
 39
0.25
 370
106
 10
399.8366
 20
83.2850938964843
 30
0.0
 11
399.7256
 21
83.3880938964843
 31
0.0
 0
ARC
 5
1C4
100
AcDbEntity
 8
Layer8
100
AcDbCircle
 39
0.25
 370
106
 10
404.8031
 20
78.912565325058
 30
0.0
 40
6.76840913683998
100
AcDbArc
 50
138.605650271052
 51
41.3943497289587
 0
LINE
 5
1C5
100
AcDbEntity
 8
Layer8
100
AcDbLine
 39
0.25
 370
106
 10
409.7696
 20
83.2850938964843
 30
0.0
 11
409.8806
 21
83.3880938964843
 31
0.0
 0
LINE
 5
1C6
100
AcDbEntity
 8
Layer8
100
AcDbLine
 39
0.25
 370
106
 10
388.4246
 20
131.798093896484
 30
0.0
 11
388.3406
 21
131.847093896484
 31
0.0
 0
LINE
 5
1C7
100
AcDbEntity
 8
Layer8
100
AcDbLine
 39
0.25
 370
106
 10
388.1786
 20
131.568093896484
 30
0.0
 11
386.3576
 21
128.412093896484
 31
0.0
 0
LINE
 5
1C8
100
AcDbEntity
 8
Layer8
100
AcDbLine
 39
0.25
 370
106
 10
388.2626
 20
131.519093896484
 30
0.0
 11
388.1786
 21
131.568093896484
 31
0.0
 0
LINE
 5
1C9
100
AcDbEntity
 8
Layer8
100
AcDbLine
 39
0.25
 370
106
 10
386.2796
 20
128.084093896484
 30
0.0
 11
386.1956
 21
128.132093896484
 31
0.0
 0
LINE
 5
1CA
100
AcDbEntity
 8
Layer8
100
AcDbLine
 39
0.25
 370
106
 10
386.4416
 20
128.363093896484
 30
0.0
 11
386.3576
 21
128.412093896484
 31
0.0
 0
ARC
 5
1CB
100
AcDbEntity
 8
Layer8
100
AcDbCircle
 39
0.25
 370
106
 10
423.553902978086
 20
146.601379452159
 30
0.0
 40
11.2802225268697
100
AcDbArc
 50
-57.591267402686
 51
-17.2352714276714
 0
ARC
 5
1CC
100
AcDbEntity
 8
Layer8
100
AcDbCircle
 39
0.25
 370
106
 10
440.266112859116
 20
140.339752126304
 30
0.0
 40
6.61728731044988
100
AcDbArc
 50
-86.3220528599589
 51
153.821510717531
 0
LINE
 5
1CD
100
AcDbEntity
 8
Layer8
100
AcDbLine
 39
0.25
 370
106
 10
440.6906
 20
133.736093896484
 30
0.0
 11
437.2016
 21
134.048093896484
 31
0.0
 0
LINE
 5
1CE
100
AcDbEntity
 8
Layer8
100
AcDbLine
 39
0.25
 370
106
 10
437.2016
 20
134.048093896484
 30
0.0
 11
435.4346
 21
133.923093896484
 31
0.0
 0
LINE
 5
1CF
100
AcDbEntity
 8
Layer8
100
AcDbLine
 39
0.25
 370
106
 10
435.4346
 20
133.923093896484
 30
0.0
 11
433.7186
 21
133.478093896484
 31
0.0
 0
LINE
 5
1D0
100
AcDbEntity
 8
Layer8
100
AcDbLine
 39
0.25
 370
106
 10
433.7186
 20
133.478093896484
 30
0.0
 11
432.1076
 21
132.734093896484
 31
0.0
 0
LINE
 5
1D1
100
AcDbEntity
 8
Layer8
100
AcDbLine
 39
0.25
 370
106
 10
388.6076
 20
132.117093896484
 30
0.0
 11
388.2866
 21
131.558093896484
 31
0.0
 0
LINE
 5
1D2
100
AcDbEntity
 8
Layer8
100
AcDbLine
 39
0.25
 370
106
 10
396.6646
 20
127.460093896484
 30
0.0
 11
388.6076
 21
132.117093896484
 31
0.0
 0
LINE
 5
1D3
100
AcDbEntity
 8
Layer8
100
AcDbLine
 39
0.25
 370
106
 10
412.9406
 20
127.460093896484
 30
0.0
 11
429.5996
 21
137.078093896484
 31
0.0
 0
LINE
 5
1D4
100
AcDbEntity
 8
Layer8
100
AcDbLine
 39
0.25
 370
106
 10
386.0966
 20
127.769093896484
 30
0.0
 11
386.4166
 21
128.324093896484
 31
0.0
 0
LINE
 5
1D5
100
AcDbEntity
 8
Layer8
100
AcDbLine
 39
0.25
 370
106
 10
394.1576
 20
123.117093896484
 30
0.0
 11
386.0966
 21
127.769093896484
 31
0.0
 0
ARC
 5
1D6
100
AcDbEntity
 8
Layer8
100
AcDbCircle
 39
0.25
 370
106
 10
404.8026
 20
141.579870838835
 30
0.0
 40
16.2970900746647
100
AcDbArc
 50
-119.957200720607
 51
-60.0427992793974
 0
LINE
 5
1D7
100
AcDbEntity
 8
Layer8
100
AcDbLine
 39
0.25
 370
106
 10
432.1076
 20
132.734093896484
 30
0.0
 11
415.4486
 21
123.117093896484
 31
0.0
 0
ARC
 5
1D8
100
AcDbEntity
 8
Layer8
100
AcDbCircle
 39
0.25
 370
106
 10
386.054775127974
 20
109.044279283258
 30
0.0
 40
16.2388386913888
100
AcDbArc
 50
-0.074748793117102
 51
60.0675853794241
 0
ARC
 5
1D9
100
AcDbEntity
 8
Layer8
100
AcDbCircle
 39
0.25
 370
106
 10
423.606947828986
 20
109.012227716789
 30
0.0
 40
16.2943514521389
100
AcDbArc
 50
120.045372131855
 51
179.961791281853
 0
LINE
 5
1DA
100
AcDbEntity
 8
Layer8
100
AcDbLine
 39
0.25
 370
106
 10
407.3126
 20
89.7870938964844
 30
0.0
 11
407.3126
 21
109.023093896484
 31
0.0
 0
LINE
 5
1DB
100
AcDbEntity
 8
Layer8
100
AcDbLine
 39
0.25
 370
106
 10
402.2936
 20
109.023093896484
 30
0.0
 11
402.2936
 21
89.7870938964844
 31
0.0
 0
ARC
 5
1DC
100
AcDbEntity
 8
Layer8
100
AcDbCircle
 39
0.25
 370
106
 10
417.120083418286
 20
89.777952133755
 30
0.0
 40
9.80748767890043
100
AcDbArc
 50
179.946593407543
 51
-138.545067615493
 0
CIRCLE
 5
1DD
100
AcDbEntity
 8
Layer8
100
AcDbCircle
 39
0.25
 370
106
 10
404.8026
 20
78.9085938964844
 30
0.0
 40
5.63675000000001
 370
106
 0
ARC
 5
1DE
100
AcDbEntity
 8
Layer8
100
AcDbCircle
 39
0.25
 370
106
 10
392.489765001065
 20
89.776573455449
 30
0.0
 40
9.8038406436475
100
AcDbArc
 50
-41.4630095520915
 51
0.0614837600423316
 0
CIRCLE
 5
1DF
100
AcDbEntity
 8
Layer8
100
AcDbCircle
 39
0.25
 370
106
 10
440.2751
 20
140.345593896484
 30
0.0
 40
5.63599999999997
 370
106
 0
LINE
 5
1E0
100
AcDbEntity
 8
Layer8
100
AcDbLine
 39
0.25
 370
106
 10
386.4166
 20
128.324093896484
 30
0.0
 11
388.2866
 21
131.558093896484
 31
0.0
 0
ARC
 5
1E1
100
AcDbEntity
 8
Layer8
100
AcDbCircle
 39
0.25
 370
106
 10
404.8031
 20
78.8970918044296
 30
0.0
 40
6.62726826149922
100
AcDbArc
 50
138.53875932524
 51
41.4612406747628
 0
LINE
 5
1E2
100
AcDbEntity
 8
Layer8
100
AcDbLine
 39
0.25
 370
106
 10
353.4536
 20
128.105093896484
 30
0.0
 11
353.3696
 21
128.058093896484
 31
0.0
 0
LINE
 5
1E3
100
AcDbEntity
 8
Layer8
100
AcDbLine
 39
0.25
 370
106
 10
351.2756
 20
131.877093896484
 30
0.0
 11
351.1916
 21
131.828093896484
 31
0.0
 0
LINE
 5
1E4
100
AcDbEntity
 8
Layer8
100
AcDbLine
 39
0.25
 370
106
 10
388.3556
 20
131.877093896484
 30
0.0
 11
388.4396
 21
131.828093896484
 31
0.0
 0
LINE
 5
1E5
100
AcDbEntity
 8
Layer8
100
AcDbLine
 39
0.25
 370
106
 10
386.1806
 20
128.105093896484
 30
0.0
 11
386.2646
 21
128.058093896484
 31
0.0
 0
LINE
 5
1E6
100
AcDbEntity
 8
Layer8
100
AcDbLine
 39
0.25
 370
106
 10
372.1706
 20
160.314093896484
 30
0.0
 11
372.0206
 21
160.314093896484
 31
0.0
 0
LINE
 5
1E7
100
AcDbEntity
 8
Layer8
100
AcDbLine
 39
0.25
 370
106
 10
367.6106
 20
160.314093896484
 30
0.0
 11
367.4636
 21
160.314093896484
 31
0.0
 0
LINE
 5
1E8
100
AcDbEntity
 8
Layer8
100
AcDbLine
 39
0.25
 370
106
 10
367.9346
 20
160.314093896484
 30
0.0
 11
367.6106
 21
160.314093896484
 31
0.0
 0
LINE
 5
1E9
100
AcDbEntity
 8
Layer8
100
AcDbLine
 39
0.25
 370
106
 10
367.6106
 20
160.314093896484
 30
0.0
 11
367.6106
 21
160.410093896484
 31
0.0
 0
LINE
 5
1EA
100
AcDbEntity
 8
Layer8
100
AcDbLine
 39
0.25
 370
106
 10
367.9346
 20
160.314093896484
 30
0.0
 11
367.9346
 21
160.410093896484
 31
0.0
 0
LINE
 5
1EB
100
AcDbEntity
 8
Layer8
100
AcDbLine
 39
0.25
 370
106
 10
371.6996
 20
160.314093896484
 30
0.0
 11
367.9346
 21
160.314093896484
 31
0.0
 0
LINE
 5
1EC
100
AcDbEntity
 8
Layer8
100
AcDbLine
 39
0.25
 370
106
 10
371.6996
 20
160.314093896484
 30
0.0
 11
371.6996
 21
160.410093896484
 31
0.0
 0
LINE
 5
1ED
100
AcDbEntity
 8
Layer8
100
AcDbLine
 39
0.25
 370
106
 10
372.0206
 20
160.314093896484
 30
0.0
 11
371.6996
 21
160.314093896484
 31
0.0
 0
LINE
 5
1EE
100
AcDbEntity
 8
Layer8
100
AcDbLine
 39
0.25
 370
106
 10
372.0206
 20
160.314093896484
 30
0.0
 11
372.0206
 21
160.410093896484
 31
0.0
 0
ARC
 5
1EF
100
AcDbEntity
 8
Layer8
100
AcDbCircle
 39
0.25
 370
106
 10
369.815600000008
 20
167.813018896408
 30
0.0
 40
0.41384780496642
100
AcDbArc
 50
133.524047657691
 51
60.4663369364444
 0
LINE
 5
1F0
100
AcDbEntity
 8
Layer8
100
AcDbLine
 39
0.25
 370
106
 10
369.6116
 20
168.173093896484
 30
0.0
 11
369.5306
 21
168.113093896484
 31
0.0
 0
LINE
 5
1F1
100
AcDbEntity
 8
Layer8
100
AcDbLine
 39
0.25
 370
106
 10
358.9376
 20
164.212093896484
 30
0.0
 11
358.9346
 21
164.212093896484
 31
0.0
 0
LINE
 5
1F2
100
AcDbEntity
 8
Layer8
100
AcDbLine
 39
0.25
 370
106
 10
372.3416
 20
160.410093896484
 30
0.0
 11
371.6996
 21
160.410093896484
 31
0.0
 0
LINE
 5
1F3
100
AcDbEntity
 8
Layer8
100
AcDbLine
 39
0.25
 370
106
 10
372.4916
 20
160.410093896484
 30
0.0
 11
372.3416
 21
160.410093896484
 31
0.0
 0
LINE
 5
1F4
100
AcDbEntity
 8
Layer8
100
AcDbLine
 39
0.25
 370
106
 10
367.2886
 20
160.410093896484
 30
0.0
 11
367.1396
 21
160.410093896484
 31
0.0
 0
LINE
 5
1F5
100
AcDbEntity
 8
Layer8
100
AcDbLine
 39
0.25
 370
106
 10
367.9346
 20
160.410093896484
 30
0.0
 11
367.2886
 21
160.410093896484
 31
0.0
 0
LINE
 5
1F6
100
AcDbEntity
 8
Layer8
100
AcDbLine
 39
0.25
 370
106
 10
371.6996
 20
160.410093896484
 30
0.0
 11
367.9346
 21
160.410093896484
 31
0.0
 0
LINE
 5
1F7
100
AcDbEntity
 8
Layer8
100
AcDbLine
 39
0.25
 370
106
 10
363.3656
 20
165.570093896484
 30
0.0
 11
376.2656
 21
165.570093896484
 31
0.0
 0
LINE
 5
1F8
100
AcDbEntity
 8
Layer8
100
AcDbLine
 39
0.25
 370
106
 10
363.3656
 20
164.697093896484
 30
0.0
 11
368.2196
 21
164.677093896484
 31
0.0
 0
LINE
 5
1F9
100
AcDbEntity
 8
Layer8
100
AcDbLine
 39
0.25
 370
106
 10
368.2196
 20
164.677093896484
 30
0.0
 11
372.2426
 21
164.677093896484
 31
0.0
 0
LINE
 5
1FA
100
AcDbEntity
 8
Layer8
100
AcDbLine
 39
0.25
 370
106
 10
372.2426
 20
164.677093896484
 30
0.0
 11
376.2656
 21
164.697093896484
 31
0.0
 0
ARC
 5
1FB
100
AcDbEntity
 8
Layer8
100
AcDbCircle
 39
0.25
 370
106
 10
359.01476634559
 20
164.707265846765
 30
0.0
 40
0.485171207163997
100
AcDbArc
 50
-179.743504976832
 51
-97.3617073047983
 0
ARC
 5
1FC
100
AcDbEntity
 8
Layer8
100
AcDbCircle
 39
0.25
 370
106
 10
380.61450748198
 20
164.708966829938
 30
0.0
 40
0.487107914868845
100
AcDbArc
 50
-82.4392314191693
 51
-0.455556299702745
 0
LINE
 5
1FD
100
AcDbEntity
 8
Layer8
100
AcDbLine
 39
0.25
 370
106
 10
358.5296
 20
165.570093896484
 30
0.0
 11
363.3656
 21
165.570093896484
 31
0.0
 0
LINE
 5
1FE
100
AcDbEntity
 8
Layer8
100
AcDbLine
 39
0.25
 370
106
 10
358.5296
 20
165.570093896484
 30
0.0
 11
358.5296
 21
164.705093896484
 31
0.0
 0
LINE
 5
1FF
100
AcDbEntity
 8
Layer8
100
AcDbLine
 39
0.25
 370
106
 10
358.5296
 20
164.705093896484
 30
0.0
 11
363.3656
 21
164.697093896484
 31
0.0
 0
LINE
 5
200
100
AcDbEntity
 8
Layer8
100
AcDbLine
 39
0.25
 370
106
 10
376.2656
 20
164.697093896484
 30
0.0
 11
377.0666
 21
164.709093896484
 31
0.0
 0
LINE
 5
201
100
AcDbEntity
 8
Layer8
100
AcDbLine
 39
0.25
 370
106
 10
377.0666
 20
164.709093896484
 30
0.0
 11
379.8706
 21
164.724093896484
 31
0.0
 0
LINE
 5
202
100
AcDbEntity
 8
Layer8
100
AcDbLine
 39
0.25
 370
106
 10
379.8706
 20
164.724093896484
 30
0.0
 11
380.7356
 21
164.720093896484
 31
0.0
 0
LINE
 5
203
100
AcDbEntity
 8
Layer8
100
AcDbLine
 39
0.25
 370
106
 10
380.7356
 20
164.720093896484
 30
0.0
 11
381.1016
 21
164.705093896484
 31
0.0
 0
LINE
 5
204
100
AcDbEntity
 8
Layer8
100
AcDbLine
 39
0.25
 370
106
 10
381.1016
 20
165.570093896484
 30
0.0
 11
381.1016
 21
164.705093896484
 31
0.0
 0
LINE
 5
205
100
AcDbEntity
 8
Layer8
100
AcDbLine
 39
0.25
 370
106
 10
376.2656
 20
165.570093896484
 30
0.0
 11
381.1016
 21
165.570093896484
 31
0.0
 0
LINE
 5
206
100
AcDbEntity
 8
Layer8
100
AcDbLine
 39
0.25
 370
106
 10
373.8146
 20
169.921093896484
 30
0.0
 11
374.6546
 21
169.921093896484
 31
0.0
 0
LINE
 5
207
100
AcDbEntity
 8
Layer8
100
AcDbLine
 39
0.25
 370
106
 10
376.5896
 20
169.921093896484
 30
0.0
 11
377.4266
 21
169.921093896484
 31
0.0
 0
LINE
 5
208
100
AcDbEntity
 8
Layer8
100
AcDbLine
 39
0.25
 370
106
 10
376.5896
 20
169.763093896484
 30
0.0
 11
376.5896
 21
169.921093896484
 31
0.0
 0
LINE
 5
209
100
AcDbEntity
 8
Layer8
100
AcDbLine
 39
0.25
 370
106
 10
374.6546
 20
169.921093896484
 30
0.0
 11
376.5896
 21
169.921093896484
 31
0.0
 0
LINE
 5
20A
100
AcDbEntity
 8
Layer8
100
AcDbLine
 39
0.25
 370
106
 10
374.6546
 20
169.763093896484
 30
0.0
 11
374.6546
 21
169.921093896484
 31
0.0
 0
LINE
 5
20B
100
AcDbEntity
 8
Layer8
100
AcDbLine
 39
0.25
 370
106
 10
376.5896
 20
169.763093896484
 30
0.0
 11
374.6546
 21
169.763093896484
 31
0.0
 0
LINE
 5
20C
100
AcDbEntity
 8
Layer8
100
AcDbLine
 39
0.25
 370
106
 10
376.5896
 20
169.601093896484
 30
0.0
 11
376.5896
 21
169.763093896484
 31
0.0
 0
LINE
 5
20D
100
AcDbEntity
 8
Layer8
100
AcDbLine
 39
0.25
 370
106
 10
374.6546
 20
169.601093896484
 30
0.0
 11
374.6546
 21
169.763093896484
 31
0.0
 0
LINE
 5
20E
100
AcDbEntity
 8
Layer8
100
AcDbLine
 39
0.25
 370
106
 10
365.0126
 20
169.763093896484
 30
0.0
 11
364.9646
 21
169.876093896484
 31
0.0
 0
LINE
 5
20F
100
AcDbEntity
 8
Layer8
100
AcDbLine
 39
0.25
 370
106
 10
364.9646
 20
169.876093896484
 30
0.0
 11
364.8506
 21
169.921093896484
 31
0.0
 0
LINE
 5
210
100
AcDbEntity
 8
Layer8
100
AcDbLine
 39
0.25
 370
106
 10
363.1736
 20
169.921093896484
 30
0.0
 11
364.8506
 21
169.921093896484
 31
0.0
 0
LINE
 5
211
100
AcDbEntity
 8
Layer8
100
AcDbLine
 39
0.25
 370
106
 10
363.0116
 20
169.763093896484
 30
0.0
 11
363.0596
 21
169.876093896484
 31
0.0
 0
LINE
 5
212
100
AcDbEntity
 8
Layer8
100
AcDbLine
 39
0.25
 370
106
 10
363.0596
 20
169.876093896484
 30
0.0
 11
363.1736
 21
169.921093896484
 31
0.0
 0
LINE
 5
213
100
AcDbEntity
 8
Layer8
100
AcDbLine
 39
0.25
 370
106
 10
365.1716
 20
169.601093896484
 30
0.0
 11
365.0126
 21
169.763093896484
 31
0.0
 0
LINE
 5
214
100
AcDbEntity
 8
Layer8
100
AcDbLine
 39
0.25
 370
106
 10
365.0126
 20
169.763093896484
 30
0.0
 11
363.0116
 21
169.763093896484
 31
0.0
 0
CIRCLE
 5
215
100
AcDbEntity
 8
Layer8
100
AcDbCircle
 39
0.25
 370
106
 10
369.8171
 20
167.665593896484
 30
0.0
 40
0.548000000000002
 370
106
 0
LINE
 5
216
100
AcDbEntity
 8
Layer8
100
AcDbLine
 39
0.25
 370
106
 10
362.8526
 20
169.601093896484
 30
0.0
 11
362.9636
 21
169.650093896484
 31
0.0
 0
LINE
 5
217
100
AcDbEntity
 8
Layer8
100
AcDbLine
 39
0.25
 370
106
 10
362.9636
 20
169.650093896484
 30
0.0
 11
363.0116
 21
169.763093896484
 31
0.0
 0
LINE
 5
218
100
AcDbEntity
 8
Layer8
100
AcDbLine
 39
0.25
 370
106
 10
358.8536
 20
165.570093896484
 30
0.0
 11
358.8536
 21
165.732093896484
 31
0.0
 0
LINE
 5
219
100
AcDbEntity
 8
Layer8
100
AcDbLine
 39
0.25
 370
106
 10
380.7806
 20
165.570093896484
 30
0.0
 11
380.7806
 21
165.732093896484
 31
0.0
 0
LINE
 5
21A
100
AcDbEntity
 8
Layer8
100
AcDbLine
 39
0.25
 370
106
 10
363.3656
 20
169.601093896484
 30
0.0
 11
358.5296
 21
169.601093896484
 31
0.0
 0
LINE
 5
21B
100
AcDbEntity
 8
Layer8
100
AcDbLine
 39
0.25
 370
106
 10
358.5296
 20
165.732093896484
 30
0.0
 11
358.5296
 21
169.601093896484
 31
0.0
 0
LINE
 5
21C
100
AcDbEntity
 8
Layer8
100
AcDbLine
 39
0.25
 370
106
 10
363.3656
 20
165.732093896484
 30
0.0
 11
358.5296
 21
165.732093896484
 31
0.0
 0
CIRCLE
 5
21D
100
AcDbEntity
 8
Layer8
100
AcDbCircle
 39
0.25
 370
106
 10
369.8156
 20
167.660093896484
 30
0.0
 40
1.04250000000002
 370
106
 0
LINE
 5
21E
100
AcDbEntity
 8
Layer8
100
AcDbLine
 39
0.25
 370
106
 10
376.2656
 20
169.601093896484
 30
0.0
 11
363.3656
 21
169.601093896484
 31
0.0
 0
LINE
 5
21F
100
AcDbEntity
 8
Layer8
100
AcDbLine
 39
0.25
 370
106
 10
376.2656
 20
165.732093896484
 30
0.0
 11
363.3656
 21
165.732093896484
 31
0.0
 0
LINE
 5
220
100
AcDbEntity
 8
Layer8
100
AcDbLine
 39
0.25
 370
106
 10
381.1016
 20
169.601093896484
 30
0.0
 11
376.2656
 21
169.601093896484
 31
0.0
 0
LINE
 5
221
100
AcDbEntity
 8
Layer8
100
AcDbLine
 39
0.25
 370
106
 10
381.1016
 20
165.732093896484
 30
0.0
 11
376.2656
 21
165.732093896484
 31
0.0
 0
CIRCLE
 5
222
100
AcDbEntity
 8
Layer8
100
AcDbCircle
 39
0.25
 370
106
 10
440.2751
 20
140.345593896484
 30
0.0
 40
5.60449999999997
 370
106
 0
CIRCLE
 5
223
100
AcDbEntity
 8
Layer8
100
AcDbCircle
 39
0.25
 370
106
 10
440.2751
 20
140.345593896484
 30
0.0
 40
5.11000000000001
 370
106
 0
CIRCLE
 5
224
100
AcDbEntity
 8
Layer8
100
AcDbCircle
 39
0.25
 370
106
 10
440.2766
 20
140.350593896484
 30
0.0
 40
5.43525
 370
106
 0
CIRCLE
 5
225
100
AcDbEntity
 8
Layer8
100
AcDbCircle
 39
0.25
 370
106
 10
404.8026
 20
78.9075938964844
 30
0.0
 40
5.61125000000004
 370
106
 0
CIRCLE
 5
226
100
AcDbEntity
 8
Layer8
100
AcDbCircle
 39
0.25
 370
106
 10
404.8031
 20
78.9075938964844
 30
0.0
 40
5.10900000000004
 370
106
 0
CIRCLE
 5
227
100
AcDbEntity
 8
Layer8
100
AcDbCircle
 39
0.25
 370
106
 10
404.7971
 20
78.9085938964844
 30
0.0
 40
5.43400000000003
 370
106
 0
CIRCLE
 5
228
100
AcDbEntity
 8
Layer8
100
AcDbCircle
 39
0.25
 370
106
 10
334.8296
 20
78.9075938964844
 30
0.0
 40
5.61075
 370
106
 0
CIRCLE
 5
229
100
AcDbEntity
 8
Layer8
100
AcDbCircle
 39
0.25
 370
106
 10
334.8296
 20
78.9075938964844
 30
0.0
 40
5.10975000000002
 370
106
 0
CIRCLE
 5
22A
100
AcDbEntity
 8
Layer8
100
AcDbCircle
 39
0.25
 370
106
 10
334.8221
 20
78.9085938964844
 30
0.0
 40
5.43400000000003
 370
106
 0
CIRCLE
 5
22B
100
AcDbEntity
 8
Layer8
100
AcDbCircle
 39
0.25
 370
106
 10
299.3576
 20
140.345593896484
 30
0.0
 40
5.60374999999999
 370
106
 0
CIRCLE
 5
22C
100
AcDbEntity
 8
Layer8
100
AcDbCircle
 39
0.25
 370
106
 10
299.3596
 20
140.345593896484
 30
0.0
 40
5.10974999999996
 370
106
 0
CIRCLE
 5
22D
100
AcDbEntity
 8
Layer8
100
AcDbCircle
 39
0.25
 370
106
 10
299.3606
 20
140.340593896484
 30
0.0
 40
5.43525
 370
106
 0
LINE
 5
22E
100
AcDbEntity
 8
Layer8
100
AcDbLine
 39
0.25
 370
106
 10
381.1016
 20
165.732093896484
 30
0.0
 11
381.1016
 21
169.601093896484
 31
0.0
 0
ARC
 5
22F
100
AcDbEntity
 8
Layer8
100
AcDbCircle
 39
0.25
 370
106
 10
369.818108914169
 20
167.662439233571
 30
0.0
 40
0.404677677254932
100
AcDbArc
 50
38.0917275129369
 51
167.780264901229
 0
LINE
 5
230
100
AcDbEntity
 8
Layer8
100
AcDbLine
 39
0.25
 370
106
 10
370.1366
 20
167.912093896484
 30
0.0
 11
370.2116
 21
167.748093896484
 31
0.0
 0
ARC
 5
231
100
AcDbEntity
 8
Layer8
100
AcDbCircle
 39
0.25
 370
106
 10
369.818108914169
 20
167.662439233571
 30
0.0
 40
0.404677677254932
100
AcDbArc
 50
38.0917275129369
 51
167.780264901229
 0
LINE
 5
232
100
AcDbEntity
 8
Layer8
100
AcDbLine
 39
0.25
 370
106
 10
370.1366
 20
167.912093896484
 30
0.0
 11
370.2116
 21
167.748093896484
 31
0.0
 0
ARC
 5
233
100
AcDbEntity
 8
Layer8
100
AcDbCircle
 39
0.25
 370
106
 10
369.814292079531
 20
167.664568643941
 30
0.0
 40
0.48580045024912
100
AcDbArc
 50
38.6670761514237
 51
104.872767816241
 0
LINE
 5
234
100
AcDbEntity
 8
Layer8
100
AcDbLine
 39
0.25
 370
106
 10
369.4376
 20
167.968093896484
 30
0.0
 11
369.5216
 21
168.050093896484
 31
0.0
 0
LINE
 5
235
100
AcDbEntity
 8
Layer8
100
AcDbLine
 39
0.25
 370
106
 10
369.5216
 20
168.050093896484
 30
0.0
 11
369.6896
 21
168.134093896484
 31
0.0
 0
LINE
 5
236
100
AcDbEntity
 8
Layer8
100
AcDbLine
 39
0.25
 370
106
 10
372.4766
 20
160.218093896484
 30
0.0
 11
372.3266
 21
160.218093896484
 31
0.0
 0
LINE
 5
237
100
AcDbEntity
 8
Layer8
100
AcDbLine
 39
0.25
 370
106
 10
372.4766
 20
150.912093896484
 30
0.0
 11
372.4766
 21
160.218093896484
 31
0.0
 0
LINE
 5
238
100
AcDbEntity
 8
Layer8
100
AcDbLine
 39
0.25
 370
106
 10
367.1546
 20
160.218093896484
 30
0.0
 11
367.3076
 21
160.218093896484
 31
0.0
 0
LINE
 5
239
100
AcDbEntity
 8
Layer8
100
AcDbLine
 39
0.25
 370
106
 10
367.1546
 20
150.912093896484
 30
0.0
 11
367.1546
 21
160.218093896484
 31
0.0
 0
LINE
 5
23A
100
AcDbEntity
 8
Layer8
100
AcDbLine
 39
0.25
 370
106
 10
372.3266
 20
150.912093896484
 30
0.0
 11
372.4766
 21
150.912093896484
 31
0.0
 0
ARC
 5
23B
100
AcDbEntity
 8
Layer8
100
AcDbCircle
 39
0.25
 370
106
 10
388.615616850783
 20
150.91839989844
 30
0.0
 40
16.1390180827558
100
AcDbArc
 50
-179.977612807365
 51
-120.038983488693
 0
LINE
 5
23C
100
AcDbEntity
 8
Layer8
100
AcDbLine
 39
0.25
 370
106
 10
367.3076
 20
150.912093896484
 30
0.0
 11
367.1546
 21
150.912093896484
 31
0.0
 0
ARC
 5
23D
100
AcDbEntity
 8
Layer8
100
AcDbCircle
 39
0.25
 370
106
 10
351.047793216068
 20
150.900385803772
 30
0.0
 40
16.1068110392572
100
AcDbArc
 50
-60.0312072512597
 51
0.0416484899470938
 0
LINE
 5
23E
100
AcDbEntity
 8
Layer8
100
AcDbLine
 39
0.25
 370
106
 10
388.5206
 20
132.164093896484
 30
0.0
 11
388.5986
 21
132.293093896484
 31
0.0
 0
LINE
 5
23F
100
AcDbEntity
 8
Layer8
100
AcDbLine
 39
0.25
 370
106
 10
388.5986
 20
132.293093896484
 30
0.0
 11
380.5366
 21
136.947093896484
 31
0.0
 0
LINE
 5
240
100
AcDbEntity
 8
Layer8
100
AcDbLine
 39
0.25
 370
106
 10
380.4626
 20
136.818093896484
 30
0.0
 11
380.5366
 21
136.947093896484
 31
0.0
 0
ARC
 5
241
100
AcDbEntity
 8
Layer8
100
AcDbCircle
 39
0.25
 370
106
 10
369.8151
 20
118.408446431047
 30
0.0
 40
16.0945518439096
100
AcDbArc
 50
59.94562521206
 51
120.054374787946
 0
LINE
 5
242
100
AcDbEntity
 8
Layer8
100
AcDbLine
 39
0.25
 370
106
 10
351.1106
 20
132.164093896484
 30
0.0
 11
351.0356
 21
132.293093896484
 31
0.0
 0
LINE
 5
243
100
AcDbEntity
 8
Layer8
100
AcDbLine
 39
0.25
 370
106
 10
359.1686
 20
136.818093896484
 30
0.0
 11
359.0936
 21
136.947093896484
 31
0.0
 0
LINE
 5
244
100
AcDbEntity
 8
Layer8
100
AcDbLine
 39
0.25
 370
106
 10
351.0356
 20
132.293093896484
 30
0.0
 11
359.0936
 21
136.947093896484
 31
0.0
 0
LINE
 5
245
100
AcDbEntity
 8
Layer8
100
AcDbLine
 39
0.25
 370
106
 10
385.9376
 20
127.685093896484
 30
0.0
 11
386.0126
 21
127.818093896484
 31
0.0
 0
LINE
 5
246
100
AcDbEntity
 8
Layer8
100
AcDbLine
 39
0.25
 370
106
 10
377.9516
 20
132.470093896484
 30
0.0
 11
377.8756
 21
132.339093896484
 31
0.0
 0
LINE
 5
247
100
AcDbEntity
 8
Layer8
100
AcDbLine
 39
0.25
 370
106
 10
377.8756
 20
132.339093896484
 30
0.0
 11
385.9376
 21
127.685093896484
 31
0.0
 0
LINE
 5
248
100
AcDbEntity
 8
Layer8
100
AcDbLine
 39
0.25
 370
106
 10
353.6966
 20
127.685093896484
 30
0.0
 11
353.6186
 21
127.818093896484
 31
0.0
 0
LINE
 5
249
100
AcDbEntity
 8
Layer8
100
AcDbLine
 39
0.25
 370
106
 10
361.7546
 20
132.339093896484
 30
0.0
 11
353.6966
 21
127.685093896484
 31
0.0
 0
LINE
 5
24A
100
AcDbEntity
 8
Layer8
100
AcDbLine
 39
0.25
 370
106
 10
361.6796
 20
132.470093896484
 30
0.0
 11
361.7546
 21
132.339093896484
 31
0.0
 0
LINE
 5
24B
100
AcDbEntity
 8
Layer8
100
AcDbLine
 39
0.25
 370
106
 10
371.9596
 20
160.218093896484
 30
0.0
 11
371.9596
 21
160.314093896484
 31
0.0
 0
LINE
 5
24C
100
AcDbEntity
 8
Layer8
100
AcDbLine
 39
0.25
 370
106
 10
367.6706
 20
160.218093896484
 30
0.0
 11
367.6706
 21
160.314093896484
 31
0.0
 0
LINE
 5
24D
100
AcDbEntity
 8
Layer8
100
AcDbLine
 39
0.25
 370
106
 10
367.9946
 20
160.218093896484
 30
0.0
 11
367.9946
 21
160.314093896484
 31
0.0
 0
LINE
 5
24E
100
AcDbEntity
 8
Layer8
100
AcDbLine
 39
0.25
 370
106
 10
371.6396
 20
160.218093896484
 30
0.0
 11
371.6396
 21
160.314093896484
 31
0.0
 0
LINE
 5
24F
100
AcDbEntity
 8
Layer8
100
AcDbLine
 39
0.25
 370
106
 10
388.4246
 20
131.798093896484
 30
0.0
 11
388.2626
 21
131.519093896484
 31
0.0
 0
LINE
 5
250
100
AcDbEntity
 8
Layer8
100
AcDbLine
 39
0.25
 370
106
 10
388.4246
 20
131.798093896484
 30
0.0
 11
388.3406
 21
131.847093896484
 31
0.0
 0
LINE
 5
251
100
AcDbEntity
 8
Layer8
100
AcDbLine
 39
0.25
 370
106
 10
351.2086
 20
131.798093896484
 30
0.0
 11
351.3706
 21
131.519093896484
 31
0.0
 0
LINE
 5
252
100
AcDbEntity
 8
Layer8
100
AcDbLine
 39
0.25
 370
106
 10
351.2086
 20
131.798093896484
 30
0.0
 11
351.2936
 21
131.847093896484
 31
0.0
 0
LINE
 5
253
100
AcDbEntity
 8
Layer8
100
AcDbLine
 39
0.25
 370
106
 10
386.4416
 20
128.363093896484
 30
0.0
 11
388.2626
 21
131.519093896484
 31
0.0
 0
LINE
 5
254
100
AcDbEntity
 8
Layer8
100
AcDbLine
 39
0.25
 370
106
 10
388.2626
 20
131.519093896484
 30
0.0
 11
388.1786
 21
131.568093896484
 31
0.0
 0
LINE
 5
255
100
AcDbEntity
 8
Layer8
100
AcDbLine
 39
0.25
 370
106
 10
386.2796
 20
128.084093896484
 30
0.0
 11
386.1956
 21
128.132093896484
 31
0.0
 0
LINE
 5
256
100
AcDbEntity
 8
Layer8
100
AcDbLine
 39
0.25
 370
106
 10
386.4416
 20
128.363093896484
 30
0.0
 11
386.2796
 21
128.084093896484
 31
0.0
 0
LINE
 5
257
100
AcDbEntity
 8
Layer8
100
AcDbLine
 39
0.25
 370
106
 10
386.4416
 20
128.363093896484
 30
0.0
 11
386.3576
 21
128.412093896484
 31
0.0
 0
LINE
 5
258
100
AcDbEntity
 8
Layer8
100
AcDbLine
 39
0.25
 370
106
 10
353.1926
 20
128.363093896484
 30
0.0
 11
353.3546
 21
128.084093896484
 31
0.0
 0
LINE
 5
259
100
AcDbEntity
 8
Layer8
100
AcDbLine
 39
0.25
 370
106
 10
353.3546
 20
128.084093896484
 30
0.0
 11
353.4386
 21
128.132093896484
 31
0.0
 0
LINE
 5
25A
100
AcDbEntity
 8
Layer8
100
AcDbLine
 39
0.25
 370
106
 10
351.3706
 20
131.519093896484
 30
0.0
 11
351.4526
 21
131.568093896484
 31
0.0
 0
LINE
 5
25B
100
AcDbEntity
 8
Layer8
100
AcDbLine
 39
0.25
 370
106
 10
353.1926
 20
128.363093896484
 30
0.0
 11
351.3706
 21
131.519093896484
 31
0.0
 0
LINE
 5
25C
100
AcDbEntity
 8
Layer8
100
AcDbLine
 39
0.25
 370
106
 10
353.1926
 20
128.363093896484
 30
0.0
 11
353.2766
 21
128.412093896484
 31
0.0
 0
LINE
 5
25D
100
AcDbEntity
 8
Layer8
100
AcDbLine
 39
0.25
 370
106
 10
372.3266
 20
160.218093896484
 30
0.0
 11
371.6846
 21
160.218093896484
 31
0.0
 0
LINE
 5
25E
100
AcDbEntity
 8
Layer8
100
AcDbLine
 39
0.25
 370
106
 10
372.3266
 20
150.912093896484
 30
0.0
 11
372.3266
 21
160.218093896484
 31
0.0
 0
LINE
 5
25F
100
AcDbEntity
 8
Layer8
100
AcDbLine
 39
0.25
 370
106
 10
367.3076
 20
160.218093896484
 30
0.0
 11
367.9496
 21
160.218093896484
 31
0.0
 0
LINE
 5
260
100
AcDbEntity
 8
Layer8
100
AcDbLine
 39
0.25
 370
106
 10
367.3076
 20
150.912093896484
 30
0.0
 11
367.3076
 21
160.218093896484
 31
0.0
 0
ARC
 5
261
100
AcDbEntity
 8
Layer8
100
AcDbCircle
 39
0.25
 370
106
 10
388.592456289433
 20
150.906512852837
 30
0.0
 40
16.2658572468998
100
AcDbArc
 50
179.980341014457
 51
-119.98750442815
 0
ARC
 5
262
100
AcDbEntity
 8
Layer8
100
AcDbCircle
 39
0.25
 370
106
 10
351.057302349474
 20
150.899258227238
 30
0.0
 40
16.2503027197989
100
AcDbArc
 50
-60.0563862646581
 51
0.0452563724022957
 0
LINE
 5
263
100
AcDbEntity
 8
Layer8
100
AcDbLine
 39
0.25
 370
106
 10
388.2026
 20
131.607093896484
 30
0.0
 11
388.5206
 21
132.164093896484
 31
0.0
 0
LINE
 5
264
100
AcDbEntity
 8
Layer8
100
AcDbLine
 39
0.25
 370
106
 10
380.4626
 20
136.818093896484
 30
0.0
 11
388.5206
 21
132.164093896484
 31
0.0
 0
ARC
 5
265
100
AcDbEntity
 8
Layer8
100
AcDbCircle
 39
0.25
 370
106
 10
369.8156
 20
118.419523122129
 30
0.0
 40
16.2361644203662
100
AcDbArc
 50
59.9269613121722
 51
120.073038687831
 0
LINE
 5
266
100
AcDbEntity
 8
Layer8
100
AcDbLine
 39
0.25
 370
106
 10
351.4316
 20
131.607093896484
 30
0.0
 11
351.1106
 21
132.164093896484
 31
0.0
 0
LINE
 5
267
100
AcDbEntity
 8
Layer8
100
AcDbLine
 39
0.25
 370
106
 10
359.1686
 20
136.818093896484
 30
0.0
 11
351.1106
 21
132.164093896484
 31
0.0
 0
LINE
 5
268
100
AcDbEntity
 8
Layer8
100
AcDbLine
 39
0.25
 370
106
 10
386.0126
 20
127.818093896484
 30
0.0
 11
386.3326
 21
128.373093896484
 31
0.0
 0
LINE
 5
269
100
AcDbEntity
 8
Layer8
100
AcDbLine
 39
0.25
 370
106
 10
386.0126
 20
127.818093896484
 30
0.0
 11
377.9516
 21
132.470093896484
 31
0.0
 0
LINE
 5
26A
100
AcDbEntity
 8
Layer8
100
AcDbLine
 39
0.25
 370
106
 10
351.4316
 20
131.607093896484
 30
0.0
 11
353.2976
 21
128.373093896484
 31
0.0
 0
LINE
 5
26B
100
AcDbEntity
 8
Layer8
100
AcDbLine
 39
0.25
 370
106
 10
388.2026
 20
131.607093896484
 30
0.0
 11
386.3326
 21
128.373093896484
 31
0.0
 0
LINE
 5
26C
100
AcDbEntity
 8
Layer8
100
AcDbLine
 39
0.25
 370
106
 10
367.9496
 20
160.218093896484
 30
0.0
 11
371.6846
 21
160.218093896484
 31
0.0
 0
LINE
 5
26D
100
AcDbEntity
 8
Layer8
100
AcDbLine
 39
0.25
 370
106
 10
353.6186
 20
127.818093896484
 30
0.0
 11
353.2976
 21
128.373093896484
 31
0.0
 0
LINE
 5
26E
100
AcDbEntity
 8
Layer8
100
AcDbLine
 39
0.25
 370
106
 10
353.6186
 20
127.818093896484
 30
0.0
 11
361.6796
 21
132.470093896484
 31
0.0
 0
LINE
 5
26F
100
AcDbEntity
 8
Layer8
100
AcDbLine
 39
0.25
 370
106
 10
371.9936
 20
160.314093896484
 30
0.0
 11
371.9936
 21
160.218093896484
 31
0.0
 0
LINE
 5
270
100
AcDbEntity
 8
Layer8
100
AcDbLine
 39
0.25
 370
106
 10
388.4396
 20
131.828093896484
 30
0.0
 11
388.3556
 21
131.877093896484
 31
0.0
 0
LINE
 5
271
100
AcDbEntity
 8
Layer8
100
AcDbLine
 39
0.25
 370
106
 10
351.1916
 20
131.828093896484
 30
0.0
 11
351.2756
 21
131.877093896484
 31
0.0
 0
LINE
 5
272
100
AcDbEntity
 8
Layer8
100
AcDbLine
 39
0.25
 370
106
 10
367.6406
 20
160.314093896484
 30
0.0
 11
367.6406
 21
160.218093896484
 31
0.0
 0
LINE
 5
273
100
AcDbEntity
 8
Layer8
100
AcDbLine
 39
0.25
 370
106
 10
353.3696
 20
128.058093896484
 30
0.0
 11
353.4536
 21
128.105093896484
 31
0.0
 0
LINE
 5
274
100
AcDbEntity
 8
Layer8
100
AcDbLine
 39
0.25
 370
106
 10
386.2646
 20
128.058093896484
 30
0.0
 11
386.1806
 21
128.105093896484
 31
0.0
 0
LINE
 5
275
100
AcDbEntity
 8
Layer8
100
AcDbLine
 39
0.25
 370
106
 10
388.5986
 20
132.293093896484
 30
0.0
 11
388.3556
 21
131.877093896484
 31
0.0
 0
LINE
 5
276
100
AcDbEntity
 8
Layer8
100
AcDbLine
 39
0.25
 370
106
 10
351.0356
 20
132.293093896484
 30
0.0
 11
351.2756
 21
131.877093896484
 31
0.0
 0
LINE
 5
277
100
AcDbEntity
 8
Layer8
100
AcDbLine
 39
0.25
 370
106
 10
353.6966
 20
127.685093896484
 30
0.0
 11
353.6936
 21
127.685093896484
 31
0.0
 0
LINE
 5
278
100
AcDbEntity
 8
Layer8
100
AcDbLine
 39
0.25
 370
106
 10
372.1706
 20
160.314093896484
 30
0.0
 11
372.1706
 21
160.410093896484
 31
0.0
 0
LINE
 5
279
100
AcDbEntity
 8
Layer8
100
AcDbLine
 39
0.25
 370
106
 10
367.4636
 20
160.410093896484
 30
0.0
 11
367.4636
 21
160.314093896484
 31
0.0
 0
ARC
 5
27A
100
AcDbEntity
 8
Layer8
100
AcDbCircle
 39
0.25
 370
106
 10
380.629771251247
 20
164.667784101115
 30
0.0
 40
0.471885368760815
100
AcDbArc
 50
-81.4902214223524
 51
0.887582458097161
 0
ARC
 5
27B
100
AcDbEntity
 8
Layer8
100
AcDbCircle
 39
0.25
 370
106
 10
359.010982965466
 20
164.676379974554
 30
0.0
 40
0.481384683426139
100
AcDbArc
 50
-179.846927133883
 51
-99.1299065410455
 0
ARC
 5
27C
100
AcDbEntity
 8
Layer8
100
AcDbCircle
 39
0.25
 370
106
 10
363.00266992216
 20
158.371488500074
 30
0.0
 40
4.90937502905028
100
AcDbArc
 50
42.5456006901204
 51
80.539644271819
 0
LINE
 5
27D
100
AcDbEntity
 8
Layer8
100
AcDbLine
 39
0.25
 370
106
 10
358.8356
 20
164.218093896484
 30
0.0
 11
363.8096
 21
163.214093896484
 31
0.0
 0
LINE
 5
27E
100
AcDbEntity
 8
Layer8
100
AcDbLine
 39
0.25
 370
106
 10
366.6196
 20
161.691093896484
 30
0.0
 11
366.9896
 21
161.111093896484
 31
0.0
 0
LINE
 5
27F
100
AcDbEntity
 8
Layer8
100
AcDbLine
 39
0.25
 370
106
 10
366.9896
 20
161.111093896484
 30
0.0
 11
367.1396
 21
160.410093896484
 31
0.0
 0
ARC
 5
280
100
AcDbEntity
 8
Layer8
100
AcDbCircle
 39
0.25
 370
106
 10
375.674452212706
 20
159.735987339915
 30
0.0
 40
3.25345475726041
100
AcDbArc
 50
108.120020275232
 51
168.041851497919
 0
LINE
 5
281
100
AcDbEntity
 8
Layer8
100
AcDbLine
 39
0.25
 370
106
 10
374.6626
 20
162.828093896484
 30
0.0
 11
375.8246
 21
163.214093896484
 31
0.0
 0
LINE
 5
282
100
AcDbEntity
 8
Layer8
100
AcDbLine
 39
0.25
 370
106
 10
375.8246
 20
163.214093896484
 30
0.0
 11
380.7956
 21
164.218093896484
 31
0.0
 0
LINE
 5
283
100
AcDbEntity
 8
Layer8
100
AcDbLine
 39
0.25
 370
106
 10
373.8146
 20
169.921093896484
 30
0.0
 11
373.7006
 21
169.876093896484
 31
0.0
 0
LINE
 5
284
100
AcDbEntity
 8
Layer8
100
AcDbLine
 39
0.25
 370
106
 10
373.7006
 20
169.876093896484
 30
0.0
 11
373.6526
 21
169.763093896484
 31
0.0
 0
LINE
 5
285
100
AcDbEntity
 8
Layer8
100
AcDbLine
 39
0.25
 370
106
 10
377.5886
 20
169.763093896484
 30
0.0
 11
377.5396
 21
169.876093896484
 31
0.0
 0
LINE
 5
286
100
AcDbEntity
 8
Layer8
100
AcDbLine
 39
0.25
 370
106
 10
377.5396
 20
169.876093896484
 30
0.0
 11
377.4266
 21
169.921093896484
 31
0.0
 0
LINE
 5
287
100
AcDbEntity
 8
Layer8
100
AcDbLine
 39
0.25
 370
106
 10
377.7496
 20
169.601093896484
 30
0.0
 11
377.6366
 21
169.650093896484
 31
0.0
 0
LINE
 5
288
100
AcDbEntity
 8
Layer8
100
AcDbLine
 39
0.25
 370
106
 10
377.6366
 20
169.650093896484
 30
0.0
 11
377.5886
 21
169.763093896484
 31
0.0
 0
LINE
 5
289
100
AcDbEntity
 8
Layer8
100
AcDbLine
 39
0.25
 370
106
 10
373.6526
 20
169.763093896484
 30
0.0
 11
373.6076
 21
169.650093896484
 31
0.0
 0
LINE
 5
28A
100
AcDbEntity
 8
Layer8
100
AcDbLine
 39
0.25
 370
106
 10
373.6076
 20
169.650093896484
 30
0.0
 11
373.4936
 21
169.601093896484
 31
0.0
 0
LINE
 5
28B
100
AcDbEntity
 8
Layer8
100
AcDbLine
 39
0.25
 370
106
 10
292.5107
 20
275.028393896484
 30
0.0
 11
292.5107
 21
279.382393896484
 31
0.0
 0
LINE
 5
28C
100
AcDbEntity
 8
Layer8
100
AcDbLine
 39
0.25
 370
106
 10
447.1217
 20
275.028393896484
 30
0.0
 11
447.1217
 21
279.382393896484
 31
0.0
 0
LINE
 5
28D
100
AcDbEntity
 8
Layer8
100
AcDbLine
 39
0.25
 370
106
 10
266.3955
 20
357.503493896484
 30
0.0
 11
270.7485
 21
357.503493896484
 31
0.0
 0
LINE
 5
28E
100
AcDbEntity
 8
Layer8
100
AcDbLine
 39
0.25
 370
106
 10
266.3955
 20
307.757493896484
 30
0.0
 11
270.7485
 21
307.757493896484
 31
0.0
 0
LINE
 5
28F
100
AcDbEntity
 8
Layer8
100
AcDbLine
 39
0.25
 370
106
 10
439.0381
 20
331.211493896484
 30
0.0
 11
439.0381
 21
331.373493896484
 31
0.0
 0
LINE
 5
290
100
AcDbEntity
 8
Layer8
100
AcDbLine
 39
0.25
 370
106
 10
300.5951
 20
331.211493896484
 30
0.0
 11
300.5951
 21
331.373493896484
 31
0.0
 0
LINE
 5
291
100
AcDbEntity
 8
Layer8
100
AcDbLine
 39
0.25
 370
106
 10
293.9201
 20
308.153493896484
 30
0.0
 11
304.7981
 21
308.153493896484
 31
0.0
 0
LINE
 5
292
100
AcDbEntity
 8
Layer8
100
AcDbLine
 39
0.25
 370
106
 10
329.3921
 20
308.153493896484
 30
0.0
 11
340.2691
 21
308.153493896484
 31
0.0
 0
LINE
 5
293
100
AcDbEntity
 8
Layer8
100
AcDbLine
 39
0.25
 370
106
 10
399.3631
 20
308.153493896484
 30
0.0
 11
410.2411
 21
308.153493896484
 31
0.0
 0
LINE
 5
294
100
AcDbEntity
 8
Layer8
100
AcDbLine
 39
0.25
 370
106
 10
434.8351
 20
308.153493896484
 30
0.0
 11
445.7131
 21
308.153493896484
 31
0.0
 0
LINE
 5
295
100
AcDbEntity
 8
Layer8
100
AcDbLine
 39
0.25
 370
106
 10
329.0251
 20
335.243493896484
 30
0.0
 11
340.6331
 21
335.243493896484
 31
0.0
 0
LINE
 5
296
100
AcDbEntity
 8
Layer8
100
AcDbLine
 39
0.25
 370
106
 10
340.6331
 20
357.491493896484
 30
0.0
 11
329.0251
 21
357.491493896484
 31
0.0
 0
LINE
 5
297
100
AcDbEntity
 8
Layer8
100
AcDbLine
 39
0.25
 370
106
 10
398.9971
 20
335.243493896484
 30
0.0
 11
410.6071
 21
335.243493896484
 31
0.0
 0
LINE
 5
298
100
AcDbEntity
 8
Layer8
100
AcDbLine
 39
0.25
 370
106
 10
410.6071
 20
357.491493896484
 30
0.0
 11
398.9971
 21
357.491493896484
 31
0.0
 0
LINE
 5
299
100
AcDbEntity
 8
Layer8
100
AcDbLine
 39
0.25
 370
106
 10
293.5541
 20
335.243493896484
 30
0.0
 11
305.1641
 21
335.243493896484
 31
0.0
 0
LINE
 5
29A
100
AcDbEntity
 8
Layer8
100
AcDbLine
 39
0.25
 370
106
 10
305.1641
 20
357.491493896484
 30
0.0
 11
293.5541
 21
357.491493896484
 31
0.0
 0
LINE
 5
29B
100
AcDbEntity
 8
Layer8
100
AcDbLine
 39
0.25
 370
106
 10
434.4701
 20
335.243493896484
 30
0.0
 11
446.0791
 21
335.243493896484
 31
0.0
 0
LINE
 5
29C
100
AcDbEntity
 8
Layer8
100
AcDbLine
 39
0.25
 370
106
 10
446.0791
 20
357.491493896484
 30
0.0
 11
434.4701
 21
357.491493896484
 31
0.0
 0
LINE
 5
29D
100
AcDbEntity
 8
Layer8
100
AcDbLine
 39
0.25
 370
106
 10
446.2531
 20
327.341493896484
 30
0.0
 11
439.0931
 21
327.341493896484
 31
0.0
 0
LINE
 5
29E
100
AcDbEntity
 8
Layer8
100
AcDbLine
 39
0.25
 370
106
 10
438.9361
 20
331.211493896484
 30
0.0
 11
447.0451
 21
331.211493896484
 31
0.0
 0
LINE
 5
29F
100
AcDbEntity
 8
Layer8
100
AcDbLine
 39
0.25
 370
106
 10
439.0931
 20
327.341493896484
 30
0.0
 11
431.7871
 21
327.341493896484
 31
0.0
 0
LINE
 5
2A0
100
AcDbEntity
 8
Layer8
100
AcDbLine
 39
0.25
 370
106
 10
439.0931
 20
327.341493896484
 30
0.0
 11
439.0471
 21
327.386493896484
 31
0.0
 0
LINE
 5
2A1
100
AcDbEntity
 8
Layer8
100
AcDbLine
 39
0.25
 370
106
 10
439.0471
 20
327.386493896484
 30
0.0
 11
439.0051
 21
327.509493896484
 31
0.0
 0
LINE
 5
2A2
100
AcDbEntity
 8
Layer8
100
AcDbLine
 39
0.25
 370
106
 10
439.0051
 20
327.509493896484
 30
0.0
 11
438.9671
 21
327.926493896484
 31
0.0
 0
LINE
 5
2A3
100
AcDbEntity
 8
Layer8
100
AcDbLine
 39
0.25
 370
106
 10
432.1841
 20
331.211493896484
 30
0.0
 11
438.9361
 21
331.211493896484
 31
0.0
 0
LINE
 5
2A4
100
AcDbEntity
 8
Layer8
100
AcDbLine
 39
0.25
 370
106
 10
438.9671
 20
327.926493896484
 30
0.0
 11
438.9421
 21
329.567493896484
 31
0.0
 0
LINE
 5
2A5
100
AcDbEntity
 8
Layer8
100
AcDbLine
 39
0.25
 370
106
 10
438.9421
 20
329.567493896484
 30
0.0
 11
438.9361
 21
331.211493896484
 31
0.0
 0
LINE
 5
2A6
100
AcDbEntity
 8
Layer8
100
AcDbLine
 39
0.25
 370
106
 10
394.4791
 20
327.341493896484
 30
0.0
 11
386.4181
 21
327.341493896484
 31
0.0
 0
LINE
 5
2A7
100
AcDbEntity
 8
Layer8
100
AcDbLine
 39
0.25
 370
106
 10
431.7871
 20
327.341493896484
 30
0.0
 11
415.1281
 21
327.341493896484
 31
0.0
 0
LINE
 5
2A8
100
AcDbEntity
 8
Layer8
100
AcDbLine
 39
0.25
 370
106
 10
431.7871
 20
327.341493896484
 30
0.0
 11
431.9581
 21
327.437493896484
 31
0.0
 0
LINE
 5
2A9
100
AcDbEntity
 8
Layer8
100
AcDbLine
 39
0.25
 370
106
 10
431.9581
 20
327.437493896484
 30
0.0
 11
432.1001
 21
327.809493896484
 31
0.0
 0
LINE
 5
2AA
100
AcDbEntity
 8
Layer8
100
AcDbLine
 39
0.25
 370
106
 10
432.1001
 20
327.809493896484
 30
0.0
 11
432.1841
 21
331.211493896484
 31
0.0
 0
LINE
 5
2AB
100
AcDbEntity
 8
Layer8
100
AcDbLine
 39
0.25
 370
106
 10
394.4791
 20
327.341493896484
 30
0.0
 11
398.8231
 21
327.341493896484
 31
0.0
 0
LINE
 5
2AC
100
AcDbEntity
 8
Layer8
100
AcDbLine
 39
0.25
 370
106
 10
415.1281
 20
327.341493896484
 30
0.0
 11
410.7811
 21
327.341493896484
 31
0.0
 0
LINE
 5
2AD
100
AcDbEntity
 8
Layer8
100
AcDbLine
 39
0.25
 370
106
 10
398.8231
 20
327.341493896484
 30
0.0
 11
410.7811
 21
327.341493896484
 31
0.0
 0
LINE
 5
2AE
100
AcDbEntity
 8
Layer8
100
AcDbLine
 39
0.25
 370
106
 10
411.5761
 20
331.211493896484
 30
0.0
 11
398.0311
 21
331.211493896484
 31
0.0
 0
LINE
 5
2AF
100
AcDbEntity
 8
Layer8
100
AcDbLine
 39
0.25
 370
106
 10
293.3801
 20
327.341493896484
 30
0.0
 11
300.5411
 21
327.341493896484
 31
0.0
 0
LINE
 5
2B0
100
AcDbEntity
 8
Layer8
100
AcDbLine
 39
0.25
 370
106
 10
300.6961
 20
331.211493896484
 30
0.0
 11
292.5881
 21
331.211493896484
 31
0.0
 0
LINE
 5
2B1
100
AcDbEntity
 8
Layer8
100
AcDbLine
 39
0.25
 370
106
 10
300.5411
 20
327.341493896484
 30
0.0
 11
307.8461
 21
327.341493896484
 31
0.0
 0
LINE
 5
2B2
100
AcDbEntity
 8
Layer8
100
AcDbLine
 39
0.25
 370
106
 10
300.5411
 20
327.341493896484
 30
0.0
 11
300.5861
 21
327.386493896484
 31
0.0
 0
LINE
 5
2B3
100
AcDbEntity
 8
Layer8
100
AcDbLine
 39
0.25
 370
106
 10
300.5861
 20
327.386493896484
 30
0.0
 11
300.6281
 21
327.509493896484
 31
0.0
 0
LINE
 5
2B4
100
AcDbEntity
 8
Layer8
100
AcDbLine
 39
0.25
 370
106
 10
300.6281
 20
327.509493896484
 30
0.0
 11
300.6671
 21
327.926493896484
 31
0.0
 0
LINE
 5
2B5
100
AcDbEntity
 8
Layer8
100
AcDbLine
 39
0.25
 370
106
 10
307.4491
 20
331.211493896484
 30
0.0
 11
300.6961
 21
331.211493896484
 31
0.0
 0
LINE
 5
2B6
100
AcDbEntity
 8
Layer8
100
AcDbLine
 39
0.25
 370
106
 10
300.6671
 20
327.926493896484
 30
0.0
 11
300.6871
 21
329.156493896484
 31
0.0
 0
LINE
 5
2B7
100
AcDbEntity
 8
Layer8
100
AcDbLine
 39
0.25
 370
106
 10
300.6871
 20
329.156493896484
 30
0.0
 11
300.6961
 21
331.211493896484
 31
0.0
 0
LINE
 5
2B8
100
AcDbEntity
 8
Layer8
100
AcDbLine
 39
0.25
 370
106
 10
345.1561
 20
327.341493896484
 30
0.0
 11
353.2151
 21
327.341493896484
 31
0.0
 0
LINE
 5
2B9
100
AcDbEntity
 8
Layer8
100
AcDbLine
 39
0.25
 370
106
 10
307.8461
 20
327.341493896484
 30
0.0
 11
324.5041
 21
327.341493896484
 31
0.0
 0
LINE
 5
2BA
100
AcDbEntity
 8
Layer8
100
AcDbLine
 39
0.25
 370
106
 10
307.8461
 20
327.341493896484
 30
0.0
 11
307.6271
 21
327.509493896484
 31
0.0
 0
LINE
 5
2BB
100
AcDbEntity
 8
Layer8
100
AcDbLine
 39
0.25
 370
106
 10
307.6271
 20
327.509493896484
 30
0.0
 11
307.5361
 21
327.809493896484
 31
0.0
 0
LINE
 5
2BC
100
AcDbEntity
 8
Layer8
100
AcDbLine
 39
0.25
 370
106
 10
307.5361
 20
327.809493896484
 30
0.0
 11
307.4491
 21
331.211493896484
 31
0.0
 0
LINE
 5
2BD
100
AcDbEntity
 8
Layer8
100
AcDbLine
 39
0.25
 370
106
 10
345.1561
 20
327.341493896484
 30
0.0
 11
340.8091
 21
327.341493896484
 31
0.0
 0
LINE
 5
2BE
100
AcDbEntity
 8
Layer8
100
AcDbLine
 39
0.25
 370
106
 10
328.8511
 20
327.341493896484
 30
0.0
 11
324.5041
 21
327.341493896484
 31
0.0
 0
LINE
 5
2BF
100
AcDbEntity
 8
Layer8
100
AcDbLine
 39
0.25
 370
106
 10
340.8091
 20
327.341493896484
 30
0.0
 11
328.8511
 21
327.341493896484
 31
0.0
 0
LINE
 5
2C0
100
AcDbEntity
 8
Layer8
100
AcDbLine
 39
0.25
 370
106
 10
328.0571
 20
331.211493896484
 30
0.0
 11
341.6011
 21
331.211493896484
 31
0.0
 0
LINE
 5
2C1
100
AcDbEntity
 8
Layer8
100
AcDbLine
 39
0.25
 370
106
 10
446.2681
 20
335.081493896484
 30
0.0
 11
439.0891
 21
335.081493896484
 31
0.0
 0
LINE
 5
2C2
100
AcDbEntity
 8
Layer8
100
AcDbLine
 39
0.25
 370
106
 10
438.9361
 20
331.373493896484
 30
0.0
 11
447.0451
 21
331.373493896484
 31
0.0
 0
LINE
 5
2C3
100
AcDbEntity
 8
Layer8
100
AcDbLine
 39
0.25
 370
106
 10
439.0891
 20
335.081493896484
 30
0.0
 11
431.7961
 21
335.081493896484
 31
0.0
 0
LINE
 5
2C4
100
AcDbEntity
 8
Layer8
100
AcDbLine
 39
0.25
 370
106
 10
438.9601
 20
334.493493896484
 30
0.0
 11
439.0021
 21
334.910493896484
 31
0.0
 0
LINE
 5
2C5
100
AcDbEntity
 8
Layer8
100
AcDbLine
 39
0.25
 370
106
 10
439.0021
 20
334.910493896484
 30
0.0
 11
439.0441
 21
335.036493896484
 31
0.0
 0
LINE
 5
2C6
100
AcDbEntity
 8
Layer8
100
AcDbLine
 39
0.25
 370
106
 10
439.0441
 20
335.036493896484
 30
0.0
 11
439.0891
 21
335.081493896484
 31
0.0
 0
LINE
 5
2C7
100
AcDbEntity
 8
Layer8
100
AcDbLine
 39
0.25
 370
106
 10
432.1841
 20
331.373493896484
 30
0.0
 11
438.9361
 21
331.373493896484
 31
0.0
 0
LINE
 5
2C8
100
AcDbEntity
 8
Layer8
100
AcDbLine
 39
0.25
 370
106
 10
438.9361
 20
331.373493896484
 30
0.0
 11
438.9601
 21
334.493493896484
 31
0.0
 0
LINE
 5
2C9
100
AcDbEntity
 8
Layer8
100
AcDbLine
 39
0.25
 370
106
 10
394.4711
 20
335.081493896484
 30
0.0
 11
386.4091
 21
335.081493896484
 31
0.0
 0
LINE
 5
2CA
100
AcDbEntity
 8
Layer8
100
AcDbLine
 39
0.25
 370
106
 10
431.7961
 20
335.081493896484
 30
0.0
 11
415.1381
 21
335.081493896484
 31
0.0
 0
LINE
 5
2CB
100
AcDbEntity
 8
Layer8
100
AcDbLine
 39
0.25
 370
106
 10
432.1171
 20
334.493493896484
 30
0.0
 11
432.0841
 21
334.721493896484
 31
0.0
 0
LINE
 5
2CC
100
AcDbEntity
 8
Layer8
100
AcDbLine
 39
0.25
 370
106
 10
432.0841
 20
334.721493896484
 30
0.0
 11
432.0131
 21
334.910493896484
 31
0.0
 0
LINE
 5
2CD
100
AcDbEntity
 8
Layer8
100
AcDbLine
 39
0.25
 370
106
 10
432.0131
 20
334.910493896484
 30
0.0
 11
431.9131
 21
335.036493896484
 31
0.0
 0
LINE
 5
2CE
100
AcDbEntity
 8
Layer8
100
AcDbLine
 39
0.25
 370
106
 10
431.9131
 20
335.036493896484
 30
0.0
 11
431.7961
 21
335.081493896484
 31
0.0
 0
LINE
 5
2CF
100
AcDbEntity
 8
Layer8
100
AcDbLine
 39
0.25
 370
106
 10
432.1841
 20
331.373493896484
 30
0.0
 11
432.1681
 21
332.933493896484
 31
0.0
 0
LINE
 5
2D0
100
AcDbEntity
 8
Layer8
100
AcDbLine
 39
0.25
 370
106
 10
432.1681
 20
332.933493896484
 30
0.0
 11
432.1171
 21
334.493493896484
 31
0.0
 0
LINE
 5
2D1
100
AcDbEntity
 8
Layer8
100
AcDbLine
 39
0.25
 370
106
 10
394.4711
 20
335.081493896484
 30
0.0
 11
398.8111
 21
335.081493896484
 31
0.0
 0
LINE
 5
2D2
100
AcDbEntity
 8
Layer8
100
AcDbLine
 39
0.25
 370
106
 10
415.1381
 20
335.081493896484
 30
0.0
 11
410.7961
 21
335.081493896484
 31
0.0
 0
LINE
 5
2D3
100
AcDbEntity
 8
Layer8
100
AcDbLine
 39
0.25
 370
106
 10
398.8111
 20
335.081493896484
 30
0.0
 11
410.7961
 21
335.081493896484
 31
0.0
 0
LINE
 5
2D4
100
AcDbEntity
 8
Layer8
100
AcDbLine
 39
0.25
 370
106
 10
411.5761
 20
331.373493896484
 30
0.0
 11
398.0311
 21
331.373493896484
 31
0.0
 0
LINE
 5
2D5
100
AcDbEntity
 8
Layer8
100
AcDbLine
 39
0.25
 370
106
 10
293.3641
 20
335.081493896484
 30
0.0
 11
300.5441
 21
335.081493896484
 31
0.0
 0
LINE
 5
2D6
100
AcDbEntity
 8
Layer8
100
AcDbLine
 39
0.25
 370
106
 10
300.6961
 20
331.373493896484
 30
0.0
 11
292.5881
 21
331.373493896484
 31
0.0
 0
LINE
 5
2D7
100
AcDbEntity
 8
Layer8
100
AcDbLine
 39
0.25
 370
106
 10
300.5441
 20
335.081493896484
 30
0.0
 11
307.8371
 21
335.081493896484
 31
0.0
 0
LINE
 5
2D8
100
AcDbEntity
 8
Layer8
100
AcDbLine
 39
0.25
 370
106
 10
300.6701
 20
334.493493896484
 30
0.0
 11
300.6311
 21
334.910493896484
 31
0.0
 0
LINE
 5
2D9
100
AcDbEntity
 8
Layer8
100
AcDbLine
 39
0.25
 370
106
 10
300.6311
 20
334.910493896484
 30
0.0
 11
300.5891
 21
335.036493896484
 31
0.0
 0
LINE
 5
2DA
100
AcDbEntity
 8
Layer8
100
AcDbLine
 39
0.25
 370
106
 10
300.5891
 20
335.036493896484
 30
0.0
 11
300.5441
 21
335.081493896484
 31
0.0
 0
LINE
 5
2DB
100
AcDbEntity
 8
Layer8
100
AcDbLine
 39
0.25
 370
106
 10
307.4491
 20
331.373493896484
 30
0.0
 11
300.6961
 21
331.373493896484
 31
0.0
 0
LINE
 5
2DC
100
AcDbEntity
 8
Layer8
100
AcDbLine
 39
0.25
 370
106
 10
300.6961
 20
331.373493896484
 30
0.0
 11
300.6701
 21
334.493493896484
 31
0.0
 0
LINE
 5
2DD
100
AcDbEntity
 8
Layer8
100
AcDbLine
 39
0.25
 370
106
 10
345.1621
 20
335.081493896484
 30
0.0
 11
353.2211
 21
335.081493896484
 31
0.0
 0
LINE
 5
2DE
100
AcDbEntity
 8
Layer8
100
AcDbLine
 39
0.25
 370
106
 10
307.8371
 20
335.081493896484
 30
0.0
 11
324.4981
 21
335.081493896484
 31
0.0
 0
LINE
 5
2DF
100
AcDbEntity
 8
Layer8
100
AcDbLine
 39
0.25
 370
106
 10
307.5161
 20
334.493493896484
 30
0.0
 11
307.5491
 21
334.721493896484
 31
0.0
 0
LINE
 5
2E0
100
AcDbEntity
 8
Layer8
100
AcDbLine
 39
0.25
 370
106
 10
307.5491
 20
334.721493896484
 30
0.0
 11
307.6201
 21
334.910493896484
 31
0.0
 0
LINE
 5
2E1
100
AcDbEntity
 8
Layer8
100
AcDbLine
 39
0.25
 370
106
 10
307.6201
 20
334.910493896484
 30
0.0
 11
307.7231
 21
335.036493896484
 31
0.0
 0
LINE
 5
2E2
100
AcDbEntity
 8
Layer8
100
AcDbLine
 39
0.25
 370
106
 10
307.7231
 20
335.036493896484
 30
0.0
 11
307.8371
 21
335.081493896484
 31
0.0
 0
LINE
 5
2E3
100
AcDbEntity
 8
Layer8
100
AcDbLine
 39
0.25
 370
106
 10
307.4491
 20
331.373493896484
 30
0.0
 11
307.4651
 21
332.933493896484
 31
0.0
 0
LINE
 5
2E4
100
AcDbEntity
 8
Layer8
100
AcDbLine
 39
0.25
 370
106
 10
307.4651
 20
332.933493896484
 30
0.0
 11
307.4851
 21
333.713493896484
 31
0.0
 0
LINE
 5
2E5
100
AcDbEntity
 8
Layer8
100
AcDbLine
 39
0.25
 370
106
 10
307.4851
 20
333.713493896484
 30
0.0
 11
307.5161
 21
334.493493896484
 31
0.0
 0
LINE
 5
2E6
100
AcDbEntity
 8
Layer8
100
AcDbLine
 39
0.25
 370
106
 10
345.1621
 20
335.081493896484
 30
0.0
 11
340.8211
 21
335.081493896484
 31
0.0
 0
LINE
 5
2E7
100
AcDbEntity
 8
Layer8
100
AcDbLine
 39
0.25
 370
106
 10
328.8361
 20
335.081493896484
 30
0.0
 11
324.4981
 21
335.081493896484
 31
0.0
 0
LINE
 5
2E8
100
AcDbEntity
 8
Layer8
100
AcDbLine
 39
0.25
 370
106
 10
340.8211
 20
335.081493896484
 30
0.0
 11
328.8361
 21
335.081493896484
 31
0.0
 0
LINE
 5
2E9
100
AcDbEntity
 8
Layer8
100
AcDbLine
 39
0.25
 370
106
 10
328.0571
 20
331.373493896484
 30
0.0
 11
341.6011
 21
331.373493896484
 31
0.0
 0
LINE
 5
2EA
100
AcDbEntity
 8
Layer8
100
AcDbLine
 39
0.25
 370
106
 10
376.2671
 20
319.919493896484
 30
0.0
 11
363.3661
 21
319.919493896484
 31
0.0
 0
LINE
 5
2EB
100
AcDbEntity
 8
Layer8
100
AcDbLine
 39
0.25
 370
106
 10
363.3661
 20
342.491493896484
 30
0.0
 11
376.2671
 21
342.491493896484
 31
0.0
 0
LINE
 5
2EC
100
AcDbEntity
 8
Layer8
100
AcDbLine
 39
0.25
 370
106
 10
381.1021
 20
327.341493896484
 30
0.0
 11
381.1021
 21
324.755493896484
 31
0.0
 0
LINE
 5
2ED
100
AcDbEntity
 8
Layer8
100
AcDbLine
 39
0.25
 370
106
 10
381.1021
 20
337.655493896484
 30
0.0
 11
381.1021
 21
335.081493896484
 31
0.0
 0
LINE
 5
2EE
100
AcDbEntity
 8
Layer8
100
AcDbLine
 39
0.25
 370
106
 10
358.5301
 20
335.081493896484
 30
0.0
 11
358.5301
 21
337.655493896484
 31
0.0
 0
LINE
 5
2EF
100
AcDbEntity
 8
Layer8
100
AcDbLine
 39
0.25
 370
106
 10
358.5301
 20
324.755493896484
 30
0.0
 11
358.5301
 21
327.341493896484
 31
0.0
 0
ARC
 5
2F0
100
AcDbEntity
 8
Layer8
100
AcDbCircle
 39
0.25
 370
106
 10
376.271347759678
 20
324.750247118561
 30
0.0
 40
4.8307550896386
100
AcDbArc
 50
-90.0503810954624
 51
0.0622300829903606
 0
ARC
 5
2F1
100
AcDbEntity
 8
Layer8
100
AcDbCircle
 39
0.25
 370
106
 10
363.361976059329
 20
337.659617837155
 30
0.0
 40
4.83187781919254
100
AcDbArc
 50
89.951098841295
 51
-179.951098841299
 0
ARC
 5
2F2
100
AcDbEntity
 8
Layer8
100
AcDbCircle
 39
0.25
 370
106
 10
363.360857142852
 20
324.750251039339
 30
0.0
 40
4.83075998790776
100
AcDbArc
 50
179.937816482976
 51
-89.9378164829436
 0
ARC
 5
2F3
100
AcDbEntity
 8
Layer8
100
AcDbCircle
 39
0.25
 370
106
 10
376.271343959562
 20
337.660736875078
 30
0.0
 40
4.83075888562538
100
AcDbArc
 50
-0.062184971678415
 51
90.0503359841389
 0
LINE
 5
2F4
100
AcDbEntity
 8
Layer8
100
AcDbLine
 39
0.25
 370
106
 10
371.7001
 20
327.335493896484
 30
0.0
 11
371.7901
 21
327.341493896484
 31
0.0
 0
LINE
 5
2F5
100
AcDbEntity
 8
Layer8
100
AcDbLine
 39
0.25
 370
106
 10
367.8431
 20
327.341493896484
 30
0.0
 11
367.9331
 21
327.335493896484
 31
0.0
 0
LINE
 5
2F6
100
AcDbEntity
 8
Layer8
100
AcDbLine
 39
0.25
 370
106
 10
367.9331
 20
327.335493896484
 30
0.0
 11
371.7001
 21
327.335493896484
 31
0.0
 0
LINE
 5
2F7
100
AcDbEntity
 8
Layer8
100
AcDbLine
 39
0.25
 370
106
 10
304.4741
 20
307.832493896484
 30
0.0
 11
294.2401
 21
307.832493896484
 31
0.0
 0
LINE
 5
2F8
100
AcDbEntity
 8
Layer8
100
AcDbLine
 39
0.25
 370
106
 10
339.9451
 20
307.832493896484
 30
0.0
 11
329.7121
 21
307.832493896484
 31
0.0
 0
LINE
 5
2F9
100
AcDbEntity
 8
Layer8
100
AcDbLine
 39
0.25
 370
106
 10
409.9201
 20
307.832493896484
 30
0.0
 11
399.6871
 21
307.832493896484
 31
0.0
 0
LINE
 5
2FA
100
AcDbEntity
 8
Layer8
100
AcDbLine
 39
0.25
 370
106
 10
445.3921
 20
307.832493896484
 30
0.0
 11
435.1561
 21
307.832493896484
 31
0.0
 0
LINE
 5
2FB
100
AcDbEntity
 8
Layer8
100
AcDbLine
 39
0.25
 370
106
 10
329.1871
 20
357.653493896484
 30
0.0
 11
340.4741
 21
357.653493896484
 31
0.0
 0
LINE
 5
2FC
100
AcDbEntity
 8
Layer8
100
AcDbLine
 39
0.25
 370
106
 10
399.1591
 20
357.653493896484
 30
0.0
 11
410.4451
 21
357.653493896484
 31
0.0
 0
LINE
 5
2FD
100
AcDbEntity
 8
Layer8
100
AcDbLine
 39
0.25
 370
106
 10
293.7161
 20
357.653493896484
 30
0.0
 11
305.0021
 21
357.653493896484
 31
0.0
 0
LINE
 5
2FE
100
AcDbEntity
 8
Layer8
100
AcDbLine
 39
0.25
 370
106
 10
434.6321
 20
357.653493896484
 30
0.0
 11
445.9171
 21
357.653493896484
 31
0.0
 0
LINE
 5
2FF
100
AcDbEntity
 8
Layer8
100
AcDbLine
 39
0.25
 370
106
 10
378.2731
 20
327.341493896484
 30
0.0
 11
361.3591
 21
327.341493896484
 31
0.0
 0
LINE
 5
300
100
AcDbEntity
 8
Layer8
100
AcDbLine
 39
0.25
 370
106
 10
386.3341
 20
327.341493896484
 30
0.0
 11
378.2731
 21
327.341493896484
 31
0.0
 0
LINE
 5
301
100
AcDbEntity
 8
Layer8
100
AcDbLine
 39
0.25
 370
106
 10
353.2991
 20
327.341493896484
 30
0.0
 11
361.3591
 21
327.341493896484
 31
0.0
 0
LINE
 5
302
100
AcDbEntity
 8
Layer8
100
AcDbLine
 39
0.25
 370
106
 10
386.4181
 20
327.341493896484
 30
0.0
 11
386.3341
 21
327.341493896484
 31
0.0
 0
LINE
 5
303
100
AcDbEntity
 8
Layer8
100
AcDbLine
 39
0.25
 370
106
 10
353.2151
 20
327.341493896484
 30
0.0
 11
353.2991
 21
327.341493896484
 31
0.0
 0
LINE
 5
304
100
AcDbEntity
 8
Layer8
100
AcDbLine
 39
0.25
 370
106
 10
378.2671
 20
335.081493896484
 30
0.0
 11
361.3651
 21
335.081493896484
 31
0.0
 0
LINE
 5
305
100
AcDbEntity
 8
Layer8
100
AcDbLine
 39
0.25
 370
106
 10
386.3281
 20
335.081493896484
 30
0.0
 11
378.2671
 21
335.081493896484
 31
0.0
 0
LINE
 5
306
100
AcDbEntity
 8
Layer8
100
AcDbLine
 39
0.25
 370
106
 10
353.3051
 20
335.081493896484
 30
0.0
 11
361.3651
 21
335.081493896484
 31
0.0
 0
LINE
 5
307
100
AcDbEntity
 8
Layer8
100
AcDbLine
 39
0.25
 370
106
 10
386.3281
 20
335.081493896484
 30
0.0
 11
386.4091
 21
335.081493896484
 31
0.0
 0
LINE
 5
308
100
AcDbEntity
 8
Layer8
100
AcDbLine
 39
0.25
 370
106
 10
353.3051
 20
335.081493896484
 30
0.0
 11
353.2211
 21
335.081493896484
 31
0.0
 0
LINE
 5
309
100
AcDbEntity
 8
Layer8
100
AcDbLine
 39
0.25
 370
106
 10
446.5291
 20
331.211493896484
 30
0.0
 11
446.5291
 21
331.373493896484
 31
0.0
 0
LINE
 5
30A
100
AcDbEntity
 8
Layer8
100
AcDbLine
 39
0.25
 370
106
 10
446.2531
 20
327.341493896484
 30
0.0
 11
446.5931
 21
327.437493896484
 31
0.0
 0
LINE
 5
30B
100
AcDbEntity
 8
Layer8
100
AcDbLine
 39
0.25
 370
106
 10
446.5931
 20
327.437493896484
 30
0.0
 11
446.8741
 21
327.809493896484
 31
0.0
 0
LINE
 5
30C
100
AcDbEntity
 8
Layer8
100
AcDbLine
 39
0.25
 370
106
 10
446.8741
 20
327.809493896484
 30
0.0
 11
447.0451
 21
331.211493896484
 31
0.0
 0
LINE
 5
30D
100
AcDbEntity
 8
Layer8
100
AcDbLine
 39
0.25
 370
106
 10
411.0601
 20
331.211493896484
 30
0.0
 11
411.0601
 21
331.373493896484
 31
0.0
 0
LINE
 5
30E
100
AcDbEntity
 8
Layer8
100
AcDbLine
 39
0.25
 370
106
 10
398.5471
 20
331.373493896484
 30
0.0
 11
398.5471
 21
331.211493896484
 31
0.0
 0
ARC
 5
30F
100
AcDbEntity
 8
Layer8
100
AcDbCircle
 39
0.25
 370
106
 10
398.83141864623
 20
327.994289199488
 30
0.0
 40
0.652848303552094
100
AcDbArc
 50
-174.039349937596
 51
-90.7300872438883
 0
LINE
 5
310
100
AcDbEntity
 8
Layer8
100
AcDbLine
 39
0.25
 370
106
 10
410.7811
 20
327.341493896484
 30
0.0
 11
411.2171
 21
327.509493896484
 31
0.0
 0
LINE
 5
311
100
AcDbEntity
 8
Layer8
100
AcDbLine
 39
0.25
 370
106
 10
411.2171
 20
327.509493896484
 30
0.0
 11
411.4021
 21
327.809493896484
 31
0.0
 0
LINE
 5
312
100
AcDbEntity
 8
Layer8
100
AcDbLine
 39
0.25
 370
106
 10
411.4021
 20
327.809493896484
 30
0.0
 11
411.5761
 21
331.211493896484
 31
0.0
 0
LINE
 5
313
100
AcDbEntity
 8
Layer8
100
AcDbLine
 39
0.25
 370
106
 10
398.0311
 20
331.211493896484
 30
0.0
 11
398.1821
 21
327.926493896484
 31
0.0
 0
LINE
 5
314
100
AcDbEntity
 8
Layer8
100
AcDbLine
 39
0.25
 370
106
 10
293.1031
 20
331.373493896484
 30
0.0
 11
293.1031
 21
331.211493896484
 31
0.0
 0
ARC
 5
315
100
AcDbEntity
 8
Layer8
100
AcDbCircle
 39
0.25
 370
106
 10
293.382468159223
 20
327.989972061228
 30
0.0
 40
0.648482488845036
100
AcDbArc
 50
-174.382478374332
 51
-90.2092359202277
 0
LINE
 5
316
100
AcDbEntity
 8
Layer8
100
AcDbLine
 39
0.25
 370
106
 10
292.5881
 20
331.211493896484
 30
0.0
 11
292.7371
 21
327.926493896484
 31
0.0
 0
LINE
 5
317
100
AcDbEntity
 8
Layer8
100
AcDbLine
 39
0.25
 370
106
 10
341.0851
 20
331.211493896484
 30
0.0
 11
341.0851
 21
331.373493896484
 31
0.0
 0
LINE
 5
318
100
AcDbEntity
 8
Layer8
100
AcDbLine
 39
0.25
 370
106
 10
328.5721
 20
331.373493896484
 30
0.0
 11
328.5721
 21
331.211493896484
 31
0.0
 0
ARC
 5
319
100
AcDbEntity
 8
Layer8
100
AcDbCircle
 39
0.25
 370
106
 10
328.854482499962
 20
327.989982896454
 30
0.0
 40
0.648497821410319
100
AcDbArc
 50
-174.381649688717
 51
-90.2988504269039
 0
LINE
 5
31A
100
AcDbEntity
 8
Layer8
100
AcDbLine
 39
0.25
 370
106
 10
340.8091
 20
327.341493896484
 30
0.0
 11
341.1481
 21
327.437493896484
 31
0.0
 0
LINE
 5
31B
100
AcDbEntity
 8
Layer8
100
AcDbLine
 39
0.25
 370
106
 10
341.1481
 20
327.437493896484
 30
0.0
 11
341.4281
 21
327.809493896484
 31
0.0
 0
LINE
 5
31C
100
AcDbEntity
 8
Layer8
100
AcDbLine
 39
0.25
 370
106
 10
341.4281
 20
327.809493896484
 30
0.0
 11
341.6011
 21
331.211493896484
 31
0.0
 0
LINE
 5
31D
100
AcDbEntity
 8
Layer8
100
AcDbLine
 39
0.25
 370
106
 10
328.0571
 20
331.211493896484
 30
0.0
 11
328.2091
 21
327.926493896484
 31
0.0
 0
ARC
 5
31E
100
AcDbEntity
 8
Layer8
100
AcDbCircle
 39
0.25
 370
106
 10
446.26479448586
 20
334.433405222872
 30
0.0
 40
0.648097103276621
100
AcDbArc
 50
5.31984956904698
 51
89.7077709042424
 0
LINE
 5
31F
100
AcDbEntity
 8
Layer8
100
AcDbLine
 39
0.25
 370
106
 10
447.0451
 20
331.373493896484
 30
0.0
 11
446.9101
 21
334.493493896484
 31
0.0
 0
ARC
 5
320
100
AcDbEntity
 8
Layer8
100
AcDbCircle
 39
0.25
 370
106
 10
398.815304689012
 20
334.429118854939
 30
0.0
 40
0.652388591440313
100
AcDbArc
 50
90.3692777673134
 51
174.337071089457
 0
ARC
 5
321
100
AcDbEntity
 8
Layer8
100
AcDbCircle
 39
0.25
 370
106
 10
410.79279448586
 20
334.433405222875
 30
0.0
 40
0.648097103276866
100
AcDbArc
 50
5.3198495687926
 51
89.7077709041959
 0
LINE
 5
322
100
AcDbEntity
 8
Layer8
100
AcDbLine
 39
0.25
 370
106
 10
411.5761
 20
331.373493896484
 30
0.0
 11
411.4381
 21
334.493493896484
 31
0.0
 0
LINE
 5
323
100
AcDbEntity
 8
Layer8
100
AcDbLine
 39
0.25
 370
106
 10
398.1661
 20
334.493493896484
 30
0.0
 11
398.0311
 21
331.373493896484
 31
0.0
 0
LINE
 5
324
100
AcDbEntity
 8
Layer8
100
AcDbLine
 39
0.25
 370
106
 10
293.3641
 20
335.081493896484
 30
0.0
 11
292.9301
 21
334.910493896484
 31
0.0
 0
LINE
 5
325
100
AcDbEntity
 8
Layer8
100
AcDbLine
 39
0.25
 370
106
 10
292.9301
 20
334.910493896484
 30
0.0
 11
292.7431
 21
334.610493896484
 31
0.0
 0
LINE
 5
326
100
AcDbEntity
 8
Layer8
100
AcDbLine
 39
0.25
 370
106
 10
292.7431
 20
334.610493896484
 30
0.0
 11
292.5881
 21
331.373493896484
 31
0.0
 0
ARC
 5
327
100
AcDbEntity
 8
Layer8
100
AcDbCircle
 39
0.25
 370
106
 10
328.837022754326
 20
334.436006807576
 30
0.0
 40
0.645487748468254
100
AcDbArc
 50
90.0819069712227
 51
174.890472556366
 0
ARC
 5
328
100
AcDbEntity
 8
Layer8
100
AcDbCircle
 39
0.25
 370
106
 10
340.818008166131
 20
334.429236541601
 30
0.0
 40
0.652264682817801
100
AcDbArc
 50
5.65361982102479
 51
89.7284082678449
 0
LINE
 5
329
100
AcDbEntity
 8
Layer8
100
AcDbLine
 39
0.25
 370
106
 10
341.6011
 20
331.373493896484
 30
0.0
 11
341.4671
 21
334.493493896484
 31
0.0
 0
LINE
 5
32A
100
AcDbEntity
 8
Layer8
100
AcDbLine
 39
0.25
 370
106
 10
328.1941
 20
334.493493896484
 30
0.0
 11
328.0571
 21
331.373493896484
 31
0.0
 0
ARC
 5
32B
100
AcDbEntity
 8
Layer8
100
AcDbCircle
 39
0.25
 370
106
 10
304.466353985296
 20
308.164326322571
 30
0.0
 40
0.331922821973057
100
AcDbArc
 50
-88.6627787695975
 51
-1.87020138797681
 0
ARC
 5
32C
100
AcDbEntity
 8
Layer8
100
AcDbCircle
 39
0.25
 370
106
 10
294.238359268009
 20
308.150760144963
 30
0.0
 40
0.318271008844898
100
AcDbArc
 50
179.507858566769
 51
-89.6866284052979
 0
LINE
 5
32D
100
AcDbEntity
 8
Layer8
100
AcDbLine
 39
0.25
 370
106
 10
304.7981
 20
308.153493896484
 30
0.0
 11
304.9661
 21
327.341493896484
 31
0.0
 0
LINE
 5
32E
100
AcDbEntity
 8
Layer8
100
AcDbLine
 39
0.25
 370
106
 10
293.7521
 20
327.341493896484
 30
0.0
 11
293.9201
 21
308.153493896484
 31
0.0
 0
ARC
 5
32F
100
AcDbEntity
 8
Layer8
100
AcDbCircle
 39
0.25
 370
106
 10
339.940485714408
 20
308.161165324928
 30
0.0
 40
0.328703817298629
100
AcDbArc
 50
-89.1956656422601
 51
-1.33731450906465
 0
ARC
 5
330
100
AcDbEntity
 8
Layer8
100
AcDbCircle
 39
0.25
 370
106
 10
329.711590566005
 20
308.151987607135
 30
0.0
 40
0.319494116806709
100
AcDbArc
 50
179.729871889285
 51
-89.9086417287221
 0
LINE
 5
331
100
AcDbEntity
 8
Layer8
100
AcDbLine
 39
0.25
 370
106
 10
340.2691
 20
308.153493896484
 30
0.0
 11
340.4371
 21
327.341493896484
 31
0.0
 0
LINE
 5
332
100
AcDbEntity
 8
Layer8
100
AcDbLine
 39
0.25
 370
106
 10
329.2241
 20
327.341493896484
 30
0.0
 11
329.3921
 21
308.153493896484
 31
0.0
 0
ARC
 5
333
100
AcDbEntity
 8
Layer8
100
AcDbCircle
 39
0.25
 370
106
 10
409.924560000162
 20
308.149033896349
 30
0.0
 40
0.316571418665043
100
AcDbArc
 50
-90.8072353503799
 51
0.807235345742471
 0
ARC
 5
334
100
AcDbEntity
 8
Layer8
100
AcDbCircle
 39
0.25
 370
106
 10
399.686328924207
 20
308.155729633081
 30
0.0
 40
0.323236656279013
100
AcDbArc
 50
-179.603698126458
 51
-89.8633217191238
 0
LINE
 5
335
100
AcDbEntity
 8
Layer8
100
AcDbLine
 39
0.25
 370
106
 10
410.2411
 20
308.153493896484
 30
0.0
 11
410.4091
 21
327.341493896484
 31
0.0
 0
LINE
 5
336
100
AcDbEntity
 8
Layer8
100
AcDbLine
 39
0.25
 370
106
 10
399.1951
 20
327.341493896484
 30
0.0
 11
399.3631
 21
308.153493896484
 31
0.0
 0
ARC
 5
337
100
AcDbEntity
 8
Layer8
100
AcDbCircle
 39
0.25
 370
106
 10
445.393599999997
 20
308.151993896566
 30
0.0
 40
0.319503521188633
100
AcDbArc
 50
-90.2689922930637
 51
0.268992279120964
 0
ARC
 5
338
100
AcDbEntity
 8
Layer8
100
AcDbCircle
 39
0.25
 370
106
 10
435.158350000035
 20
308.155743896474
 30
0.0
 40
0.323257830566917
100
AcDbArc
 50
-179.601195912206
 51
-90.39880409603
 0
LINE
 5
339
100
AcDbEntity
 8
Layer8
100
AcDbLine
 39
0.25
 370
106
 10
445.7131
 20
308.153493896484
 30
0.0
 11
445.8821
 21
327.341493896484
 31
0.0
 0
LINE
 5
33A
100
AcDbEntity
 8
Layer8
100
AcDbLine
 39
0.25
 370
106
 10
434.6671
 20
327.341493896484
 30
0.0
 11
434.8351
 21
308.153493896484
 31
0.0
 0
LINE
 5
33B
100
AcDbEntity
 8
Layer8
100
AcDbLine
 39
0.25
 370
106
 10
340.4741
 20
335.081493896484
 30
0.0
 11
340.5871
 21
335.129493896484
 31
0.0
 0
LINE
 5
33C
100
AcDbEntity
 8
Layer8
100
AcDbLine
 39
0.25
 370
106
 10
340.5871
 20
335.129493896484
 30
0.0
 11
340.6331
 21
335.243493896484
 31
0.0
 0
LINE
 5
33D
100
AcDbEntity
 8
Layer8
100
AcDbLine
 39
0.25
 370
106
 10
329.0251
 20
335.243493896484
 30
0.0
 11
329.0731
 21
335.129493896484
 31
0.0
 0
LINE
 5
33E
100
AcDbEntity
 8
Layer8
100
AcDbLine
 39
0.25
 370
106
 10
329.0731
 20
335.129493896484
 30
0.0
 11
329.1871
 21
335.081493896484
 31
0.0
 0
LINE
 5
33F
100
AcDbEntity
 8
Layer8
100
AcDbLine
 39
0.25
 370
106
 10
329.0251
 20
357.491493896484
 30
0.0
 11
329.0251
 21
335.243493896484
 31
0.0
 0
LINE
 5
340
100
AcDbEntity
 8
Layer8
100
AcDbLine
 39
0.25
 370
106
 10
340.6331
 20
335.243493896484
 30
0.0
 11
340.6331
 21
357.491493896484
 31
0.0
 0
LINE
 5
341
100
AcDbEntity
 8
Layer8
100
AcDbLine
 39
0.25
 370
106
 10
340.6331
 20
357.491493896484
 30
0.0
 11
340.4741
 21
357.653493896484
 31
0.0
 0
LINE
 5
342
100
AcDbEntity
 8
Layer8
100
AcDbLine
 39
0.25
 370
106
 10
329.1871
 20
357.653493896484
 30
0.0
 11
329.0731
 21
357.605493896484
 31
0.0
 0
LINE
 5
343
100
AcDbEntity
 8
Layer8
100
AcDbLine
 39
0.25
 370
106
 10
329.0731
 20
357.605493896484
 30
0.0
 11
329.0251
 21
357.491493896484
 31
0.0
 0
LINE
 5
344
100
AcDbEntity
 8
Layer8
100
AcDbLine
 39
0.25
 370
106
 10
410.4451
 20
335.081493896484
 30
0.0
 11
410.5591
 21
335.129493896484
 31
0.0
 0
LINE
 5
345
100
AcDbEntity
 8
Layer8
100
AcDbLine
 39
0.25
 370
106
 10
410.5591
 20
335.129493896484
 30
0.0
 11
410.6071
 21
335.243493896484
 31
0.0
 0
LINE
 5
346
100
AcDbEntity
 8
Layer8
100
AcDbLine
 39
0.25
 370
106
 10
398.9971
 20
335.243493896484
 30
0.0
 11
399.0451
 21
335.129493896484
 31
0.0
 0
LINE
 5
347
100
AcDbEntity
 8
Layer8
100
AcDbLine
 39
0.25
 370
106
 10
399.0451
 20
335.129493896484
 30
0.0
 11
399.1591
 21
335.081493896484
 31
0.0
 0
LINE
 5
348
100
AcDbEntity
 8
Layer8
100
AcDbLine
 39
0.25
 370
106
 10
398.9971
 20
357.491493896484
 30
0.0
 11
398.9971
 21
335.243493896484
 31
0.0
 0
LINE
 5
349
100
AcDbEntity
 8
Layer8
100
AcDbLine
 39
0.25
 370
106
 10
410.6071
 20
335.243493896484
 30
0.0
 11
410.6071
 21
357.491493896484
 31
0.0
 0
LINE
 5
34A
100
AcDbEntity
 8
Layer8
100
AcDbLine
 39
0.25
 370
106
 10
410.6071
 20
357.491493896484
 30
0.0
 11
410.4451
 21
357.653493896484
 31
0.0
 0
LINE
 5
34B
100
AcDbEntity
 8
Layer8
100
AcDbLine
 39
0.25
 370
106
 10
399.1591
 20
357.653493896484
 30
0.0
 11
399.0451
 21
357.605493896484
 31
0.0
 0
LINE
 5
34C
100
AcDbEntity
 8
Layer8
100
AcDbLine
 39
0.25
 370
106
 10
399.0451
 20
357.605493896484
 30
0.0
 11
398.9971
 21
357.491493896484
 31
0.0
 0
LINE
 5
34D
100
AcDbEntity
 8
Layer8
100
AcDbLine
 39
0.25
 370
106
 10
305.0021
 20
335.081493896484
 30
0.0
 11
305.1151
 21
335.129493896484
 31
0.0
 0
LINE
 5
34E
100
AcDbEntity
 8
Layer8
100
AcDbLine
 39
0.25
 370
106
 10
305.1151
 20
335.129493896484
 30
0.0
 11
305.1641
 21
335.243493896484
 31
0.0
 0
LINE
 5
34F
100
AcDbEntity
 8
Layer8
100
AcDbLine
 39
0.25
 370
106
 10
293.5541
 20
335.243493896484
 30
0.0
 11
293.6011
 21
335.129493896484
 31
0.0
 0
LINE
 5
350
100
AcDbEntity
 8
Layer8
100
AcDbLine
 39
0.25
 370
106
 10
293.6011
 20
335.129493896484
 30
0.0
 11
293.7161
 21
335.081493896484
 31
0.0
 0
LINE
 5
351
100
AcDbEntity
 8
Layer8
100
AcDbLine
 39
0.25
 370
106
 10
293.5541
 20
357.491493896484
 30
0.0
 11
293.5541
 21
335.243493896484
 31
0.0
 0
LINE
 5
352
100
AcDbEntity
 8
Layer8
100
AcDbLine
 39
0.25
 370
106
 10
305.1641
 20
335.243493896484
 30
0.0
 11
305.1641
 21
357.491493896484
 31
0.0
 0
LINE
 5
353
100
AcDbEntity
 8
Layer8
100
AcDbLine
 39
0.25
 370
106
 10
305.1641
 20
357.491493896484
 30
0.0
 11
305.0021
 21
357.653493896484
 31
0.0
 0
LINE
 5
354
100
AcDbEntity
 8
Layer8
100
AcDbLine
 39
0.25
 370
106
 10
293.7161
 20
357.653493896484
 30
0.0
 11
293.6011
 21
357.605493896484
 31
0.0
 0
LINE
 5
355
100
AcDbEntity
 8
Layer8
100
AcDbLine
 39
0.25
 370
106
 10
293.6011
 20
357.605493896484
 30
0.0
 11
293.5541
 21
357.491493896484
 31
0.0
 0
LINE
 5
356
100
AcDbEntity
 8
Layer8
100
AcDbLine
 39
0.25
 370
106
 10
445.9171
 20
335.081493896484
 30
0.0
 11
446.0311
 21
335.129493896484
 31
0.0
 0
LINE
 5
357
100
AcDbEntity
 8
Layer8
100
AcDbLine
 39
0.25
 370
106
 10
446.0311
 20
335.129493896484
 30
0.0
 11
446.0791
 21
335.243493896484
 31
0.0
 0
LINE
 5
358
100
AcDbEntity
 8
Layer8
100
AcDbLine
 39
0.25
 370
106
 10
434.4701
 20
335.243493896484
 30
0.0
 11
434.5171
 21
335.129493896484
 31
0.0
 0
LINE
 5
359
100
AcDbEntity
 8
Layer8
100
AcDbLine
 39
0.25
 370
106
 10
434.5171
 20
335.129493896484
 30
0.0
 11
434.6321
 21
335.081493896484
 31
0.0
 0
LINE
 5
35A
100
AcDbEntity
 8
Layer8
100
AcDbLine
 39
0.25
 370
106
 10
434.4701
 20
357.491493896484
 30
0.0
 11
434.4701
 21
335.243493896484
 31
0.0
 0
LINE
 5
35B
100
AcDbEntity
 8
Layer8
100
AcDbLine
 39
0.25
 370
106
 10
446.0791
 20
335.243493896484
 30
0.0
 11
446.0791
 21
357.491493896484
 31
0.0
 0
LINE
 5
35C
100
AcDbEntity
 8
Layer8
100
AcDbLine
 39
0.25
 370
106
 10
446.0791
 20
357.491493896484
 30
0.0
 11
445.9171
 21
357.653493896484
 31
0.0
 0
HATCH
 5
35D
100
AcDbEntity
 8
Layer22
100
AcDbHatch
 10
 0.0
 20
 0.0
 30
 0.0
 210
 0.0
 220
 0.0
 230
 1.0
 2
SOLID
 70
 1
 71
 1
 91
1              
 92
 0
 93
42             
 72
 1
 10
34.5073
 20
31.9819938964844
 11
38.5453
 21
31.9819938964844
 72
 1
 10
38.5453
 20
31.9819938964844
 11
38.4243
 21
40.8629938964844
 72
 1
 10
38.4243
 20
40.8629938964844
 11
38.41314765625
 21
41.5447419433594
 72
 1
 10
38.41314765625
 20
41.5447419433594
 11
38.40051875
 21
42.2765407714843
 72
 1
 10
38.40051875
 20
42.2765407714843
 11
38.38503046875
 21
43.0412224121094
 72
 1
 10
38.38503046875
 20
43.0412224121094
 11
38.3653
 21
43.8216188964844
 72
 1
 10
38.3653
 20
43.8216188964844
 11
38.33994453125
 21
44.6005622558594
 72
 1
 10
38.33994453125
 20
44.6005622558594
 11
38.30758125
 21
45.3608845214844
 72
 1
 10
38.30758125
 20
45.3608845214844
 11
38.26682734375
 21
46.0854177246093
 72
 1
 10
38.26682734375
 20
46.0854177246093
 11
38.2163
 21
46.7569938964843
 72
 1
 10
38.2163
 20
46.7569938964843
 11
38.402423046875
 21
46.2011599121093
 72
 1
 10
38.402423046875
 20
46.2011599121093
 11
38.660159375
 21
45.5143220214844
 72
 1
 10
38.660159375
 20
45.5143220214844
 11
38.977309765625
 21
44.7196013183594
 72
 1
 10
38.977309765625
 20
44.7196013183594
 11
39.341675
 21
43.8401188964843
 72
 1
 10
39.341675
 20
43.8401188964843
 11
39.741055859375
 21
42.8989958496094
 72
 1
 10
39.741055859375
 20
42.8989958496094
 11
40.163253125
 21
41.9193532714844
 72
 1
 10
40.163253125
 20
41.9193532714844
 11
40.596067578125
 21
40.9243122558593
 72
 1
 10
40.596067578125
 20
40.9243122558593
 11
41.0273
 21
39.9369938964844
 72
 1
 10
41.0273
 20
39.9369938964844
 11
44.5873
 21
31.9819938964844
 72
 1
 10
44.5873
 20
31.9819938964844
 11
48.9523
 21
31.9819938964844
 72
 1
 10
48.9523
 20
31.9819938964844
 11
48.9523
 21
52.7669938964844
 72
 1
 10
48.9523
 20
52.7669938964844
 11
44.9753
 21
52.7669938964844
 72
 1
 10
44.9753
 20
52.7669938964844
 11
45.0653
 21
44.2729938964844
 72
 1
 10
45.0653
 20
44.2729938964844
 11
45.08160859375
 21
43.6820388183594
 72
 1
 10
45.08160859375
 20
43.6820388183594
 11
45.10783125
 21
43.0024782714843
 72
 1
 10
45.10783125
 20
43.0024782714843
 11
45.14253828125
 21
42.2610192871094
 72
 1
 10
45.14253828125
 20
42.2610192871094
 11
45.1843
 21
41.4843688964843
 72
 1
 10
45.1843
 20
41.4843688964843
 11
45.23168671875
 21
40.6992341308593
 72
 1
 10
45.23168671875
 20
40.6992341308593
 11
45.28326875
 21
39.9323220214844
 72
 1
 10
45.28326875
 20
39.9323220214844
 11
45.33761640625
 21
39.2103395996094
 72
 1
 10
45.33761640625
 20
39.2103395996094
 11
45.3933
 21
38.5599938964844
 72
 1
 10
45.3933
 20
38.5599938964844
 11
45.218602734375
 21
39.1519606933594
 72
 1
 10
45.218602734375
 20
39.1519606933594
 11
45.009159375
 21
39.8007282714844
 72
 1
 10
45.009159375
 20
39.8007282714844
 11
44.766692578125
 21
40.4985974121094
 72
 1
 10
44.766692578125
 20
40.4985974121094
 11
44.492925
 21
41.2378688964844
 72
 1
 10
44.492925
 20
41.2378688964844
 11
44.189579296875
 21
42.0108435058594
 72
 1
 10
44.189579296875
 20
42.0108435058594
 11
43.858378125
 21
42.8098220214844
 72
 1
 10
43.858378125
 20
42.8098220214844
 11
43.501044140625
 21
43.6271052246094
 72
 1
 10
43.501044140625
 20
43.6271052246094
 11
43.1193
 21
44.4549938964844
 72
 1
 10
43.1193
 20
44.4549938964844
 11
39.1443
 21
52.7669938964844
 72
 1
 10
39.1443
 20
52.7669938964844
 11
34.5073
 21
52.7669938964844
 72
 1
 10
34.5073
 20
52.7669938964844
 11
34.5073
 21
31.9819938964844
 97
 1
 330
35E
 75
 0
 76
 1
 98
 1
 10
 0.0
 20
 0.0
 0
HATCH
 5
35F
100
AcDbEntity
 8
Layer22
100
AcDbHatch
 10
 0.0
 20
 0.0
 30
 0.0
 210
 0.0
 220
 0.0
 230
 1.0
 2
SOLID
 70
 1
 71
 1
 91
1              
 92
 0
 93
12             
 72
 1
 10
51.4614
 20
52.7671938964844
 11
51.4614
 21
31.9821938964844
 72
 1
 10
51.4614
 20
31.9821938964844
 11
63.5754
 21
31.9821938964844
 72
 1
 10
63.5754
 20
31.9821938964844
 11
63.5754
 21
35.5721938964844
 72
 1
 10
63.5754
 20
35.5721938964844
 11
55.7104
 21
35.5721938964844
 72
 1
 10
55.7104
 20
35.5721938964844
 11
55.7104
 21
41.1321938964844
 72
 1
 10
55.7104
 20
41.1321938964844
 11
61.6004
 21
41.1321938964844
 72
 1
 10
61.6004
 20
41.1321938964844
 11
61.6004
 21
44.5441938964844
 72
 1
 10
61.6004
 20
44.5441938964844
 11
55.6484
 21
44.5441938964844
 72
 1
 10
55.6484
 20
44.5441938964844
 11
55.6484
 21
49.3571938964844
 72
 1
 10
55.6484
 20
49.3571938964844
 11
62.7664
 21
49.3571938964844
 72
 1
 10
62.7664
 20
49.3571938964844
 11
63.3054
 21
52.7671938964844
 72
 1
 10
63.3054
 20
52.7671938964844
 11
51.4614
 21
52.7671938964844
 97
 1
 330
360
 75
 0
 76
 1
 98
 1
 10
 0.0
 20
 0.0
 0
HATCH
 5
361
100
AcDbEntity
 8
Layer22
100
AcDbHatch
 10
 0.0
 20
 0.0
 30
 0.0
 210
 0.0
 220
 0.0
 230
 1.0
 2
SOLID
 70
 1
 71
 1
 91
1              
 92
 0
 93
49             
 72
 1
 10
65.1284
 20
31.9819938964844
 11
69.3454
 21
31.9819938964844
 72
 1
 10
69.3454
 20
31.9819938964844
 11
70.0634
 21
42.8389938964844
 72
 1
 10
70.0634
 20
42.8389938964844
 11
70.09506796875
 21
43.3154001464844
 72
 1
 10
70.09506796875
 20
43.3154001464844
 11
70.12380625
 21
43.7829938964844
 72
 1
 10
70.12380625
 20
43.7829938964844
 11
70.14921640625
 21
44.2438376464844
 72
 1
 10
70.14921640625
 20
44.2438376464844
 11
70.1709
 21
44.6999938964844
 72
 1
 10
70.1709
 20
44.6999938964844
 11
70.18845859375
 21
45.1535251464844
 72
 1
 10
70.18845859375
 20
45.1535251464844
 11
70.20149375
 21
45.6064938964844
 72
 1
 10
70.20149375
 20
45.6064938964844
 11
70.20960703125
 21
46.0609626464844
 72
 1
 10
70.20960703125
 20
46.0609626464844
 11
70.2124
 21
46.5189938964844
 72
 1
 10
70.2124
 20
46.5189938964844
 11
74.0114
 21
31.9819938964844
 72
 1
 10
74.0114
 20
31.9819938964844
 11
77.6914
 21
31.9819938964844
 72
 1
 10
77.6914
 20
31.9819938964844
 11
78.945175390625
 21
36.3476345214844
 72
 1
 10
78.945175390625
 20
36.3476345214844
 11
79.890290625
 21
39.6429313964844
 72
 1
 10
79.890290625
 20
39.6429313964844
 11
80.574054296875
 21
42.0368220214843
 72
 1
 10
80.574054296875
 20
42.0368220214843
 11
81.043775
 21
43.6982438964844
 72
 1
 10
81.043775
 20
43.6982438964844
 11
81.346761328125
 21
44.7961345214844
 72
 1
 10
81.346761328125
 20
44.7961345214844
 11
81.530321875
 21
45.4994313964843
 72
 1
 10
81.530321875
 20
45.4994313964843
 11
81.641765234375
 21
45.9770720214843
 72
 1
 10
81.641765234375
 20
45.9770720214843
 11
81.7284
 21
46.3979938964844
 72
 1
 10
81.7284
 20
46.3979938964844
 11
81.76952109375
 21
45.4607263183594
 72
 1
 10
81.76952109375
 20
45.4607263183594
 11
81.87793125
 21
43.6784782714844
 72
 1
 10
81.87793125
 20
43.6784782714844
 11
82.03120078125
 21
41.3502067871094
 72
 1
 10
82.03120078125
 20
41.3502067871094
 11
82.2069
 21
38.7748688964844
 72
 1
 10
82.2069
 20
38.7748688964844
 11
82.38259921875
 21
36.2514216308594
 72
 1
 10
82.38259921875
 20
36.2514216308594
 11
82.53586875
 21
34.0788220214844
 72
 1
 10
82.53586875
 20
34.0788220214844
 11
82.64427890625
 21
32.5560270996094
 72
 1
 10
82.64427890625
 20
32.5560270996094
 11
82.6854
 21
31.9819938964844
 72
 1
 10
82.6854
 20
31.9819938964844
 11
86.8124
 21
31.9819938964844
 72
 1
 10
86.8124
 20
31.9819938964844
 11
84.9584
 21
52.7669938964844
 72
 1
 10
84.9584
 20
52.7669938964844
 11
79.4844
 21
52.7669938964844
 72
 1
 10
79.4844
 20
52.7669938964844
 11
78.378562109375
 21
48.6382517089844
 72
 1
 10
78.378562109375
 20
48.6382517089844
 11
77.545009375
 21
45.5224313964844
 72
 1
 10
77.545009375
 20
45.5224313964844
 11
76.942058203125
 21
43.2603923339843
 72
 1
 10
76.942058203125
 20
43.2603923339843
 11
76.528025
 21
41.6929938964844
 72
 1
 10
76.528025
 20
41.6929938964844
 11
76.261226171875
 21
40.6610954589844
 72
 1
 10
76.261226171875
 20
40.6610954589844
 11
76.099978125
 21
40.0055563964843
 72
 1
 10
76.099978125
 20
40.0055563964843
 11
76.002597265625
 21
39.5672360839844
 72
 1
 10
76.002597265625
 20
39.5672360839844
 11
75.9274
 21
39.1869938964844
 72
 1
 10
75.9274
 20
39.1869938964844
 11
75.727534765625
 21
40.0800134277343
 72
 1
 10
75.727534765625
 20
40.0800134277343
 11
75.313228125
 21
41.7636501464843
 72
 1
 10
75.313228125
 20
41.7636501464843
 11
74.758788671875
 21
43.9575212402344
 72
 1
 10
74.758788671875
 20
43.9575212402344
 11
74.138525
 21
46.3812438964844
 72
 1
 10
74.138525
 20
46.3812438964844
 11
73.526745703125
 21
48.7544353027344
 72
 1
 10
73.526745703125
 20
48.7544353027344
 11
72.997759375
 21
50.7967126464844
 72
 1
 10
72.997759375
 20
50.7967126464844
 11
72.625874609375
 21
52.2276931152344
 72
 1
 10
72.625874609375
 20
52.2276931152344
 11
72.4854
 21
52.7669938964844
 72
 1
 10
72.4854
 20
52.7669938964844
 11
67.0734
 21
52.7669938964844
 72
 1
 10
67.0734
 20
52.7669938964844
 11
65.1284
 21
31.9819938964844
 97
 1
 330
362
 75
 0
 76
 1
 98
 1
 10
 0.0
 20
 0.0
 0
HATCH
 5
363
100
AcDbEntity
 8
Layer22
100
AcDbHatch
 10
 0.0
 20
 0.0
 30
 0.0
 210
 0.0
 220
 0.0
 230
 1.0
 2
SOLID
 70
 1
 71
 1
 91
2              
 92
 0
 93
56             
 72
 1
 10
100.7012
 20
47.1753938964844
 11
100.826772265625
 21
46.7207630371094
 72
 1
 10
100.826772265625
 20
46.7207630371094
 11
100.935715625
 21
46.2295345214844
 72
 1
 10
100.935715625
 20
46.2295345214844
 11
101.027994921875
 21
45.6989544433593
 72
 1
 10
101.027994921875
 20
45.6989544433593
 11
101.103575
 21
45.1262688964844
 72
 1
 10
101.103575
 20
45.1262688964844
 11
101.162420703125
 21
44.5087239746094
 72
 1
 10
101.162420703125
 20
44.5087239746094
 11
101.204496875
 21
43.8435657714844
 72
 1
 10
101.204496875
 20
43.8435657714844
 11
101.229768359375
 21
43.1280403808594
 72
 1
 10
101.229768359375
 20
43.1280403808594
 11
101.2382
 21
42.3593938964844
 72
 1
 10
101.2382
 20
42.3593938964844
 11
101.179936328125
 21
40.5177747558594
 72
 1
 10
101.179936328125
 20
40.5177747558594
 11
101.001590625
 21
38.9544407714844
 72
 1
 10
101.001590625
 20
38.9544407714844
 11
100.697830859375
 21
37.6593020996094
 72
 1
 10
100.697830859375
 20
37.6593020996094
 11
100.263325
 21
36.6222688964844
 72
 1
 10
100.263325
 20
36.6222688964844
 11
99.692741015625
 21
35.8332513183594
 72
 1
 10
99.692741015625
 20
35.8332513183594
 11
98.980746875
 21
35.2821595214843
 72
 1
 10
98.980746875
 20
35.2821595214843
 11
98.122010546875
 21
34.9589036621094
 72
 1
 10
98.122010546875
 20
34.9589036621094
 11
97.1112
 21
34.8533938964844
 72
 1
 10
97.1112
 20
34.8533938964844
 11
96.74845390625
 21
34.8645579589844
 72
 1
 10
96.74845390625
 20
34.8645579589844
 11
96.39998125
 21
34.8980813964844
 72
 1
 10
96.39998125
 20
34.8980813964844
 11
96.06618046875
 21
34.9540110839844
 72
 1
 10
96.06618046875
 20
34.9540110839844
 11
95.74745
 21
35.0323938964844
 72
 1
 10
95.74745
 20
35.0323938964844
 11
95.44418828125
 21
35.1332767089844
 72
 1
 10
95.44418828125
 20
35.1332767089844
 11
95.15679375
 21
35.2567063964843
 72
 1
 10
95.15679375
 20
35.2567063964843
 11
94.88566484375
 21
35.4027298339844
 72
 1
 10
94.88566484375
 20
35.4027298339844
 11
94.6312
 21
35.5713938964844
 72
 1
 10
94.6312
 20
35.5713938964844
 11
94.198506640625
 21
35.9791478027344
 72
 1
 10
94.198506640625
 20
35.9791478027344
 11
93.822403125
 21
36.5086126464844
 72
 1
 10
93.822403125
 20
36.5086126464844
 11
93.503229296875
 21
37.1608431152343
 72
 1
 10
93.503229296875
 20
37.1608431152343
 11
93.241325
 21
37.9368938964844
 72
 1
 10
93.241325
 20
37.9368938964844
 11
93.037030078125
 21
38.8378196777343
 72
 1
 10
93.037030078125
 20
38.8378196777343
 11
92.890684375
 21
39.8646751464843
 72
 1
 10
92.890684375
 20
39.8646751464843
 11
92.802627734375
 21
41.0185149902343
 72
 1
 10
92.802627734375
 20
41.0185149902343
 11
92.7732
 21
42.3003938964844
 72
 1
 10
92.7732
 20
42.3003938964844
 11
92.788780078125
 21
43.2105540527344
 72
 1
 10
92.788780078125
 20
43.2105540527344
 11
92.835965625
 21
44.0586751464843
 72
 1
 10
92.835965625
 20
44.0586751464843
 11
92.915424609375
 21
44.8472181152343
 72
 1
 10
92.915424609375
 20
44.8472181152343
 11
93.027825
 21
45.5786438964844
 72
 1
 10
93.027825
 20
45.5786438964844
 11
93.173834765625
 21
46.2554134277344
 72
 1
 10
93.173834765625
 20
46.2554134277344
 11
93.354121875
 21
46.8799876464843
 72
 1
 10
93.354121875
 20
46.8799876464843
 11
93.569354296875
 21
47.4548274902344
 72
 1
 10
93.569354296875
 20
47.4548274902344
 11
93.8202
 21
47.9823938964844
 72
 1
 10
93.8202
 20
47.9823938964844
 11
94.065057421875
 21
48.3785989746094
 72
 1
 10
94.065057421875
 20
48.3785989746094
 11
94.367934375
 21
48.7344095214844
 72
 1
 10
94.367934375
 20
48.7344095214844
 11
94.722537890625
 21
49.0459935058594
 72
 1
 10
94.722537890625
 20
49.0459935058594
 11
95.122575
 21
49.3095188964844
 72
 1
 10
95.122575
 20
49.3095188964844
 11
95.561752734375
 21
49.5211536621094
 72
 1
 10
95.561752734375
 20
49.5211536621094
 11
96.033778125
 21
49.6770657714844
 72
 1
 10
96.033778125
 20
49.6770657714844
 11
96.532358203125
 21
49.7734231933594
 72
 1
 10
96.532358203125
 20
49.7734231933594
 11
97.0512
 21
49.8063938964844
 72
 1
 10
97.0512
 20
49.8063938964844
 11
97.83024296875
 21
49.7363685058594
 72
 1
 10
97.83024296875
 20
49.7363685058594
 11
98.50941875
 21
49.5428157714844
 72
 1
 10
98.50941875
 20
49.5428157714844
 11
99.09254765625
 21
49.2505208496094
 72
 1
 10
99.09254765625
 20
49.2505208496094
 11
99.58345
 21
48.8842688964843
 72
 1
 10
99.58345
 20
48.8842688964843
 11
99.98594609375
 21
48.4688450683593
 72
 1
 10
99.98594609375
 20
48.4688450683593
 11
100.30385625
 21
48.0290345214843
 72
 1
 10
100.30385625
 20
48.0290345214843
 11
100.54100078125
 21
47.5896224121094
 72
 1
 10
100.54100078125
 20
47.5896224121094
 11
100.7012
 21
47.1753938964844
 97
 1
 330
364
 92
 0
 93
56             
 72
 1
 10
92.8052
 20
52.0213938964844
 11
91.752713671875
 21
51.3159700683594
 72
 1
 10
91.752713671875
 20
51.3159700683594
 11
90.821434375
 21
50.4401907714844
 72
 1
 10
90.821434375
 20
50.4401907714844
 11
90.017256640625
 21
49.4064192871094
 72
 1
 10
90.017256640625
 20
49.4064192871094
 11
89.346075
 21
48.2270188964844
 72
 1
 10
89.346075
 20
48.2270188964844
 11
88.813783984375
 21
46.9143528808594
 72
 1
 10
88.813783984375
 20
46.9143528808594
 11
88.426278125
 21
45.4807845214843
 72
 1
 10
88.426278125
 20
45.4807845214843
 11
88.189451953125
 21
43.9386770996093
 72
 1
 10
88.189451953125
 20
43.9386770996093
 11
88.1092
 21
42.3003938964844
 72
 1
 10
88.1092
 20
42.3003938964844
 11
88.1469734375
 21
41.1763821777344
 72
 1
 10
88.1469734375
 20
41.1763821777344
 11
88.260075
 21
40.0939251464844
 72
 1
 10
88.260075
 20
40.0939251464844
 11
88.4481765625
 21
39.0550149902343
 72
 1
 10
88.4481765625
 20
39.0550149902343
 11
88.71095
 21
38.0616438964843
 72
 1
 10
88.71095
 20
38.0616438964843
 11
89.0480671875
 21
37.1158040527344
 72
 1
 10
89.0480671875
 20
37.1158040527344
 11
89.4592
 21
36.2194876464844
 72
 1
 10
89.4592
 20
36.2194876464844
 11
89.9440203125
 21
35.3746868652344
 72
 1
 10
89.9440203125
 20
35.3746868652344
 11
90.5022
 21
34.5833938964844
 72
 1
 10
90.5022
 20
34.5833938964844
 11
91.118619921875
 21
33.8654329589843
 72
 1
 10
91.118619921875
 20
33.8654329589843
 11
91.784996875
 21
33.2555188964844
 72
 1
 10
91.784996875
 20
33.2555188964844
 11
92.509006640625
 21
32.7498548339844
 72
 1
 10
92.509006640625
 20
32.7498548339844
 11
93.298325
 21
32.3446438964844
 72
 1
 10
93.298325
 20
32.3446438964844
 11
94.160627734375
 21
32.0360892089844
 72
 1
 10
94.160627734375
 20
32.0360892089844
 11
95.103590625
 21
31.8203938964844
 72
 1
 10
95.103590625
 20
31.8203938964844
 11
96.134889453125
 21
31.6937610839844
 72
 1
 10
96.134889453125
 20
31.6937610839844
 11
97.2622
 21
31.6523938964844
 72
 1
 10
97.2622
 20
31.6523938964844
 11
97.88710625
 21
31.6653821777344
 72
 1
 10
97.88710625
 20
31.6653821777344
 11
98.46645
 21
31.7054876464844
 72
 1
 10
98.46645
 20
31.7054876464844
 11
99.00791875
 21
31.7744212402343
 72
 1
 10
99.00791875
 20
31.7744212402343
 11
99.5192
 21
31.8738938964843
 72
 1
 10
99.5192
 20
31.8738938964843
 11
100.00798125
 21
32.0056165527344
 72
 1
 10
100.00798125
 20
32.0056165527344
 11
100.48195
 21
32.1713001464844
 72
 1
 10
100.48195
 20
32.1713001464844
 11
100.94879375
 21
32.3726556152344
 72
 1
 10
100.94879375
 20
32.3726556152344
 11
101.4162
 21
32.6113938964844
 72
 1
 10
101.4162
 20
32.6113938964844
 11
102.47518046875
 21
33.3231731933594
 72
 1
 10
102.47518046875
 20
33.3231731933594
 11
103.40429375
 21
34.1988157714844
 72
 1
 10
103.40429375
 20
34.1988157714844
 11
104.20004765625
 21
35.2309036621094
 72
 1
 10
104.20004765625
 20
35.2309036621094
 11
104.85895
 21
36.4120188964844
 72
 1
 10
104.85895
 20
36.4120188964844
 11
105.37750859375
 21
37.7347435058594
 72
 1
 10
105.37750859375
 20
37.7347435058594
 11
105.75223125
 21
39.1916595214844
 72
 1
 10
105.75223125
 20
39.1916595214844
 11
105.97962578125
 21
40.7753489746094
 72
 1
 10
105.97962578125
 20
40.7753489746094
 11
106.0562
 21
42.4783938964844
 72
 1
 10
106.0562
 20
42.4783938964844
 11
105.898783984375
 21
44.8043841308594
 72
 1
 10
105.898783984375
 20
44.8043841308594
 11
105.436621875
 21
46.8794407714844
 72
 1
 10
105.436621875
 20
46.8794407714844
 11
104.684842578125
 21
48.6853177246093
 72
 1
 10
104.684842578125
 20
48.6853177246093
 11
103.658575
 21
50.2037688964843
 72
 1
 10
103.658575
 20
50.2037688964843
 11
102.372948046875
 21
51.4165481933593
 72
 1
 10
102.372948046875
 20
51.4165481933593
 11
100.843090625
 21
52.3054095214843
 72
 1
 10
100.843090625
 20
52.3054095214843
 11
99.084131640625
 21
52.8521067871093
 72
 1
 10
99.084131640625
 20
52.8521067871093
 11
97.1112
 21
53.0383938964844
 72
 1
 10
97.1112
 20
53.0383938964844
 11
96.529924609375
 21
53.0216829589843
 72
 1
 10
96.529924609375
 20
53.0216829589843
 11
95.954496875
 21
52.9720188964844
 72
 1
 10
95.954496875
 20
52.9720188964844
 11
95.388139453125
 21
52.8901048339844
 72
 1
 10
95.388139453125
 20
52.8901048339844
 11
94.834075
 21
52.7766438964844
 72
 1
 10
94.834075
 20
52.7766438964844
 11
94.295526171875
 21
52.6323392089844
 72
 1
 10
94.295526171875
 20
52.6323392089844
 11
93.775715625
 21
52.4578938964843
 72
 1
 10
93.775715625
 20
52.4578938964843
 11
93.277866015625
 21
52.2540110839844
 72
 1
 10
93.277866015625
 20
52.2540110839844
 11
92.8052
 21
52.0213938964844
 97
 1
 330
365
 75
 0
 76
 1
 98
 1
 10
 0.0
 20
 0.0
 0
LINE
 5
366
100
AcDbEntity
 8
Layer8
100
AcDbLine
 39
0.25
 370
106
 10
434.6321
 20
357.653493896484
 30
0.0
 11
434.5171
 21
357.605493896484
 31
0.0
 0
LINE
 5
367
100
AcDbEntity
 8
Layer8
100
AcDbLine
 39
0.25
 370
106
 10
434.5171
 20
357.605493896484
 30
0.0
 11
434.4701
 21
357.491493896484
 31
0.0
 0
TEXT
 5
368
100
AcDbEntity
 8
Layer8
100
AcDbText
 40
8.8
 41
0.61000
 72
0
 50
-270
  1
18
  7
STANDARD
 10
42.3076
 20
154.772093896484
 30
0.0
 11
42.3076
 21
154.772093896484
 31
0.0
100
AcDbText
 73
  1
 0
TEXT
 5
369
100
AcDbEntity
 8
Layer8
100
AcDbText
 40
8.8
 41
0.61000
 72
0
 50
0
  1
26
  7
STANDARD
 10
96.7188
 20
282.625593896484
 30
0.0
 11
96.7188
 21
282.625593896484
 31
0.0
100
AcDbText
 73
  1
 0
TEXT
 5
36A
100
AcDbEntity
 8
Layer8
100
AcDbText
 40
8.8
 41
0.61000
 72
0
 50
-270
  1
16
  7
STANDARD
 10
38.3906
 20
325.079693896484
 30
0.0
 11
38.3906
 21
325.079693896484
 31
0.0
100
AcDbText
 73
  1
 0
TEXT
 5
36B
100
AcDbEntity
 8
Layer8
100
AcDbText
 40
8.8
 41
0.61000
 72
0
 50
-270
  1
30
  7
STANDARD
 10
270.8115
 20
112.624593896484
 30
0.0
 11
270.8115
 21
112.624593896484
 31
0.0
100
AcDbText
 73
  1
 0
TEXT
 5
36C
100
AcDbEntity
 8
Layer8
100
AcDbText
 40
8.8
 41
0.61000
 72
0
 50
0
  1
48
  7
STANDARD
 10
361.6211
 20
271.576793896484
 30
0.0
 11
361.6211
 21
271.576793896484
 31
0.0
100
AcDbText
 73
  1
 0
TEXT
 5
36D
100
AcDbEntity
 8
Layer8
100
AcDbText
 40
8.8
 41
0.61000
 72
0
 50
-270
  1
16
  7
STANDARD
 10
274.1964
 20
324.942993896484
 30
0.0
 11
274.1964
 21
324.942993896484
 31
0.0
100
AcDbText
 73
  1
  0
ENDSEC
  0
SECTION
  2
OBJECTS
  0
DICTIONARY
  5
19
100
AcDbDictionary
  3
ACAD_GROUP
350
1A
  3
ACAD_MLINESTYLE
350
1B
  0
DICTIONARY
  5
1A
102
{ACAD_REACTORS
330
19
102
}
100
AcDbDictionary
  0
DICTIONARY
  5
1B
102
{ACAD_REACTORS
330
19
102
}
100
AcDbDictionary
  3
STANDARD
350
1C
  0
MLINESTYLE
  5
1C
102
{ACAD_REACTORS
330
1B
102
}
100
AcDbMlineStyle
  2
STANDARD
 70
     0
  3

 62
     0
 51
90.0
 52
90.0
 71
     2
 49
0.5
 62
   256
  6
BYLAYER
 49
-0.5
 62
   256
  6
BYLAYER
  0
ENDSEC
  0
EOF
