 999
SCAN2CAD Date : 01/26/16
 999
SCAN2CAD ScalePixelX : 1
 999
SCAN2CAD ScalePixelY : 1
 999
SCAN2CAD TileXOffset : 0
 999
SCAN2CAD TileYOffset : 0
 999
SCAN2CAD MeasureType : 1
 999
SCAN2CAD DotsPerInch : 0
 999
SCAN2CAD GeScalePixX : 1
 999
SCAN2CAD GeScalePixY : 1
 999
SCAN2CAD GeRasTiePtX : 0
 999
SCAN2CAD GeRasTiePtY : 0
 999
SCAN2CAD ScalRasDist : 1
 999
SCAN2CAD ScalVecDist : 1
 999
SCAN2CAD ScalUnitTyp : 0
 999
SCAN2CAD ScalDistFac : 1
 999
SCAN2CAD ScalAdjustX : 1
 999
SCAN2CAD ScalAdjustY : 1
 999
SCAN2CAD MeasureMeth : 1
 999
SCAN2CAD OgDrawScale : 1
 999
SCAN2CAD OgDrawUType : 0
 999
SCAN2CAD ToDrawScale : 1
 999
SCAN2CAD ToDrawUType : 0
  0
SECTION
  2
HEADER
  9
$ACADVER
  1
AC1014
  9
$ACADMAINTVER
 70
     0
  9
$DWGCODEPAGE
  3
ANSI_1252
  9
$INSBASE
 10
0.0
 20
0.0
 30
0.0
 9
$EXTMIN
 10
25.773399999998
 20
12.4834224609375
 30
0.0
 9
$EXTMAX
 10
292.9569
 20
522.226922460937
 30
0.0
 9
$LIMMIN
 10
0
 20
0
 9
$LIMMAX
 10
322
 20
548
  9
$ORTHOMODE
 70
     0
  9
$REGENMODE
 70
     1
  9
$FILLMODE
 70
     1
  9
$QTEXTMODE
 70
     0
  9
$MIRRTEXT
 70
     1
  9
$DRAGMODE
 70
     2
  9
$LTSCALE
 40
1.0
  9
$OSMODE
 70
     0
  9
$ATTMODE
 70
     1
  9
$TEXTSIZE
 40
0.2
  9
$TRACEWID
 40
0.05
  9
$TEXTSTYLE
  7
STANDARD
  9
$CLAYER
  8
0
  9
$CELTYPE
  6
CONTINUOUS
  9
$CECOLOR
 62
   256
  9
$CELTSCALE
 40
1.0
  9
$DELOBJ
 70
     1
  9
$DISPSILH
 70
     0
  9
$DIMSCALE
 40
1.0
  9
$DIMASZ
 40
0.18
  9
$DIMEXO
 40
0.0625
  9
$DIMDLI
 40
0.38
  9
$DIMRND
 40
0.0
  9
$DIMDLE
 40
0.0
  9
$DIMEXE
 40
0.18
  9
$DIMTP
 40
0.0
  9
$DIMTM
 40
0.0
  9
$DIMTXT
 40
0.18
  9
$DIMCEN
 40
0.09
  9
$DIMTSZ
 40
0.0
  9
$DIMTOL
 70
     0
  9
$DIMLIM
 70
     0
  9
$DIMTIH
 70
     1
  9
$DIMTOH
 70
     1
  9
$DIMSE1
 70
     0
  9
$DIMSE2
 70
     0
  9
$DIMTAD
 70
     0
  9
$DIMZIN
 70
     0
  9
$DIMBLK
  1

  9
$DIMASO
 70
     1
  9
$DIMSHO
 70
     1
  9
$DIMPOST
  1

  9
$DIMAPOST
  1

  9
$DIMALT
 70
     0
  9
$DIMALTD
 70
     2
  9
$DIMALTF
 40
25.4
  9
$DIMLFAC
 40
1.0
  9
$DIMTOFL
 70
     0
  9
$DIMTVP
 40
0.0
  9
$DIMTIX
 70
     0
  9
$DIMSOXD
 70
     0
  9
$DIMSAH
 70
     0
  9
$DIMBLK1
  1

  9
$DIMBLK2
  1

  9
$DIMSTYLE
  2
STANDARD
  9
$DIMCLRD
 70
     0
  9
$DIMCLRE
 70
     0
  9
$DIMCLRT
 70
     0
  9
$DIMTFAC
 40
1.0
  9
$DIMGAP
 40
0.09
  9
$DIMJUST
 70
     0
  9
$DIMSD1
 70
     0
  9
$DIMSD2
 70
     0
  9
$DIMTOLJ
 70
     1
  9
$DIMTZIN
 70
     0
  9
$DIMALTZ
 70
     0
  9
$DIMALTTZ
 70
     0
  9
$DIMFIT
 70
     3
  9
$DIMUPT
 70
     0
  9
$DIMUNIT
 70
     2
  9
$DIMDEC
 70
     4
  9
$DIMTDEC
 70
     4
  9
$DIMALTU
 70
     2
  9
$DIMALTTD
 70
     2
  9
$DIMTXSTY
  7
STANDARD
  9
$DIMAUNIT
 70
     0
  9
$LUNITS
 70
     2
  9
$LUPREC
 70
     4
  9
$SKETCHINC
 40
0.1
  9
$FILLETRAD
 40
0.0
  9
$AUNITS
 70
     0
  9
$AUPREC
 70
     0
  9
$MENU
  1
acad
  9
$ELEVATION
 40
0.0
  9
$PELEVATION
 40
0.0
  9
$THICKNESS
 40
0.0
  9
$LIMCHECK
 70
     0
  9
$BLIPMODE
 70
     1
  9
$CHAMFERA
 40
0.0
  9
$CHAMFERB
 40
0.0
  9
$CHAMFERC
 40
0.0
  9
$CHAMFERD
 40
0.0
  9
$SKPOLY
 70
     0
  9
$TDCREATE
 40
0.000000000
  9
$TDUPDATE
 40
0.000000000
  9
$TDINDWG
 40
0.0000000000
  9
$TDUSRTIMER
 40
0.0000000000
  9
$USRTIMER
 70
     1
  9
$ANGBASE
 50
0.0
  9
$ANGDIR
 70
     0
  9
$PDMODE
 70
     0
  9
$PDSIZE
 40
0.0
  9
$PLINEWID
 40
0.0
  9
$COORDS
 70
     0
  9
$SPLFRAME
 70
     0
  9
$SPLINETYPE
 70
     6
  9
$SPLINESEGS
 70
     8
  9
$ATTDIA
 70
     0
  9
$ATTREQ
 70
     1
  9
$HANDLING
 70
     1
  9
$HANDSEED
  5
     523
  9
$SURFTAB1
 70
     6
  9
$SURFTAB2
 70
     6
  9
$SURFTYPE
 70
     6
  9
$SURFU
 70
     6
  9
$SURFV
 70
     6
  9
$UCSNAME
  2

  9
$UCSORG
 10
0.0
 20
0.0
 30
0.0
  9
$UCSXDIR
 10
1.0
 20
0.0
 30
0.0
  9
$UCSYDIR
 10
0.0
 20
1.0
 30
0.0
  9
$PUCSNAME
  2

  9
$PUCSORG
 10
0.0
 20
0.0
 30
0.0
  9
$PUCSXDIR
 10
1.0
 20
0.0
 30
0.0
  9
$PUCSYDIR
 10
0.0
 20
1.0
 30
0.0
  9
$USERI1
 70
     0
  9
$USERI2
 70
     0
  9
$USERI3
 70
     0
  9
$USERI4
 70
     0
  9
$USERI5
 70
     0
  9
$USERR1
 40
0.0
  9
$USERR2
 40
0.0
  9
$USERR3
 40
0.0
  9
$USERR4
 40
0.0
  9
$USERR5
 40
0.0
  9
$WORLDVIEW
 70
     1
  9
$SHADEDGE
 70
     3
  9
$SHADEDIF
 70
    70
  9
$TILEMODE
 70
     1
  9
$MAXACTVP
 70
    16
  9
$PINSBASE
 10
0.0
 20
0.0
 30
0.0
  9
$PLIMCHECK
 70
     0
 9
$PEXTMIN
 10
25.773399999998
 20
12.4834224609375
 30
0.0
 9
$PEXTMAX
 10
292.9569
 20
522.226922460937
 30
0.0
 9
$PLIMMIN
 10
0
 20
0
 9
$PLIMMAX
 10
322
 20
548
  9
$UNITMODE
 70
     0
  9
$VISRETAIN
 70
     0
  9
$PLINEGEN
 70
     1
  9
$PSLTSCALE
 70
     0
  9
$TREEDEPTH
 70
  3020
  9
$PICKSTYLE
 70
     1
  9
$CMLSTYLE
  2
STANDARD
  9
$CMLJUST
 70
     0
  9
$CMLSCALE
 40
1.0
  9
$PROXYGRAPHICS
 70
     0
  9
$MEASUREMENT
 70
     0
  0
ENDSEC
  0
SECTION
  2
CLASSES
  0
CLASS
  1
LWPOLYLINE
  2
AcDbPolyline
  3
"AutoCAD"
 90
        0
280
     0
281
     1
  0
CLASS
  1
IMAGE
  2
AcDbRasterImage
  3
ISM
 90
      127
280
     0
281
     1
  0
CLASS
  1
OLE2FRAME
  2
AcDbOle2Frame
  3
""
 90
        0
280
     0
281
     1
  0
CLASS
  1
HATCH
  2
AcDbHatch
  3
"ACAD_SEDONA"
 90
        0
280
     0
281
     1
  0
CLASS
  1
DICTIONARYVAR
  2
AcDbDictionaryVar
  3
"AutoCAD"
 90
        0
280
     0
281
     0
  0
CLASS
  1
RASTERVARIABLES
  2
AcDbRasterVariables
  3
ISM
 90
        0
280
     0
281
     0
  0
CLASS
  1
IMAGEDEF
  2
AcDbRasterImageDef
  3
ISM
 90
        0
280
     0
281
     0
  0
CLASS
  1
IMAGEDEF_REACTOR
  2
AcDbRasterImageDefReactor
  3
ISM
 90
        1
280
     0
281
     0
  0
CLASS
  1
IDBUFFER
  2
AcDbIdBuffer
  3
"Acad"
 90
        0
280
     0
281
     0
  0
CLASS
  1
SPATIAL_FILTER
  2
AcDbSpatialFilter
  3
"Acad"
 90
        0
280
     0
281
     0
  0
CLASS
  1
XRECORD
  2
AcDbXrecord
  3
"<Built In>"
 90
        0
280
     0
281
     0
  0
CLASS
  1
SORTENTSTABLE
  2
AcDbSortentsTable
  3
"AutoCAD"
 90
        0
280
     0
281
     0
  0
CLASS
  1
LAYER_INDEX
  2
AcDbLayerIndex
  3
"Acad"
 90
        0
280
     0
281
     0
  0
CLASS
  1
SPATIAL_INDEX
  2
AcDbSpatialIndex
  3
"Acad"
 90
        0
280
     0
281
     0
  0
CLASS
  1
OBJECT_PTR
  2
CAseDLPNTableRecord
  3
"ASE-LPNTableRecord"
 90
        1
280
     0
281
     0
  0
ENDSEC
  0
SECTION
  2
TABLES
  0
TABLE
  2
VPORT
  5
7
100
AcDbSymbolTable
 70
     1
  0
VPORT
  5
15
100
AcDbSymbolTableRecord
100
AcDbViewportTableRecord
 2
*ACTIVE
 70
     0
 10
0
 20
0
 11
1.0
 21
1.0
 12
0.0
 22
0.0
 13
0.0
 23
0.0
 14
1.0
 24
1.0
 15
0.0
 25
0.0
 16
0.0
 26
0.0
 36
1.0
 17
159.365149999999
 27
267.355172460937
 37
0.0
 40
513.7435
 41
0.527857773383025
 42
50.0
 43
0.0
 44
0.0
 50
0.0
 51
0.0
 71
     0
 72
   100
 73
     1
 74
     1
 75
     0
 76
     0
 77
     0
 78
     0
   0
ENDTAB
  0
TABLE
  2
LTYPE
  5
4
100
AcDbSymbolTable
 70
3
  0
LTYPE
  5
11
100
AcDbSymbolTableRecord
100
AcDbLinetypeTableRecord
  2
BYBLOCK
 70
     0
  3

 72
    65
 73
     0
 40
0.0
  0
LTYPE
  5
12
100
AcDbSymbolTableRecord
100
AcDbLinetypeTableRecord
  2
BYLAYER
 70
     0
  3

 72
    65
 73
     0
 40
0.0
  0
LTYPE
  5
80
330
5
100
AcDbSymbolTableRecord
100
AcDbLinetypeTableRecord
  2
CONTINUOUS
 70
     0
  3
Continuous
 72
    65
 73
     0
 40
0.0
  0
LTYPE
  5
81
330
5
100
AcDbSymbolTableRecord
100
AcDbLinetypeTableRecord
  2
DASH
 70
     0
  3
Dash
 72
    65
 73
     2
 40
48.0
 49
24.0
 74
     0
 49
-24.0
 74
     0
  0
LTYPE
  5
82
330
5
100
AcDbSymbolTableRecord
100
AcDbLinetypeTableRecord
  2
DASHDOT
 70
     0
  3
DashDot
 72
    65
 73
     4
 40
48.0
 49
24.0
 74
     0
 49
 -12.0
 74
     0
 49
0.0
 74
     0
 49
 -12.0
 74
     0	
  0
ENDTAB
  0
TABLE
  2
LAYER
  5
2
100
AcDbSymbolTable
 70
4              
  0
LAYER
  5
83
100
AcDbSymbolTableRecord
100
AcDbLayerTableRecord
  2
0
 70
     0
 62
     7
  6
CONTINUOUS
 0
LAYER
  5
84
100
AcDbSymbolTableRecord
100
AcDbLayerTableRecord
 2
Layer0
 70
 64
 62
 7
 6
CONTINUOUS
 0
LAYER
  5
85
100
AcDbSymbolTableRecord
100
AcDbLayerTableRecord
 2
Layer8
 70
 64
 62
 8
 6
CONTINUOUS
 0
LAYER
  5
86
100
AcDbSymbolTableRecord
100
AcDbLayerTableRecord
 2
Layer22
 70
 64
 62
 22
 6
CONTINUOUS
  0
ENDTAB
  0
TABLE
  2
STYLE
  5
3
100
AcDbSymbolTable
 70
1              
 0
STYLE
 5
17
100
AcDbSymbolTableRecord
100
AcDbTextStyleTableRecord
 2
STANDARD
 70
 0
 40
 0.0
 41
 1.0
 50
 0.0
 71
  0
 42
 8.0
 3
 txt
 4

  0
ENDTAB
  0
TABLE
  2
VIEW
  5
5
100
AcDbSymbolTable
 70
     0
  0
ENDTAB
  0
TABLE
  2
UCS
  5
6
100
AcDbSymbolTable
 70
     0
  0
ENDTAB
  0
TABLE
  2
APPID
  5
8
100
AcDbSymbolTable
 70
     1
  0
APPID
  5
16
100
AcDbSymbolTableRecord
100
AcDbRegAppTableRecord
  2
ACAD
 70
     0
  0
ENDTAB
  0
TABLE
  2
DIMSTYLE
  5
9
100
AcDbSymbolTable
 70
     1
  0
DIMSTYLE
105
18
100
AcDbSymbolTableRecord
100
AcDbDimStyleTableRecord
  2
STANDARD
 70
     0
  3

  4

  5

  6

  7

 40
1.0
 41
0.18
 42
0.0625
 43
0.38
 44
0.18
 45
0.0
 46
0.0
 47
0.0
 48
0.0
140
0.18
141
0.09
142
0.0
143
25.4
144
1.0
145
0.0
146
1.0
147
0.09
 71
     0
 72
     0
 73
     1
 74
     1
 75
     0
 76
     0
 77
     0
 78
     0
170
     0
171
     2
172
     0
173
     0
174
     0
175
     0
176
     0
177
     0
178
     0
270
     2
271
     4
272
     4
273
     2
274
     2
340
17
275
     0
280
     0
281
     0
282
     0
283
     1
284
     0
285
     0
286
     0
287
     0
288
     0
  0
ENDTAB
  0
TABLE
  2
BLOCK_RECORD
  5
1
100
AcDbSymbolTable
 70
     0
  0
BLOCK_RECORD
  5
A
100
AcDbSymbolTableRecord
100
AcDbBlockTableRecord
  2
*MODEL_SPACE
  0
BLOCK_RECORD
  5
B
100
AcDbSymbolTableRecord
100
AcDbBlockTableRecord
  2
*PAPER_SPACE
  0
ENDTAB
  0
ENDSEC
  0
SECTION
  2
BLOCKS
  0
BLOCK
  5
D
100
AcDbEntity
  8
0
100
AcDbBlockBegin
  2
*MODEL_SPACE
 70
     0
 10
0.0
 20
0.0
 30
0.0
  3
*MODEL_SPACE
  1

  0
ENDBLK
  5
E
100
AcDbEntity
  8
0
100
AcDbBlockEnd
  0
BLOCK
  5
F
100
AcDbEntity
 67
     1
  8
0
100
AcDbBlockBegin
  2
*PAPER_SPACE
 70
     0
 10
0.0
 20
0.0
 30
0.0
  3
*PAPER_SPACE
  1

  0
ENDBLK
  5
10
100
AcDbEntity
 67
     1
  8
0
100
AcDbBlockEnd
 0
ENDSEC
 0
SECTION
 2
ENTITIES
 0
LINE
 5
87
100
AcDbEntity
 8
Layer8
100
AcDbLine
 39
0.25
 370
106
 10
31.9145
 20
419.533722460938
 30
0.0
 11
38.5045
 21
419.533722460938
 31
0.0
 0
LINE
 5
88
100
AcDbEntity
 8
Layer8
100
AcDbLine
 39
0.25
 370
106
 10
31.9145
 20
440.065722460937
 30
0.0
 11
38.5045
 21
440.065722460937
 31
0.0
 0
LINE
 5
89
100
AcDbEntity
 8
Layer8
100
AcDbLine
 39
0.25
 370
106
 10
31.8683
 20
225.754522460937
 30
0.0
 11
38.4583
 21
225.754522460937
 31
0.0
 0
LINE
 5
8A
100
AcDbEntity
 8
Layer8
100
AcDbLine
 39
0.25
 370
106
 10
31.8683
 20
349.816522460938
 30
0.0
 11
38.4583
 21
349.816522460938
 31
0.0
 0
LINE
 5
8B
100
AcDbEntity
 8
Layer8
100
AcDbLine
 39
0.25
 370
106
 10
70.2259
 20
175.564422460938
 30
0.0
 11
70.2259
 21
168.974422460937
 31
0.0
 0
LWPOLYLINE
 5
8C
100
AcDbEntity
 8
Layer8
100
AcDbPolyline
 39
0.25
 370
106
 90
5              
 70
 1
 43
0.0
 10
76.726
 20
431.574022460938
 10
71.732
 20
431.574022460938
 10
71.732
 20
440.010022460937
 10
76.726
 20
440.010022460937
 10
76.726
 20
431.574022460938
 0
LWPOLYLINE
 5
8D
100
AcDbEntity
 8
Layer8
100
AcDbPolyline
 39
0.25
 370
106
 90
5              
 70
 1
 43
0.0
 10
76.726
 20
431.574022460938
 10
71.732
 20
431.574022460938
 10
71.732
 20
440.010022460937
 10
76.726
 20
440.010022460937
 10
76.726
 20
431.574022460938
 0
LWPOLYLINE
 5
8E
100
AcDbEntity
 8
Layer8
100
AcDbPolyline
 39
0.25
 370
106
 90
5              
 70
 1
 43
0.0
 10
130.677
 20
431.823022460938
 10
125.685
 20
431.823022460938
 10
125.685
 20
440.012022460938
 10
130.677
 20
440.012022460938
 10
130.677
 20
431.823022460938
 0
LWPOLYLINE
 5
8F
100
AcDbEntity
 8
Layer8
100
AcDbPolyline
 39
0.25
 370
106
 90
5              
 70
 1
 43
0.0
 10
130.677
 20
431.823022460938
 10
125.685
 20
431.823022460938
 10
125.685
 20
440.012022460938
 10
130.677
 20
440.012022460938
 10
130.677
 20
431.823022460938
 0
LWPOLYLINE
 5
90
100
AcDbEntity
 8
Layer8
100
AcDbPolyline
 39
0.25
 370
106
 90
5              
 70
 1
 43
0.0
 10
130.677
 20
431.574022460938
 10
125.685
 20
431.574022460938
 10
125.685
 20
431.634022460938
 10
130.677
 20
431.634022460938
 10
130.677
 20
431.574022460938
 0
LWPOLYLINE
 5
91
100
AcDbEntity
 8
Layer8
100
AcDbPolyline
 39
0.25
 370
106
 90
5              
 70
 1
 43
0.0
 10
130.677
 20
431.574022460938
 10
125.685
 20
431.574022460938
 10
125.685
 20
431.634022460938
 10
130.677
 20
431.634022460938
 10
130.677
 20
431.574022460938
 0
LWPOLYLINE
 5
92
100
AcDbEntity
 8
Layer8
100
AcDbPolyline
 39
0.25
 370
106
 90
5              
 70
 1
 43
0.0
 10
184.628
 20
431.823022460938
 10
179.636
 20
431.823022460938
 10
179.636
 20
440.012022460938
 10
184.628
 20
440.012022460938
 10
184.628
 20
431.823022460938
 0
LWPOLYLINE
 5
93
100
AcDbEntity
 8
Layer8
100
AcDbPolyline
 39
0.25
 370
106
 90
5              
 70
 1
 43
0.0
 10
184.628
 20
431.823022460938
 10
179.636
 20
431.823022460938
 10
179.636
 20
440.012022460938
 10
184.628
 20
440.012022460938
 10
184.628
 20
431.823022460938
 0
LWPOLYLINE
 5
94
100
AcDbEntity
 8
Layer8
100
AcDbPolyline
 39
0.25
 370
106
 90
5              
 70
 1
 43
0.0
 10
238.559
 20
431.823022460938
 10
233.565
 20
431.823022460938
 10
233.565
 20
440.012022460938
 10
238.559
 20
440.012022460938
 10
238.559
 20
431.823022460938
 0
LWPOLYLINE
 5
95
100
AcDbEntity
 8
Layer8
100
AcDbPolyline
 39
0.25
 370
106
 90
5              
 70
 1
 43
0.0
 10
238.559
 20
431.823022460938
 10
233.565
 20
431.823022460938
 10
233.565
 20
440.012022460938
 10
238.559
 20
440.012022460938
 10
238.559
 20
431.823022460938
 0
LWPOLYLINE
 5
96
100
AcDbEntity
 8
Layer8
100
AcDbPolyline
 39
0.25
 370
106
 90
5              
 70
 1
 43
0.0
 10
292.382
 20
431.574022460938
 10
287.39
 20
431.574022460938
 10
287.39
 20
440.010022460937
 10
292.382
 20
440.010022460937
 10
292.382
 20
431.574022460938
 0
LWPOLYLINE
 5
97
100
AcDbEntity
 8
Layer8
100
AcDbPolyline
 39
0.25
 370
106
 90
5              
 70
 1
 43
0.0
 10
292.382
 20
431.574022460938
 10
287.39
 20
431.574022460938
 10
287.39
 20
440.010022460937
 10
292.382
 20
440.010022460937
 10
292.382
 20
431.574022460938
 0
LINE
 5
98
100
AcDbEntity
 8
Layer8
100
AcDbLine
 39
0.25
 370
106
 10
292.9569
 20
175.564422460938
 30
0.0
 11
292.9569
 21
168.974422460937
 31
0.0
 0
LINE
 5
99
100
AcDbEntity
 8
Layer8
100
AcDbLine
 39
0.25
 370
106
 10
76.9149
 20
431.399422460938
 30
0.0
 11
77.2499
 21
431.162422460937
 31
0.0
 0
LINE
 5
9A
100
AcDbEntity
 8
Layer8
100
AcDbLine
 39
0.25
 370
106
 10
77.2499
 20
431.162422460937
 30
0.0
 11
77.4369
 21
429.746422460937
 31
0.0
 0
LINE
 5
9B
100
AcDbEntity
 8
Layer8
100
AcDbLine
 39
0.25
 370
106
 10
77.4369
 20
429.746422460937
 30
0.0
 11
77.2909
 21
428.607422460937
 31
0.0
 0
LINE
 5
9C
100
AcDbEntity
 8
Layer8
100
AcDbLine
 39
0.25
 370
106
 10
77.2909
 20
428.607422460937
 30
0.0
 11
125.2209
 21
428.607422460937
 31
0.0
 0
LINE
 5
9D
100
AcDbEntity
 8
Layer8
100
AcDbLine
 39
0.25
 370
106
 10
125.2209
 20
428.607422460937
 30
0.0
 11
125.0749
 21
429.746422460937
 31
0.0
 0
LINE
 5
9E
100
AcDbEntity
 8
Layer8
100
AcDbLine
 39
0.25
 370
106
 10
125.0749
 20
429.746422460937
 30
0.0
 11
125.2629
 21
431.162422460937
 31
0.0
 0
LINE
 5
9F
100
AcDbEntity
 8
Layer8
100
AcDbLine
 39
0.25
 370
106
 10
125.2629
 20
431.162422460937
 30
0.0
 11
125.5969
 21
431.399422460938
 31
0.0
 0
LINE
 5
A0
100
AcDbEntity
 8
Layer8
100
AcDbLine
 39
0.25
 370
106
 10
125.5969
 20
431.399422460938
 30
0.0
 11
130.7679
 21
431.399422460938
 31
0.0
 0
LINE
 5
A1
100
AcDbEntity
 8
Layer8
100
AcDbLine
 39
0.25
 370
106
 10
130.7679
 20
431.399422460938
 30
0.0
 11
131.0999
 21
431.162422460937
 31
0.0
 0
LINE
 5
A2
100
AcDbEntity
 8
Layer8
100
AcDbLine
 39
0.25
 370
106
 10
131.0999
 20
431.162422460937
 30
0.0
 11
131.2879
 21
429.746422460937
 31
0.0
 0
LINE
 5
A3
100
AcDbEntity
 8
Layer8
100
AcDbLine
 39
0.25
 370
106
 10
131.2879
 20
429.746422460937
 30
0.0
 11
131.1419
 21
428.607422460937
 31
0.0
 0
LINE
 5
A4
100
AcDbEntity
 8
Layer8
100
AcDbLine
 39
0.25
 370
106
 10
131.1419
 20
428.607422460937
 30
0.0
 11
179.0719
 21
428.607422460937
 31
0.0
 0
LINE
 5
A5
100
AcDbEntity
 8
Layer8
100
AcDbLine
 39
0.25
 370
106
 10
179.0719
 20
428.607422460937
 30
0.0
 11
178.9259
 21
429.746422460937
 31
0.0
 0
LINE
 5
A6
100
AcDbEntity
 8
Layer8
100
AcDbLine
 39
0.25
 370
106
 10
178.9259
 20
429.746422460937
 30
0.0
 11
179.1139
 21
431.162422460937
 31
0.0
 0
LINE
 5
A7
100
AcDbEntity
 8
Layer8
100
AcDbLine
 39
0.25
 370
106
 10
179.1139
 20
431.162422460937
 30
0.0
 11
179.4489
 21
431.399422460938
 31
0.0
 0
LINE
 5
A8
100
AcDbEntity
 8
Layer8
100
AcDbLine
 39
0.25
 370
106
 10
179.4489
 20
431.399422460938
 30
0.0
 11
179.4489
 21
431.633422460937
 31
0.0
 0
LINE
 5
A9
100
AcDbEntity
 8
Layer8
100
AcDbLine
 39
0.25
 370
106
 10
179.4489
 20
431.633422460937
 30
0.0
 11
76.9149
 21
431.633422460937
 31
0.0
 0
LINE
 5
AA
100
AcDbEntity
 8
Layer8
100
AcDbLine
 39
0.25
 370
106
 10
76.9149
 20
431.633422460937
 30
0.0
 11
76.9149
 21
431.399422460938
 31
0.0
 0
LINE
 5
AB
100
AcDbEntity
 8
Layer8
100
AcDbLine
 39
0.25
 370
106
 10
76.9149
 20
431.399422460938
 30
0.0
 11
77.2499
 21
431.162422460937
 31
0.0
 0
LINE
 5
AC
100
AcDbEntity
 8
Layer8
100
AcDbLine
 39
0.25
 370
106
 10
77.2499
 20
431.162422460937
 30
0.0
 11
77.4369
 21
429.746422460937
 31
0.0
 0
LINE
 5
AD
100
AcDbEntity
 8
Layer8
100
AcDbLine
 39
0.25
 370
106
 10
77.4369
 20
429.746422460937
 30
0.0
 11
77.2909
 21
428.607422460937
 31
0.0
 0
LINE
 5
AE
100
AcDbEntity
 8
Layer8
100
AcDbLine
 39
0.25
 370
106
 10
77.2909
 20
428.607422460937
 30
0.0
 11
125.2209
 21
428.607422460937
 31
0.0
 0
LINE
 5
AF
100
AcDbEntity
 8
Layer8
100
AcDbLine
 39
0.25
 370
106
 10
125.2209
 20
428.607422460937
 30
0.0
 11
125.0749
 21
429.746422460937
 31
0.0
 0
LINE
 5
B0
100
AcDbEntity
 8
Layer8
100
AcDbLine
 39
0.25
 370
106
 10
125.0749
 20
429.746422460937
 30
0.0
 11
125.2629
 21
431.162422460937
 31
0.0
 0
LINE
 5
B1
100
AcDbEntity
 8
Layer8
100
AcDbLine
 39
0.25
 370
106
 10
125.2629
 20
431.162422460937
 30
0.0
 11
125.5969
 21
431.399422460938
 31
0.0
 0
LINE
 5
B2
100
AcDbEntity
 8
Layer8
100
AcDbLine
 39
0.25
 370
106
 10
125.5969
 20
431.399422460938
 30
0.0
 11
130.7679
 21
431.399422460938
 31
0.0
 0
LINE
 5
B3
100
AcDbEntity
 8
Layer8
100
AcDbLine
 39
0.25
 370
106
 10
130.7679
 20
431.399422460938
 30
0.0
 11
131.0999
 21
431.162422460937
 31
0.0
 0
LINE
 5
B4
100
AcDbEntity
 8
Layer8
100
AcDbLine
 39
0.25
 370
106
 10
131.0999
 20
431.162422460937
 30
0.0
 11
131.2879
 21
429.746422460937
 31
0.0
 0
LINE
 5
B5
100
AcDbEntity
 8
Layer8
100
AcDbLine
 39
0.25
 370
106
 10
131.2879
 20
429.746422460937
 30
0.0
 11
131.1419
 21
428.607422460937
 31
0.0
 0
LINE
 5
B6
100
AcDbEntity
 8
Layer8
100
AcDbLine
 39
0.25
 370
106
 10
131.1419
 20
428.607422460937
 30
0.0
 11
179.0719
 21
428.607422460937
 31
0.0
 0
LINE
 5
B7
100
AcDbEntity
 8
Layer8
100
AcDbLine
 39
0.25
 370
106
 10
179.0719
 20
428.607422460937
 30
0.0
 11
178.9259
 21
429.746422460937
 31
0.0
 0
LINE
 5
B8
100
AcDbEntity
 8
Layer8
100
AcDbLine
 39
0.25
 370
106
 10
178.9259
 20
429.746422460937
 30
0.0
 11
179.1139
 21
431.162422460937
 31
0.0
 0
LINE
 5
B9
100
AcDbEntity
 8
Layer8
100
AcDbLine
 39
0.25
 370
106
 10
179.1139
 20
431.162422460937
 30
0.0
 11
179.4489
 21
431.399422460938
 31
0.0
 0
LINE
 5
BA
100
AcDbEntity
 8
Layer8
100
AcDbLine
 39
0.25
 370
106
 10
179.4489
 20
431.399422460938
 30
0.0
 11
179.4489
 21
431.633422460937
 31
0.0
 0
LINE
 5
BB
100
AcDbEntity
 8
Layer8
100
AcDbLine
 39
0.25
 370
106
 10
179.4489
 20
431.633422460937
 30
0.0
 11
76.9149
 21
431.633422460937
 31
0.0
 0
LINE
 5
BC
100
AcDbEntity
 8
Layer8
100
AcDbLine
 39
0.25
 370
106
 10
76.9149
 20
431.633422460937
 30
0.0
 11
76.9149
 21
431.399422460938
 31
0.0
 0
LINE
 5
BD
100
AcDbEntity
 8
Layer8
100
AcDbLine
 39
0.25
 370
106
 10
233.3757
 20
431.633422460937
 30
0.0
 11
233.3757
 21
431.399422460938
 31
0.0
 0
LINE
 5
BE
100
AcDbEntity
 8
Layer8
100
AcDbLine
 39
0.25
 370
106
 10
233.3757
 20
431.399422460938
 30
0.0
 11
233.0667
 21
431.162422460937
 31
0.0
 0
LINE
 5
BF
100
AcDbEntity
 8
Layer8
100
AcDbLine
 39
0.25
 370
106
 10
233.0667
 20
431.162422460937
 30
0.0
 11
232.8577
 21
429.745422460938
 31
0.0
 0
LINE
 5
C0
100
AcDbEntity
 8
Layer8
100
AcDbLine
 39
0.25
 370
106
 10
232.8577
 20
429.745422460938
 30
0.0
 11
233.0257
 21
428.564422460937
 31
0.0
 0
LINE
 5
C1
100
AcDbEntity
 8
Layer8
100
AcDbLine
 39
0.25
 370
106
 10
233.0257
 20
428.564422460937
 30
0.0
 11
228.1337
 21
428.564422460937
 31
0.0
 0
LINE
 5
C2
100
AcDbEntity
 8
Layer8
100
AcDbLine
 39
0.25
 370
106
 10
228.1337
 20
428.564422460937
 30
0.0
 11
185.1677
 21
428.603422460938
 31
0.0
 0
LINE
 5
C3
100
AcDbEntity
 8
Layer8
100
AcDbLine
 39
0.25
 370
106
 10
185.1677
 20
428.603422460938
 30
0.0
 11
185.3157
 21
429.745422460938
 31
0.0
 0
LINE
 5
C4
100
AcDbEntity
 8
Layer8
100
AcDbLine
 39
0.25
 370
106
 10
185.3157
 20
429.745422460938
 30
0.0
 11
185.1277
 21
431.162422460937
 31
0.0
 0
LINE
 5
C5
100
AcDbEntity
 8
Layer8
100
AcDbLine
 39
0.25
 370
106
 10
185.1277
 20
431.162422460937
 30
0.0
 11
184.8167
 21
431.399422460938
 31
0.0
 0
LINE
 5
C6
100
AcDbEntity
 8
Layer8
100
AcDbLine
 39
0.25
 370
106
 10
184.8167
 20
431.399422460938
 30
0.0
 11
184.8167
 21
431.633422460937
 31
0.0
 0
LINE
 5
C7
100
AcDbEntity
 8
Layer8
100
AcDbLine
 39
0.25
 370
106
 10
184.8167
 20
431.633422460937
 30
0.0
 11
233.3757
 21
431.633422460937
 31
0.0
 0
LINE
 5
C8
100
AcDbEntity
 8
Layer8
100
AcDbLine
 39
0.25
 370
106
 10
233.3757
 20
431.633422460937
 30
0.0
 11
233.3757
 21
431.399422460938
 31
0.0
 0
LINE
 5
C9
100
AcDbEntity
 8
Layer8
100
AcDbLine
 39
0.25
 370
106
 10
233.3757
 20
431.399422460938
 30
0.0
 11
233.0667
 21
431.162422460937
 31
0.0
 0
LINE
 5
CA
100
AcDbEntity
 8
Layer8
100
AcDbLine
 39
0.25
 370
106
 10
233.0667
 20
431.162422460937
 30
0.0
 11
232.8577
 21
429.745422460938
 31
0.0
 0
LINE
 5
CB
100
AcDbEntity
 8
Layer8
100
AcDbLine
 39
0.25
 370
106
 10
232.8577
 20
429.745422460938
 30
0.0
 11
233.0257
 21
428.564422460937
 31
0.0
 0
LINE
 5
CC
100
AcDbEntity
 8
Layer8
100
AcDbLine
 39
0.25
 370
106
 10
233.0257
 20
428.564422460937
 30
0.0
 11
228.1337
 21
428.564422460937
 31
0.0
 0
LINE
 5
CD
100
AcDbEntity
 8
Layer8
100
AcDbLine
 39
0.25
 370
106
 10
228.1337
 20
428.564422460937
 30
0.0
 11
185.1677
 21
428.603422460938
 31
0.0
 0
LINE
 5
CE
100
AcDbEntity
 8
Layer8
100
AcDbLine
 39
0.25
 370
106
 10
185.1677
 20
428.603422460938
 30
0.0
 11
185.3157
 21
429.745422460938
 31
0.0
 0
LINE
 5
CF
100
AcDbEntity
 8
Layer8
100
AcDbLine
 39
0.25
 370
106
 10
185.3157
 20
429.745422460938
 30
0.0
 11
185.1277
 21
431.162422460937
 31
0.0
 0
LINE
 5
D0
100
AcDbEntity
 8
Layer8
100
AcDbLine
 39
0.25
 370
106
 10
185.1277
 20
431.162422460937
 30
0.0
 11
184.8167
 21
431.399422460938
 31
0.0
 0
LINE
 5
D1
100
AcDbEntity
 8
Layer8
100
AcDbLine
 39
0.25
 370
106
 10
184.8167
 20
431.399422460938
 30
0.0
 11
184.8167
 21
431.633422460937
 31
0.0
 0
LINE
 5
D2
100
AcDbEntity
 8
Layer8
100
AcDbLine
 39
0.25
 370
106
 10
184.8167
 20
431.633422460937
 30
0.0
 11
233.3757
 21
431.633422460937
 31
0.0
 0
LWPOLYLINE
 5
D3
100
AcDbEntity
 8
Layer8
100
AcDbPolyline
 39
0.25
 370
106
 90
5              
 70
 1
 43
0.0
 10
76.789
 20
419.414022460937
 10
71.672
 20
419.414022460937
 10
71.672
 20
427.917022460937
 10
76.789
 20
427.917022460937
 10
76.789
 20
419.414022460937
 0
LWPOLYLINE
 5
D4
100
AcDbEntity
 8
Layer8
100
AcDbPolyline
 39
0.25
 370
106
 90
5              
 70
 1
 43
0.0
 10
76.789
 20
419.414022460937
 10
71.672
 20
419.414022460937
 10
71.672
 20
427.917022460937
 10
76.789
 20
427.917022460937
 10
76.789
 20
419.414022460937
 0
LINE
 5
D5
100
AcDbEntity
 8
Layer8
100
AcDbLine
 39
0.25
 370
106
 10
287.2003
 20
431.399422460938
 30
0.0
 11
286.8703
 21
431.162422460937
 31
0.0
 0
LINE
 5
D6
100
AcDbEntity
 8
Layer8
100
AcDbLine
 39
0.25
 370
106
 10
286.8703
 20
431.162422460937
 30
0.0
 11
286.6803
 21
429.745422460938
 31
0.0
 0
LINE
 5
D7
100
AcDbEntity
 8
Layer8
100
AcDbLine
 39
0.25
 370
106
 10
286.6803
 20
429.745422460938
 30
0.0
 11
286.8283
 21
428.603422460938
 31
0.0
 0
LINE
 5
D8
100
AcDbEntity
 8
Layer8
100
AcDbLine
 39
0.25
 370
106
 10
286.8283
 20
428.603422460938
 30
0.0
 11
239.1193
 21
428.564422460937
 31
0.0
 0
LINE
 5
D9
100
AcDbEntity
 8
Layer8
100
AcDbLine
 39
0.25
 370
106
 10
239.1193
 20
428.564422460937
 30
0.0
 11
239.2653
 21
429.745422460938
 31
0.0
 0
LINE
 5
DA
100
AcDbEntity
 8
Layer8
100
AcDbLine
 39
0.25
 370
106
 10
239.2653
 20
429.745422460938
 30
0.0
 11
239.0793
 21
431.162422460937
 31
0.0
 0
LINE
 5
DB
100
AcDbEntity
 8
Layer8
100
AcDbLine
 39
0.25
 370
106
 10
239.0793
 20
431.162422460937
 30
0.0
 11
238.7453
 21
431.399422460938
 31
0.0
 0
LINE
 5
DC
100
AcDbEntity
 8
Layer8
100
AcDbLine
 39
0.25
 370
106
 10
238.7453
 20
431.399422460938
 30
0.0
 11
238.7453
 21
431.633422460937
 31
0.0
 0
LINE
 5
DD
100
AcDbEntity
 8
Layer8
100
AcDbLine
 39
0.25
 370
106
 10
238.7453
 20
431.633422460937
 30
0.0
 11
287.2003
 21
431.633422460937
 31
0.0
 0
LINE
 5
DE
100
AcDbEntity
 8
Layer8
100
AcDbLine
 39
0.25
 370
106
 10
287.2003
 20
431.633422460937
 30
0.0
 11
287.2003
 21
431.399422460938
 31
0.0
 0
LINE
 5
DF
100
AcDbEntity
 8
Layer8
100
AcDbLine
 39
0.25
 370
106
 10
287.2003
 20
431.399422460938
 30
0.0
 11
286.8703
 21
431.162422460937
 31
0.0
 0
LINE
 5
E0
100
AcDbEntity
 8
Layer8
100
AcDbLine
 39
0.25
 370
106
 10
286.8703
 20
431.162422460937
 30
0.0
 11
286.6803
 21
429.745422460938
 31
0.0
 0
LINE
 5
E1
100
AcDbEntity
 8
Layer8
100
AcDbLine
 39
0.25
 370
106
 10
286.6803
 20
429.745422460938
 30
0.0
 11
286.8283
 21
428.603422460938
 31
0.0
 0
LINE
 5
E2
100
AcDbEntity
 8
Layer8
100
AcDbLine
 39
0.25
 370
106
 10
286.8283
 20
428.603422460938
 30
0.0
 11
251.3763
 21
428.564422460937
 31
0.0
 0
LINE
 5
E3
100
AcDbEntity
 8
Layer8
100
AcDbLine
 39
0.25
 370
106
 10
251.3763
 20
428.564422460937
 30
0.0
 11
239.1193
 21
428.564422460937
 31
0.0
 0
LINE
 5
E4
100
AcDbEntity
 8
Layer8
100
AcDbLine
 39
0.25
 370
106
 10
239.1193
 20
428.564422460937
 30
0.0
 11
239.2653
 21
429.745422460938
 31
0.0
 0
LINE
 5
E5
100
AcDbEntity
 8
Layer8
100
AcDbLine
 39
0.25
 370
106
 10
239.2653
 20
429.745422460938
 30
0.0
 11
239.0793
 21
431.162422460937
 31
0.0
 0
LINE
 5
E6
100
AcDbEntity
 8
Layer8
100
AcDbLine
 39
0.25
 370
106
 10
239.0793
 20
431.162422460937
 30
0.0
 11
238.7453
 21
431.399422460938
 31
0.0
 0
LINE
 5
E7
100
AcDbEntity
 8
Layer8
100
AcDbLine
 39
0.25
 370
106
 10
238.7453
 20
431.399422460938
 30
0.0
 11
238.7453
 21
431.633422460937
 31
0.0
 0
LINE
 5
E8
100
AcDbEntity
 8
Layer8
100
AcDbLine
 39
0.25
 370
106
 10
238.7453
 20
431.633422460937
 30
0.0
 11
287.2003
 21
431.633422460937
 31
0.0
 0
LINE
 5
E9
100
AcDbEntity
 8
Layer8
100
AcDbLine
 39
0.25
 370
106
 10
287.2003
 20
431.633422460937
 30
0.0
 11
287.2003
 21
431.399422460938
 31
0.0
 0
LINE
 5
EA
100
AcDbEntity
 8
Layer8
100
AcDbLine
 39
0.25
 370
106
 10
71.2481
 20
429.817522460937
 30
0.0
 11
71.4301
 21
431.159522460937
 31
0.0
 0
LINE
 5
EB
100
AcDbEntity
 8
Layer8
100
AcDbLine
 39
0.25
 370
106
 10
71.4301
 20
431.159522460937
 30
0.0
 11
71.7311
 21
431.384522460937
 31
0.0
 0
LINE
 5
EC
100
AcDbEntity
 8
Layer8
100
AcDbLine
 39
0.25
 370
106
 10
71.7311
 20
431.384522460937
 30
0.0
 11
76.7301
 21
431.384522460937
 31
0.0
 0
LINE
 5
ED
100
AcDbEntity
 8
Layer8
100
AcDbLine
 39
0.25
 370
106
 10
76.7301
 20
431.384522460937
 30
0.0
 11
77.0531
 21
431.159522460937
 31
0.0
 0
LINE
 5
EE
100
AcDbEntity
 8
Layer8
100
AcDbLine
 39
0.25
 370
106
 10
77.0531
 20
431.159522460937
 30
0.0
 11
77.2341
 21
429.817522460937
 31
0.0
 0
LINE
 5
EF
100
AcDbEntity
 8
Layer8
100
AcDbLine
 39
0.25
 370
106
 10
77.2341
 20
429.817522460937
 30
0.0
 11
71.2481
 21
429.817522460937
 31
0.0
 0
LINE
 5
F0
100
AcDbEntity
 8
Layer8
100
AcDbLine
 39
0.25
 370
106
 10
71.233
 20
429.817522460937
 30
0.0
 11
71.416
 21
431.159522460937
 31
0.0
 0
LINE
 5
F1
100
AcDbEntity
 8
Layer8
100
AcDbLine
 39
0.25
 370
106
 10
71.416
 20
431.159522460937
 30
0.0
 11
71.718
 21
431.384522460937
 31
0.0
 0
LINE
 5
F2
100
AcDbEntity
 8
Layer8
100
AcDbLine
 39
0.25
 370
106
 10
71.718
 20
431.384522460937
 30
0.0
 11
76.741
 21
431.384522460937
 31
0.0
 0
LINE
 5
F3
100
AcDbEntity
 8
Layer8
100
AcDbLine
 39
0.25
 370
106
 10
76.741
 20
431.384522460937
 30
0.0
 11
77.068
 21
431.159522460937
 31
0.0
 0
LINE
 5
F4
100
AcDbEntity
 8
Layer8
100
AcDbLine
 39
0.25
 370
106
 10
77.068
 20
431.159522460937
 30
0.0
 11
77.249
 21
429.817522460937
 31
0.0
 0
LINE
 5
F5
100
AcDbEntity
 8
Layer8
100
AcDbLine
 39
0.25
 370
106
 10
77.249
 20
429.817522460937
 30
0.0
 11
71.233
 21
429.817522460937
 31
0.0
 0
LINE
 5
F6
100
AcDbEntity
 8
Layer8
100
AcDbLine
 39
0.25
 370
106
 10
77.0924
 20
428.550022460938
 30
0.0
 11
77.0534
 21
428.271022460938
 31
0.0
 0
LINE
 5
F7
100
AcDbEntity
 8
Layer8
100
AcDbLine
 39
0.25
 370
106
 10
77.0534
 20
428.271022460938
 30
0.0
 11
76.7904
 21
428.104022460938
 31
0.0
 0
LINE
 5
F8
100
AcDbEntity
 8
Layer8
100
AcDbLine
 39
0.25
 370
106
 10
76.7904
 20
428.104022460938
 30
0.0
 11
71.6714
 21
428.104022460938
 31
0.0
 0
LINE
 5
F9
100
AcDbEntity
 8
Layer8
100
AcDbLine
 39
0.25
 370
106
 10
71.6714
 20
428.104022460938
 30
0.0
 11
71.4314
 21
428.271022460938
 31
0.0
 0
LINE
 5
FA
100
AcDbEntity
 8
Layer8
100
AcDbLine
 39
0.25
 370
106
 10
71.4314
 20
428.271022460938
 30
0.0
 11
71.2484
 21
429.629022460938
 31
0.0
 0
LINE
 5
FB
100
AcDbEntity
 8
Layer8
100
AcDbLine
 39
0.25
 370
106
 10
71.2484
 20
429.629022460938
 30
0.0
 11
77.2344
 21
429.629022460938
 31
0.0
 0
LINE
 5
FC
100
AcDbEntity
 8
Layer8
100
AcDbLine
 39
0.25
 370
106
 10
77.2344
 20
429.629022460938
 30
0.0
 11
77.0924
 21
428.550022460938
 31
0.0
 0
LWPOLYLINE
 5
FD
100
AcDbEntity
 8
Layer8
100
AcDbPolyline
 39
0.25
 370
106
 90
5              
 70
 1
 43
0.0
 10
130.74
 20
419.414022460937
 10
125.622
 20
419.414022460937
 10
125.622
 20
427.917022460937
 10
130.74
 20
427.917022460937
 10
130.74
 20
419.414022460937
 0
LWPOLYLINE
 5
FE
100
AcDbEntity
 8
Layer8
100
AcDbPolyline
 39
0.25
 370
106
 90
5              
 70
 1
 43
0.0
 10
130.74
 20
419.414022460937
 10
125.622
 20
419.414022460937
 10
125.622
 20
427.917022460937
 10
130.74
 20
427.917022460937
 10
130.74
 20
419.414022460937
 0
LINE
 5
FF
100
AcDbEntity
 8
Layer8
100
AcDbLine
 39
0.25
 370
106
 10
77.107
 20
428.550022460938
 30
0.0
 11
77.068
 21
428.271022460938
 31
0.0
 0
LINE
 5
100
100
AcDbEntity
 8
Layer8
100
AcDbLine
 39
0.25
 370
106
 10
77.068
 20
428.271022460938
 30
0.0
 11
76.803
 21
428.104022460938
 31
0.0
 0
LINE
 5
101
100
AcDbEntity
 8
Layer8
100
AcDbLine
 39
0.25
 370
106
 10
76.803
 20
428.104022460938
 30
0.0
 11
71.658
 21
428.104022460938
 31
0.0
 0
LINE
 5
102
100
AcDbEntity
 8
Layer8
100
AcDbLine
 39
0.25
 370
106
 10
71.658
 20
428.104022460938
 30
0.0
 11
71.416
 21
428.271022460938
 31
0.0
 0
LINE
 5
103
100
AcDbEntity
 8
Layer8
100
AcDbLine
 39
0.25
 370
106
 10
71.416
 20
428.271022460938
 30
0.0
 11
71.233
 21
429.629022460938
 31
0.0
 0
LINE
 5
104
100
AcDbEntity
 8
Layer8
100
AcDbLine
 39
0.25
 370
106
 10
71.233
 20
429.629022460938
 30
0.0
 11
77.249
 21
429.629022460938
 31
0.0
 0
LINE
 5
105
100
AcDbEntity
 8
Layer8
100
AcDbLine
 39
0.25
 370
106
 10
77.249
 20
429.629022460938
 30
0.0
 11
77.107
 21
428.550022460938
 31
0.0
 0
LINE
 5
106
100
AcDbEntity
 8
Layer8
100
AcDbLine
 39
0.25
 370
106
 10
125.178
 20
429.817522460937
 30
0.0
 11
125.361
 21
431.159522460937
 31
0.0
 0
LINE
 5
107
100
AcDbEntity
 8
Layer8
100
AcDbLine
 39
0.25
 370
106
 10
125.361
 20
431.159522460937
 30
0.0
 11
125.681
 21
431.384522460937
 31
0.0
 0
LINE
 5
108
100
AcDbEntity
 8
Layer8
100
AcDbLine
 39
0.25
 370
106
 10
125.681
 20
431.384522460937
 30
0.0
 11
130.682
 21
431.384522460937
 31
0.0
 0
LINE
 5
109
100
AcDbEntity
 8
Layer8
100
AcDbLine
 39
0.25
 370
106
 10
130.682
 20
431.384522460937
 30
0.0
 11
131.003
 21
431.159522460937
 31
0.0
 0
LINE
 5
10A
100
AcDbEntity
 8
Layer8
100
AcDbLine
 39
0.25
 370
106
 10
131.003
 20
431.159522460937
 30
0.0
 11
131.184
 21
429.817522460937
 31
0.0
 0
LINE
 5
10B
100
AcDbEntity
 8
Layer8
100
AcDbLine
 39
0.25
 370
106
 10
131.184
 20
429.817522460937
 30
0.0
 11
125.178
 21
429.817522460937
 31
0.0
 0
LINE
 5
10C
100
AcDbEntity
 8
Layer8
100
AcDbLine
 39
0.25
 370
106
 10
125.1641
 20
429.817522460937
 30
0.0
 11
125.3461
 21
431.159522460937
 31
0.0
 0
LINE
 5
10D
100
AcDbEntity
 8
Layer8
100
AcDbLine
 39
0.25
 370
106
 10
125.3461
 20
431.159522460937
 30
0.0
 11
125.6701
 21
431.384522460937
 31
0.0
 0
LINE
 5
10E
100
AcDbEntity
 8
Layer8
100
AcDbLine
 39
0.25
 370
106
 10
125.6701
 20
431.384522460937
 30
0.0
 11
130.6931
 21
431.384522460937
 31
0.0
 0
LINE
 5
10F
100
AcDbEntity
 8
Layer8
100
AcDbLine
 39
0.25
 370
106
 10
130.6931
 20
431.384522460937
 30
0.0
 11
131.0161
 21
431.159522460937
 31
0.0
 0
LINE
 5
110
100
AcDbEntity
 8
Layer8
100
AcDbLine
 39
0.25
 370
106
 10
131.0161
 20
431.159522460937
 30
0.0
 11
131.1991
 21
429.817522460937
 31
0.0
 0
LINE
 5
111
100
AcDbEntity
 8
Layer8
100
AcDbLine
 39
0.25
 370
106
 10
131.1991
 20
429.817522460937
 30
0.0
 11
125.1641
 21
429.817522460937
 31
0.0
 0
LINE
 5
112
100
AcDbEntity
 8
Layer8
100
AcDbLine
 39
0.25
 370
106
 10
131.042
 20
428.550022460938
 30
0.0
 11
131.003
 21
428.271022460938
 31
0.0
 0
LINE
 5
113
100
AcDbEntity
 8
Layer8
100
AcDbLine
 39
0.25
 370
106
 10
131.003
 20
428.271022460938
 30
0.0
 11
130.741
 21
428.104022460938
 31
0.0
 0
LINE
 5
114
100
AcDbEntity
 8
Layer8
100
AcDbLine
 39
0.25
 370
106
 10
130.741
 20
428.104022460938
 30
0.0
 11
125.621
 21
428.104022460938
 31
0.0
 0
LINE
 5
115
100
AcDbEntity
 8
Layer8
100
AcDbLine
 39
0.25
 370
106
 10
125.621
 20
428.104022460938
 30
0.0
 11
125.361
 21
428.271022460938
 31
0.0
 0
LINE
 5
116
100
AcDbEntity
 8
Layer8
100
AcDbLine
 39
0.25
 370
106
 10
125.361
 20
428.271022460938
 30
0.0
 11
125.178
 21
429.629022460938
 31
0.0
 0
LINE
 5
117
100
AcDbEntity
 8
Layer8
100
AcDbLine
 39
0.25
 370
106
 10
125.178
 20
429.629022460938
 30
0.0
 11
131.184
 21
429.629022460938
 31
0.0
 0
LINE
 5
118
100
AcDbEntity
 8
Layer8
100
AcDbLine
 39
0.25
 370
106
 10
131.184
 20
429.629022460938
 30
0.0
 11
131.042
 21
428.550022460938
 31
0.0
 0
LWPOLYLINE
 5
119
100
AcDbEntity
 8
Layer8
100
AcDbPolyline
 39
0.25
 370
106
 90
5              
 70
 1
 43
0.0
 10
184.69
 20
419.414022460937
 10
179.573
 20
419.414022460937
 10
179.573
 20
427.917022460937
 10
184.69
 20
427.917022460937
 10
184.69
 20
419.414022460937
 0
LWPOLYLINE
 5
11A
100
AcDbEntity
 8
Layer8
100
AcDbPolyline
 39
0.25
 370
106
 90
5              
 70
 1
 43
0.0
 10
184.69
 20
419.414022460937
 10
179.573
 20
419.414022460937
 10
179.573
 20
427.917022460937
 10
184.69
 20
427.917022460937
 10
184.69
 20
419.414022460937
 0
LINE
 5
11B
100
AcDbEntity
 8
Layer8
100
AcDbLine
 39
0.25
 370
106
 10
131.0571
 20
428.550022460938
 30
0.0
 11
131.0161
 21
428.271022460938
 31
0.0
 0
LINE
 5
11C
100
AcDbEntity
 8
Layer8
100
AcDbLine
 39
0.25
 370
106
 10
131.0161
 20
428.271022460938
 30
0.0
 11
130.7551
 21
428.104022460938
 31
0.0
 0
LINE
 5
11D
100
AcDbEntity
 8
Layer8
100
AcDbLine
 39
0.25
 370
106
 10
130.7551
 20
428.104022460938
 30
0.0
 11
125.6081
 21
428.104022460938
 31
0.0
 0
LINE
 5
11E
100
AcDbEntity
 8
Layer8
100
AcDbLine
 39
0.25
 370
106
 10
125.6081
 20
428.104022460938
 30
0.0
 11
125.3461
 21
428.271022460938
 31
0.0
 0
LINE
 5
11F
100
AcDbEntity
 8
Layer8
100
AcDbLine
 39
0.25
 370
106
 10
125.3461
 20
428.271022460938
 30
0.0
 11
125.1641
 21
429.629022460938
 31
0.0
 0
LINE
 5
120
100
AcDbEntity
 8
Layer8
100
AcDbLine
 39
0.25
 370
106
 10
125.1641
 20
429.629022460938
 30
0.0
 11
131.1991
 21
429.629022460938
 31
0.0
 0
LINE
 5
121
100
AcDbEntity
 8
Layer8
100
AcDbLine
 39
0.25
 370
106
 10
131.1991
 20
429.629022460938
 30
0.0
 11
131.0571
 21
428.550022460938
 31
0.0
 0
LINE
 5
122
100
AcDbEntity
 8
Layer8
100
AcDbLine
 39
0.25
 370
106
 10
179.1279
 20
429.817522460937
 30
0.0
 11
179.3089
 21
431.180522460937
 31
0.0
 0
LINE
 5
123
100
AcDbEntity
 8
Layer8
100
AcDbLine
 39
0.25
 370
106
 10
179.3089
 20
431.180522460937
 30
0.0
 11
179.6339
 21
431.408522460937
 31
0.0
 0
LINE
 5
124
100
AcDbEntity
 8
Layer8
100
AcDbLine
 39
0.25
 370
106
 10
179.6339
 20
431.408522460937
 30
0.0
 11
179.6339
 21
431.633522460937
 31
0.0
 0
LINE
 5
125
100
AcDbEntity
 8
Layer8
100
AcDbLine
 39
0.25
 370
106
 10
179.6339
 20
431.633522460937
 30
0.0
 11
184.6309
 21
431.633522460937
 31
0.0
 0
LINE
 5
126
100
AcDbEntity
 8
Layer8
100
AcDbLine
 39
0.25
 370
106
 10
184.6309
 20
431.633522460937
 30
0.0
 11
184.6309
 21
431.408522460937
 31
0.0
 0
LINE
 5
127
100
AcDbEntity
 8
Layer8
100
AcDbLine
 39
0.25
 370
106
 10
184.6309
 20
431.408522460937
 30
0.0
 11
184.9329
 21
431.180522460937
 31
0.0
 0
LINE
 5
128
100
AcDbEntity
 8
Layer8
100
AcDbLine
 39
0.25
 370
106
 10
184.9329
 20
431.180522460937
 30
0.0
 11
185.1139
 21
429.817522460937
 31
0.0
 0
LINE
 5
129
100
AcDbEntity
 8
Layer8
100
AcDbLine
 39
0.25
 370
106
 10
185.1139
 20
429.817522460937
 30
0.0
 11
179.1279
 21
429.817522460937
 31
0.0
 0
LINE
 5
12A
100
AcDbEntity
 8
Layer8
100
AcDbLine
 39
0.25
 370
106
 10
179.1125
 20
429.817522460937
 30
0.0
 11
179.2955
 21
431.180522460937
 31
0.0
 0
LINE
 5
12B
100
AcDbEntity
 8
Layer8
100
AcDbLine
 39
0.25
 370
106
 10
179.2955
 20
431.180522460937
 30
0.0
 11
179.6215
 21
431.408522460937
 31
0.0
 0
LINE
 5
12C
100
AcDbEntity
 8
Layer8
100
AcDbLine
 39
0.25
 370
106
 10
179.6215
 20
431.408522460937
 30
0.0
 11
179.6215
 21
431.633522460937
 31
0.0
 0
LINE
 5
12D
100
AcDbEntity
 8
Layer8
100
AcDbLine
 39
0.25
 370
106
 10
179.6215
 20
431.633522460937
 30
0.0
 11
184.6435
 21
431.633522460937
 31
0.0
 0
LINE
 5
12E
100
AcDbEntity
 8
Layer8
100
AcDbLine
 39
0.25
 370
106
 10
184.6435
 20
431.633522460937
 30
0.0
 11
184.6435
 21
431.408522460937
 31
0.0
 0
LINE
 5
12F
100
AcDbEntity
 8
Layer8
100
AcDbLine
 39
0.25
 370
106
 10
184.6435
 20
431.408522460937
 30
0.0
 11
184.9475
 21
431.180522460937
 31
0.0
 0
LINE
 5
130
100
AcDbEntity
 8
Layer8
100
AcDbLine
 39
0.25
 370
106
 10
184.9475
 20
431.180522460937
 30
0.0
 11
185.1285
 21
429.817522460937
 31
0.0
 0
LINE
 5
131
100
AcDbEntity
 8
Layer8
100
AcDbLine
 39
0.25
 370
106
 10
185.1285
 20
429.817522460937
 30
0.0
 11
179.1125
 21
429.817522460937
 31
0.0
 0
LINE
 5
132
100
AcDbEntity
 8
Layer8
100
AcDbLine
 39
0.25
 370
106
 10
184.9719
 20
428.550022460938
 30
0.0
 11
184.9329
 21
428.271022460938
 31
0.0
 0
LINE
 5
133
100
AcDbEntity
 8
Layer8
100
AcDbLine
 39
0.25
 370
106
 10
184.9329
 20
428.271022460938
 30
0.0
 11
184.6909
 21
428.104022460938
 31
0.0
 0
LINE
 5
134
100
AcDbEntity
 8
Layer8
100
AcDbLine
 39
0.25
 370
106
 10
184.6909
 20
428.104022460938
 30
0.0
 11
179.5699
 21
428.104022460938
 31
0.0
 0
LINE
 5
135
100
AcDbEntity
 8
Layer8
100
AcDbLine
 39
0.25
 370
106
 10
179.5699
 20
428.104022460938
 30
0.0
 11
179.3089
 21
428.271022460938
 31
0.0
 0
LINE
 5
136
100
AcDbEntity
 8
Layer8
100
AcDbLine
 39
0.25
 370
106
 10
179.3089
 20
428.271022460938
 30
0.0
 11
179.1279
 21
429.629022460938
 31
0.0
 0
LINE
 5
137
100
AcDbEntity
 8
Layer8
100
AcDbLine
 39
0.25
 370
106
 10
179.1279
 20
429.629022460938
 30
0.0
 11
185.1139
 21
429.629022460938
 31
0.0
 0
LINE
 5
138
100
AcDbEntity
 8
Layer8
100
AcDbLine
 39
0.25
 370
106
 10
185.1139
 20
429.629022460938
 30
0.0
 11
184.9719
 21
428.550022460938
 31
0.0
 0
LWPOLYLINE
 5
139
100
AcDbEntity
 8
Layer8
100
AcDbPolyline
 39
0.25
 370
106
 90
5              
 70
 1
 43
0.0
 10
238.618
 20
419.414022460937
 10
233.501
 20
419.414022460937
 10
233.501
 20
427.917022460937
 10
238.618
 20
427.917022460937
 10
238.618
 20
419.414022460937
 0
LWPOLYLINE
 5
13A
100
AcDbEntity
 8
Layer8
100
AcDbPolyline
 39
0.25
 370
106
 90
5              
 70
 1
 43
0.0
 10
238.618
 20
419.414022460937
 10
233.501
 20
419.414022460937
 10
233.501
 20
427.917022460937
 10
238.618
 20
427.917022460937
 10
238.618
 20
419.414022460937
 0
LINE
 5
13B
100
AcDbEntity
 8
Layer8
100
AcDbLine
 39
0.25
 370
106
 10
184.9865
 20
428.550022460938
 30
0.0
 11
184.9475
 21
428.271022460938
 31
0.0
 0
LINE
 5
13C
100
AcDbEntity
 8
Layer8
100
AcDbLine
 39
0.25
 370
106
 10
184.9475
 20
428.271022460938
 30
0.0
 11
184.7035
 21
428.104022460938
 31
0.0
 0
LINE
 5
13D
100
AcDbEntity
 8
Layer8
100
AcDbLine
 39
0.25
 370
106
 10
184.7035
 20
428.104022460938
 30
0.0
 11
179.5585
 21
428.104022460938
 31
0.0
 0
LINE
 5
13E
100
AcDbEntity
 8
Layer8
100
AcDbLine
 39
0.25
 370
106
 10
179.5585
 20
428.104022460938
 30
0.0
 11
179.2955
 21
428.271022460938
 31
0.0
 0
LINE
 5
13F
100
AcDbEntity
 8
Layer8
100
AcDbLine
 39
0.25
 370
106
 10
179.2955
 20
428.271022460938
 30
0.0
 11
179.1125
 21
429.629022460938
 31
0.0
 0
LINE
 5
140
100
AcDbEntity
 8
Layer8
100
AcDbLine
 39
0.25
 370
106
 10
179.1125
 20
429.629022460938
 30
0.0
 11
185.1285
 21
429.629022460938
 31
0.0
 0
LINE
 5
141
100
AcDbEntity
 8
Layer8
100
AcDbLine
 39
0.25
 370
106
 10
185.1285
 20
429.629022460938
 30
0.0
 11
184.9865
 21
428.550022460938
 31
0.0
 0
LINE
 5
142
100
AcDbEntity
 8
Layer8
100
AcDbLine
 39
0.25
 370
106
 10
233.0601
 20
429.817522460937
 30
0.0
 11
233.2621
 21
431.180522460937
 31
0.0
 0
LINE
 5
143
100
AcDbEntity
 8
Layer8
100
AcDbLine
 39
0.25
 370
106
 10
233.2621
 20
431.180522460937
 30
0.0
 11
233.5611
 21
431.408522460937
 31
0.0
 0
LINE
 5
144
100
AcDbEntity
 8
Layer8
100
AcDbLine
 39
0.25
 370
106
 10
233.5611
 20
431.408522460937
 30
0.0
 11
233.5611
 21
431.633522460937
 31
0.0
 0
LINE
 5
145
100
AcDbEntity
 8
Layer8
100
AcDbLine
 39
0.25
 370
106
 10
233.5611
 20
431.633522460937
 30
0.0
 11
238.5621
 21
431.633522460937
 31
0.0
 0
LINE
 5
146
100
AcDbEntity
 8
Layer8
100
AcDbLine
 39
0.25
 370
106
 10
238.5621
 20
431.633522460937
 30
0.0
 11
238.5621
 21
431.408522460937
 31
0.0
 0
LINE
 5
147
100
AcDbEntity
 8
Layer8
100
AcDbLine
 39
0.25
 370
106
 10
238.5621
 20
431.408522460937
 30
0.0
 11
238.8831
 21
431.180522460937
 31
0.0
 0
LINE
 5
148
100
AcDbEntity
 8
Layer8
100
AcDbLine
 39
0.25
 370
106
 10
238.8831
 20
431.180522460937
 30
0.0
 11
239.0641
 21
429.817522460937
 31
0.0
 0
LINE
 5
149
100
AcDbEntity
 8
Layer8
100
AcDbLine
 39
0.25
 370
106
 10
239.0641
 20
429.817522460937
 30
0.0
 11
233.0601
 21
429.817522460937
 31
0.0
 0
LINE
 5
14A
100
AcDbEntity
 8
Layer8
100
AcDbLine
 39
0.25
 370
106
 10
233.0436
 20
429.817522460937
 30
0.0
 11
233.2466
 21
431.180522460937
 31
0.0
 0
LINE
 5
14B
100
AcDbEntity
 8
Layer8
100
AcDbLine
 39
0.25
 370
106
 10
233.2466
 20
431.180522460937
 30
0.0
 11
233.5476
 21
431.408522460937
 31
0.0
 0
LINE
 5
14C
100
AcDbEntity
 8
Layer8
100
AcDbLine
 39
0.25
 370
106
 10
233.5476
 20
431.408522460937
 30
0.0
 11
233.5476
 21
431.633522460937
 31
0.0
 0
LINE
 5
14D
100
AcDbEntity
 8
Layer8
100
AcDbLine
 39
0.25
 370
106
 10
233.5476
 20
431.633522460937
 30
0.0
 11
238.5726
 21
431.633522460937
 31
0.0
 0
LINE
 5
14E
100
AcDbEntity
 8
Layer8
100
AcDbLine
 39
0.25
 370
106
 10
238.5726
 20
431.633522460937
 30
0.0
 11
238.5726
 21
431.408522460937
 31
0.0
 0
LINE
 5
14F
100
AcDbEntity
 8
Layer8
100
AcDbLine
 39
0.25
 370
106
 10
238.5726
 20
431.408522460937
 30
0.0
 11
238.8956
 21
431.180522460937
 31
0.0
 0
LINE
 5
150
100
AcDbEntity
 8
Layer8
100
AcDbLine
 39
0.25
 370
106
 10
238.8956
 20
431.180522460937
 30
0.0
 11
239.0786
 21
429.817522460937
 31
0.0
 0
LINE
 5
151
100
AcDbEntity
 8
Layer8
100
AcDbLine
 39
0.25
 370
106
 10
239.0786
 20
429.817522460937
 30
0.0
 11
233.0436
 21
429.817522460937
 31
0.0
 0
LINE
 5
152
100
AcDbEntity
 8
Layer8
100
AcDbLine
 39
0.25
 370
106
 10
238.9224
 20
428.514022460938
 30
0.0
 11
238.8834
 21
428.271022460938
 31
0.0
 0
LINE
 5
153
100
AcDbEntity
 8
Layer8
100
AcDbLine
 39
0.25
 370
106
 10
238.8834
 20
428.271022460938
 30
0.0
 11
238.6204
 21
428.104022460938
 31
0.0
 0
LINE
 5
154
100
AcDbEntity
 8
Layer8
100
AcDbLine
 39
0.25
 370
106
 10
238.6204
 20
428.104022460938
 30
0.0
 11
233.5014
 21
428.104022460938
 31
0.0
 0
LINE
 5
155
100
AcDbEntity
 8
Layer8
100
AcDbLine
 39
0.25
 370
106
 10
233.5014
 20
428.104022460938
 30
0.0
 11
233.2624
 21
428.271022460938
 31
0.0
 0
LINE
 5
156
100
AcDbEntity
 8
Layer8
100
AcDbLine
 39
0.25
 370
106
 10
233.2624
 20
428.271022460938
 30
0.0
 11
233.0604
 21
429.629022460938
 31
0.0
 0
LINE
 5
157
100
AcDbEntity
 8
Layer8
100
AcDbLine
 39
0.25
 370
106
 10
233.0604
 20
429.629022460938
 30
0.0
 11
239.0644
 21
429.629022460938
 31
0.0
 0
LINE
 5
158
100
AcDbEntity
 8
Layer8
100
AcDbLine
 39
0.25
 370
106
 10
239.0644
 20
429.629022460938
 30
0.0
 11
238.9224
 21
428.514022460938
 31
0.0
 0
LWPOLYLINE
 5
159
100
AcDbEntity
 8
Layer8
100
AcDbPolyline
 39
0.25
 370
106
 90
5              
 70
 1
 43
0.0
 10
292.446
 20
419.414022460937
 10
287.328
 20
419.414022460937
 10
287.328
 20
427.917022460937
 10
292.446
 20
427.917022460937
 10
292.446
 20
419.414022460937
 0
LWPOLYLINE
 5
15A
100
AcDbEntity
 8
Layer8
100
AcDbPolyline
 39
0.25
 370
106
 90
5              
 70
 1
 43
0.0
 10
292.446
 20
419.414022460937
 10
287.328
 20
419.414022460937
 10
287.328
 20
427.917022460937
 10
292.446
 20
427.917022460937
 10
292.446
 20
419.414022460937
 0
LINE
 5
15B
100
AcDbEntity
 8
Layer8
100
AcDbLine
 39
0.25
 370
106
 10
238.9366
 20
428.514022460938
 30
0.0
 11
238.8956
 21
428.271022460938
 31
0.0
 0
LINE
 5
15C
100
AcDbEntity
 8
Layer8
100
AcDbLine
 39
0.25
 370
106
 10
238.8956
 20
428.271022460938
 30
0.0
 11
238.6326
 21
428.104022460938
 31
0.0
 0
LINE
 5
15D
100
AcDbEntity
 8
Layer8
100
AcDbLine
 39
0.25
 370
106
 10
238.6326
 20
428.104022460938
 30
0.0
 11
233.4876
 21
428.104022460938
 31
0.0
 0
LINE
 5
15E
100
AcDbEntity
 8
Layer8
100
AcDbLine
 39
0.25
 370
106
 10
233.4876
 20
428.104022460938
 30
0.0
 11
233.2466
 21
428.271022460938
 31
0.0
 0
LINE
 5
15F
100
AcDbEntity
 8
Layer8
100
AcDbLine
 39
0.25
 370
106
 10
233.2466
 20
428.271022460938
 30
0.0
 11
233.0436
 21
429.629022460938
 31
0.0
 0
LINE
 5
160
100
AcDbEntity
 8
Layer8
100
AcDbLine
 39
0.25
 370
106
 10
233.0436
 20
429.629022460938
 30
0.0
 11
239.0786
 21
429.629022460938
 31
0.0
 0
LINE
 5
161
100
AcDbEntity
 8
Layer8
100
AcDbLine
 39
0.25
 370
106
 10
239.0786
 20
429.629022460938
 30
0.0
 11
238.9366
 21
428.514022460938
 31
0.0
 0
LINE
 5
162
100
AcDbEntity
 8
Layer8
100
AcDbLine
 39
0.25
 370
106
 10
286.8818
 20
429.817522460937
 30
0.0
 11
287.0668
 21
431.159522460937
 31
0.0
 0
LINE
 5
163
100
AcDbEntity
 8
Layer8
100
AcDbLine
 39
0.25
 370
106
 10
287.0668
 20
431.159522460937
 30
0.0
 11
287.3858
 21
431.384522460937
 31
0.0
 0
LINE
 5
164
100
AcDbEntity
 8
Layer8
100
AcDbLine
 39
0.25
 370
106
 10
287.3858
 20
431.384522460937
 30
0.0
 11
292.3838
 21
431.384522460937
 31
0.0
 0
LINE
 5
165
100
AcDbEntity
 8
Layer8
100
AcDbLine
 39
0.25
 370
106
 10
292.3838
 20
431.384522460937
 30
0.0
 11
292.6858
 21
431.159522460937
 31
0.0
 0
LINE
 5
166
100
AcDbEntity
 8
Layer8
100
AcDbLine
 39
0.25
 370
106
 10
292.6858
 20
431.159522460937
 30
0.0
 11
292.8858
 21
429.817522460937
 31
0.0
 0
LINE
 5
167
100
AcDbEntity
 8
Layer8
100
AcDbLine
 39
0.25
 370
106
 10
292.8858
 20
429.817522460937
 30
0.0
 11
286.8818
 21
429.817522460937
 31
0.0
 0
LINE
 5
168
100
AcDbEntity
 8
Layer8
100
AcDbLine
 39
0.25
 370
106
 10
286.8675
 20
429.817522460937
 30
0.0
 11
287.0515
 21
431.159522460937
 31
0.0
 0
LINE
 5
169
100
AcDbEntity
 8
Layer8
100
AcDbLine
 39
0.25
 370
106
 10
287.0515
 20
431.159522460937
 30
0.0
 11
287.3725
 21
431.384522460937
 31
0.0
 0
LINE
 5
16A
100
AcDbEntity
 8
Layer8
100
AcDbLine
 39
0.25
 370
106
 10
287.3725
 20
431.384522460937
 30
0.0
 11
292.3965
 21
431.384522460937
 31
0.0
 0
LINE
 5
16B
100
AcDbEntity
 8
Layer8
100
AcDbLine
 39
0.25
 370
106
 10
292.3965
 20
431.384522460937
 30
0.0
 11
292.7005
 21
431.159522460937
 31
0.0
 0
LINE
 5
16C
100
AcDbEntity
 8
Layer8
100
AcDbLine
 39
0.25
 370
106
 10
292.7005
 20
431.159522460937
 30
0.0
 11
292.9025
 21
429.817522460937
 31
0.0
 0
LINE
 5
16D
100
AcDbEntity
 8
Layer8
100
AcDbLine
 39
0.25
 370
106
 10
292.9025
 20
429.817522460937
 30
0.0
 11
286.8675
 21
429.817522460937
 31
0.0
 0
LINE
 5
16E
100
AcDbEntity
 8
Layer8
100
AcDbLine
 39
0.25
 370
106
 10
292.6843
 20
428.271022460938
 30
0.0
 11
292.4453
 21
428.104022460938
 31
0.0
 0
LINE
 5
16F
100
AcDbEntity
 8
Layer8
100
AcDbLine
 39
0.25
 370
106
 10
292.4453
 20
428.104022460938
 30
0.0
 11
287.3253
 21
428.104022460938
 31
0.0
 0
LINE
 5
170
100
AcDbEntity
 8
Layer8
100
AcDbLine
 39
0.25
 370
106
 10
287.3253
 20
428.104022460938
 30
0.0
 11
287.0653
 21
428.271022460938
 31
0.0
 0
LINE
 5
171
100
AcDbEntity
 8
Layer8
100
AcDbLine
 39
0.25
 370
106
 10
287.0653
 20
428.271022460938
 30
0.0
 11
286.8823
 21
429.629022460938
 31
0.0
 0
LINE
 5
172
100
AcDbEntity
 8
Layer8
100
AcDbLine
 39
0.25
 370
106
 10
286.8823
 20
429.629022460938
 30
0.0
 11
292.8863
 21
429.629022460938
 31
0.0
 0
LINE
 5
173
100
AcDbEntity
 8
Layer8
100
AcDbLine
 39
0.25
 370
106
 10
292.8863
 20
429.629022460938
 30
0.0
 11
292.6843
 21
428.271022460938
 31
0.0
 0
LINE
 5
174
100
AcDbEntity
 8
Layer8
100
AcDbLine
 39
0.25
 370
106
 10
292.7005
 20
428.271022460938
 30
0.0
 11
292.4595
 21
428.104022460938
 31
0.0
 0
LINE
 5
175
100
AcDbEntity
 8
Layer8
100
AcDbLine
 39
0.25
 370
106
 10
292.4595
 20
428.104022460938
 30
0.0
 11
287.3135
 21
428.104022460938
 31
0.0
 0
LINE
 5
176
100
AcDbEntity
 8
Layer8
100
AcDbLine
 39
0.25
 370
106
 10
287.3135
 20
428.104022460938
 30
0.0
 11
287.0515
 21
428.271022460938
 31
0.0
 0
LINE
 5
177
100
AcDbEntity
 8
Layer8
100
AcDbLine
 39
0.25
 370
106
 10
287.0515
 20
428.271022460938
 30
0.0
 11
286.8675
 21
429.629022460938
 31
0.0
 0
LINE
 5
178
100
AcDbEntity
 8
Layer8
100
AcDbLine
 39
0.25
 370
106
 10
286.8675
 20
429.629022460938
 30
0.0
 11
292.9025
 21
429.629022460938
 31
0.0
 0
LINE
 5
179
100
AcDbEntity
 8
Layer8
100
AcDbLine
 39
0.25
 370
106
 10
292.9025
 20
429.629022460938
 30
0.0
 11
292.7005
 21
428.271022460938
 31
0.0
 0
LINE
 5
17A
100
AcDbEntity
 8
Layer8
100
AcDbLine
 39
0.25
 370
106
 10
262.5869
 20
431.641822460937
 30
0.0
 11
262.5869
 21
489.947822460937
 31
0.0
 0
LINE
 5
17B
100
AcDbEntity
 8
Layer8
100
AcDbLine
 39
0.25
 370
106
 10
101.1879
 20
431.481822460938
 30
0.0
 11
101.1879
 21
489.948822460937
 31
0.0
 0
LINE
 5
17C
100
AcDbEntity
 8
Layer8
100
AcDbLine
 39
0.25
 370
106
 10
101.1879
 20
431.481822460938
 30
0.0
 11
101.1879
 21
489.948822460937
 31
0.0
 0
ARC
 5
17D
100
AcDbEntity
 8
Layer8
100
AcDbCircle
 39
0.25
 370
106
 10
216.312015003867
 20
435.172252727432
 30
0.0
 40
6.14046482051136
100
AcDbArc
 50
177.079014060986
 51
-147.682794474611
 0
LINE
 5
17E
100
AcDbEntity
 8
Layer8
100
AcDbLine
 39
0.25
 370
106
 10
207.3287
 20
431.889522460937
 30
0.0
 11
207.87445
 21
433.582553710937
 31
0.0
 0
LINE
 5
17F
100
AcDbEntity
 8
Layer8
100
AcDbLine
 39
0.25
 370
106
 10
207.87445
 20
433.582553710937
 30
0.0
 11
208.16445
 21
435.657522460937
 31
0.0
 0
LINE
 5
180
100
AcDbEntity
 8
Layer8
100
AcDbLine
 39
0.25
 370
106
 10
208.16445
 20
435.657522460937
 30
0.0
 11
208.2997
 21
438.156522460937
 31
0.0
 0
LINE
 5
181
100
AcDbEntity
 8
Layer8
100
AcDbLine
 39
0.25
 370
106
 10
208.2997
 20
438.156522460937
 30
0.0
 11
208.2997
 21
443.052522460938
 31
0.0
 0
LINE
 5
182
100
AcDbEntity
 8
Layer8
100
AcDbLine
 39
0.25
 370
106
 10
208.2997
 20
443.052522460938
 30
0.0
 11
210.1377
 21
443.052522460938
 31
0.0
 0
LINE
 5
183
100
AcDbEntity
 8
Layer8
100
AcDbLine
 39
0.25
 370
106
 10
210.1377
 20
443.052522460938
 30
0.0
 11
210.179528125
 21
435.485163085938
 31
0.0
 0
LINE
 5
184
100
AcDbEntity
 8
Layer8
100
AcDbLine
 39
0.25
 370
106
 10
211.1227
 20
431.889522460937
 30
0.0
 11
207.3287
 21
431.889522460937
 31
0.0
 0
ARC
 5
185
100
AcDbEntity
 8
Layer8
100
AcDbCircle
 39
0.25
 370
106
 10
216.23146560995
 20
435.175292620274
 30
0.0
 40
6.08319107635192
100
AcDbArc
 50
177.080157987724
 51
-147.306882489669
 0
LINE
 5
186
100
AcDbEntity
 8
Layer8
100
AcDbLine
 39
0.25
 370
106
 10
207.269
 20
431.889522460937
 30
0.0
 11
207.822109375
 21
433.582553710937
 31
0.0
 0
LINE
 5
187
100
AcDbEntity
 8
Layer8
100
AcDbLine
 39
0.25
 370
106
 10
207.822109375
 20
433.582553710937
 30
0.0
 11
208.115625
 21
435.657522460937
 31
0.0
 0
LINE
 5
188
100
AcDbEntity
 8
Layer8
100
AcDbLine
 39
0.25
 370
106
 10
208.115625
 20
435.657522460937
 30
0.0
 11
208.252
 21
438.156522460937
 31
0.0
 0
LINE
 5
189
100
AcDbEntity
 8
Layer8
100
AcDbLine
 39
0.25
 370
106
 10
208.252
 20
438.156522460937
 30
0.0
 11
208.252
 21
443.052522460938
 31
0.0
 0
LINE
 5
18A
100
AcDbEntity
 8
Layer8
100
AcDbLine
 39
0.25
 370
106
 10
208.252
 20
443.052522460938
 30
0.0
 11
210.113
 21
443.052522460938
 31
0.0
 0
LINE
 5
18B
100
AcDbEntity
 8
Layer8
100
AcDbLine
 39
0.25
 370
106
 10
210.113
 20
443.052522460938
 30
0.0
 11
210.156171875
 21
435.485163085938
 31
0.0
 0
LINE
 5
18C
100
AcDbEntity
 8
Layer8
100
AcDbLine
 39
0.25
 370
106
 10
211.112
 20
431.889522460937
 30
0.0
 11
207.269
 21
431.889522460937
 31
0.0
 0
LINE
 5
18D
100
AcDbEntity
 8
Layer8
100
AcDbLine
 39
0.25
 370
106
 10
207.2153
 20
431.796922460937
 30
0.0
 11
207.2403
 21
431.884922460938
 31
0.0
 0
LINE
 5
18E
100
AcDbEntity
 8
Layer8
100
AcDbLine
 39
0.25
 370
106
 10
207.2403
 20
431.884922460938
 30
0.0
 11
211.1083
 21
431.884922460938
 31
0.0
 0
LINE
 5
18F
100
AcDbEntity
 8
Layer8
100
AcDbLine
 39
0.25
 370
106
 10
211.1083
 20
431.884922460938
 30
0.0
 11
211.1343
 21
431.796922460937
 31
0.0
 0
LINE
 5
190
100
AcDbEntity
 8
Layer8
100
AcDbLine
 39
0.25
 370
106
 10
211.1343
 20
431.796922460937
 30
0.0
 11
207.2153
 21
431.796922460937
 31
0.0
 0
LINE
 5
191
100
AcDbEntity
 8
Layer8
100
AcDbLine
 39
0.25
 370
106
 10
207.2416
 20
431.796922460937
 30
0.0
 11
207.2666
 21
431.884922460938
 31
0.0
 0
LINE
 5
192
100
AcDbEntity
 8
Layer8
100
AcDbLine
 39
0.25
 370
106
 10
207.2666
 20
431.884922460938
 30
0.0
 11
211.1136
 21
431.884922460938
 31
0.0
 0
LINE
 5
193
100
AcDbEntity
 8
Layer8
100
AcDbLine
 39
0.25
 370
106
 10
211.1136
 20
431.884922460938
 30
0.0
 11
211.1396
 21
431.796922460937
 31
0.0
 0
LINE
 5
194
100
AcDbEntity
 8
Layer8
100
AcDbLine
 39
0.25
 370
106
 10
211.1396
 20
431.796922460937
 30
0.0
 11
207.2416
 21
431.796922460937
 31
0.0
 0
LINE
 5
195
100
AcDbEntity
 8
Layer8
100
AcDbLine
 39
0.25
 370
106
 10
207.2153
 20
431.796922460937
 30
0.0
 11
207.2403
 21
431.884922460938
 31
0.0
 0
LINE
 5
196
100
AcDbEntity
 8
Layer8
100
AcDbLine
 39
0.25
 370
106
 10
207.2403
 20
431.884922460938
 30
0.0
 11
211.1083
 21
431.884922460938
 31
0.0
 0
LINE
 5
197
100
AcDbEntity
 8
Layer8
100
AcDbLine
 39
0.25
 370
106
 10
211.1083
 20
431.884922460938
 30
0.0
 11
211.1343
 21
431.796922460937
 31
0.0
 0
LINE
 5
198
100
AcDbEntity
 8
Layer8
100
AcDbLine
 39
0.25
 370
106
 10
211.1343
 20
431.796922460937
 30
0.0
 11
207.2153
 21
431.796922460937
 31
0.0
 0
LINE
 5
199
100
AcDbEntity
 8
Layer8
100
AcDbLine
 39
0.25
 370
106
 10
207.2416
 20
431.796922460937
 30
0.0
 11
207.2666
 21
431.884922460938
 31
0.0
 0
LINE
 5
19A
100
AcDbEntity
 8
Layer8
100
AcDbLine
 39
0.25
 370
106
 10
207.2666
 20
431.884922460938
 30
0.0
 11
211.1136
 21
431.884922460938
 31
0.0
 0
LINE
 5
19B
100
AcDbEntity
 8
Layer8
100
AcDbLine
 39
0.25
 370
106
 10
211.1136
 20
431.884922460938
 30
0.0
 11
211.1396
 21
431.796922460937
 31
0.0
 0
LINE
 5
19C
100
AcDbEntity
 8
Layer8
100
AcDbLine
 39
0.25
 370
106
 10
211.1396
 20
431.796922460937
 30
0.0
 11
207.2416
 21
431.796922460937
 31
0.0
 0
LINE
 5
19D
100
AcDbEntity
 8
Layer8
100
AcDbLine
 39
0.25
 370
106
 10
201.6047
 20
487.026122460937
 30
0.0
 11
216.9797
 21
487.026122460937
 31
0.0
 0
LINE
 5
19E
100
AcDbEntity
 8
Layer8
100
AcDbLine
 39
0.25
 370
106
 10
201.6991
 20
487.026122460937
 30
0.0
 11
216.8861
 21
487.026122460937
 31
0.0
 0
LINE
 5
19F
100
AcDbEntity
 8
Layer8
100
AcDbLine
 39
0.25
 370
106
 10
201.6047
 20
490.376822460937
 30
0.0
 11
216.9797
 21
490.376822460937
 31
0.0
 0
LINE
 5
1A0
100
AcDbEntity
 8
Layer8
100
AcDbLine
 39
0.25
 370
106
 10
201.6991
 20
490.376822460937
 30
0.0
 11
216.8861
 21
490.376822460937
 31
0.0
 0
LINE
 5
1A1
100
AcDbEntity
 8
Layer8
100
AcDbLine
 39
0.25
 370
106
 10
201.8826
 20
486.751422460937
 30
0.0
 11
216.7056
 21
486.751422460937
 31
0.0
 0
LINE
 5
1A2
100
AcDbEntity
 8
Layer8
100
AcDbLine
 39
0.25
 370
106
 10
201.9771
 20
486.751422460937
 30
0.0
 11
216.6121
 21
486.751422460937
 31
0.0
 0
LINE
 5
1A3
100
AcDbEntity
 8
Layer8
100
AcDbLine
 39
0.25
 370
106
 10
208.2363
 20
486.127022460938
 30
0.0
 11
208.2363
 21
486.759022460938
 31
0.0
 0
LINE
 5
1A4
100
AcDbEntity
 8
Layer8
100
AcDbLine
 39
0.25
 370
106
 10
208.2363
 20
486.221522460937
 30
0.0
 11
208.2363
 21
486.664522460937
 31
0.0
 0
LINE
 5
1A5
100
AcDbEntity
 8
Layer8
100
AcDbLine
 39
0.25
 370
106
 10
210.3372
 20
486.127022460938
 30
0.0
 11
210.3372
 21
486.759022460938
 31
0.0
 0
LINE
 5
1A6
100
AcDbEntity
 8
Layer8
100
AcDbLine
 39
0.25
 370
106
 10
210.3372
 20
486.221522460937
 30
0.0
 11
210.3372
 21
486.664522460937
 31
0.0
 0
LINE
 5
1A7
100
AcDbEntity
 8
Layer8
100
AcDbLine
 39
0.25
 370
106
 10
208.2454
 20
486.127022460938
 30
0.0
 11
208.2454
 21
486.759022460938
 31
0.0
 0
LINE
 5
1A8
100
AcDbEntity
 8
Layer8
100
AcDbLine
 39
0.25
 370
106
 10
208.2454
 20
486.221522460937
 30
0.0
 11
208.2454
 21
486.664522460937
 31
0.0
 0
LINE
 5
1A9
100
AcDbEntity
 8
Layer8
100
AcDbLine
 39
0.25
 370
106
 10
210.3251
 20
486.127022460938
 30
0.0
 11
210.3251
 21
486.759022460938
 31
0.0
 0
LINE
 5
1AA
100
AcDbEntity
 8
Layer8
100
AcDbLine
 39
0.25
 370
106
 10
210.3251
 20
486.221522460937
 30
0.0
 11
210.3251
 21
486.664522460937
 31
0.0
 0
LINE
 5
1AB
100
AcDbEntity
 8
Layer8
100
AcDbLine
 39
0.25
 370
106
 10
208.2547
 20
486.127022460938
 30
0.0
 11
208.2547
 21
486.759022460938
 31
0.0
 0
LINE
 5
1AC
100
AcDbEntity
 8
Layer8
100
AcDbLine
 39
0.25
 370
106
 10
208.2547
 20
486.221522460937
 30
0.0
 11
208.2547
 21
486.664522460937
 31
0.0
 0
LINE
 5
1AD
100
AcDbEntity
 8
Layer8
100
AcDbLine
 39
0.25
 370
106
 10
210.3158
 20
486.127022460938
 30
0.0
 11
210.3158
 21
486.759022460938
 31
0.0
 0
LINE
 5
1AE
100
AcDbEntity
 8
Layer8
100
AcDbLine
 39
0.25
 370
106
 10
210.3158
 20
486.221522460937
 30
0.0
 11
210.3158
 21
486.664522460937
 31
0.0
 0
LINE
 5
1AF
100
AcDbEntity
 8
Layer8
100
AcDbLine
 39
0.25
 370
106
 10
208.2672
 20
486.127022460938
 30
0.0
 11
208.2672
 21
486.759022460938
 31
0.0
 0
LINE
 5
1B0
100
AcDbEntity
 8
Layer8
100
AcDbLine
 39
0.25
 370
106
 10
208.2672
 20
486.221522460937
 30
0.0
 11
208.2672
 21
486.664522460937
 31
0.0
 0
LINE
 5
1B1
100
AcDbEntity
 8
Layer8
100
AcDbLine
 39
0.25
 370
106
 10
210.3067
 20
486.127022460938
 30
0.0
 11
210.3067
 21
486.759022460938
 31
0.0
 0
LINE
 5
1B2
100
AcDbEntity
 8
Layer8
100
AcDbLine
 39
0.25
 370
106
 10
210.3067
 20
486.221522460937
 30
0.0
 11
210.3067
 21
486.664522460937
 31
0.0
 0
LINE
 5
1B3
100
AcDbEntity
 8
Layer8
100
AcDbLine
 39
0.25
 370
106
 10
208.2762
 20
486.127022460938
 30
0.0
 11
208.2762
 21
486.759022460938
 31
0.0
 0
LINE
 5
1B4
100
AcDbEntity
 8
Layer8
100
AcDbLine
 39
0.25
 370
106
 10
208.2762
 20
486.221522460937
 30
0.0
 11
208.2762
 21
486.664522460937
 31
0.0
 0
LINE
 5
1B5
100
AcDbEntity
 8
Layer8
100
AcDbLine
 39
0.25
 370
106
 10
210.2882
 20
486.127022460938
 30
0.0
 11
210.2882
 21
486.759022460938
 31
0.0
 0
LINE
 5
1B6
100
AcDbEntity
 8
Layer8
100
AcDbLine
 39
0.25
 370
106
 10
210.2882
 20
486.221522460937
 30
0.0
 11
210.2882
 21
486.664522460937
 31
0.0
 0
LINE
 5
1B7
100
AcDbEntity
 8
Layer8
100
AcDbLine
 39
0.25
 370
106
 10
208.2942
 20
486.127022460938
 30
0.0
 11
208.2942
 21
486.759022460938
 31
0.0
 0
LINE
 5
1B8
100
AcDbEntity
 8
Layer8
100
AcDbLine
 39
0.25
 370
106
 10
208.2942
 20
486.221522460937
 30
0.0
 11
208.2942
 21
486.664522460937
 31
0.0
 0
LINE
 5
1B9
100
AcDbEntity
 8
Layer8
100
AcDbLine
 39
0.25
 370
106
 10
210.2763
 20
486.127022460938
 30
0.0
 11
210.2763
 21
486.759022460938
 31
0.0
 0
LINE
 5
1BA
100
AcDbEntity
 8
Layer8
100
AcDbLine
 39
0.25
 370
106
 10
210.2763
 20
486.221522460937
 30
0.0
 11
210.2763
 21
486.664522460937
 31
0.0
 0
LINE
 5
1BB
100
AcDbEntity
 8
Layer8
100
AcDbLine
 39
0.25
 370
106
 10
208.3251
 20
486.127022460938
 30
0.0
 11
208.3251
 21
486.759022460938
 31
0.0
 0
LINE
 5
1BC
100
AcDbEntity
 8
Layer8
100
AcDbLine
 39
0.25
 370
106
 10
208.3251
 20
486.221522460937
 30
0.0
 11
208.3251
 21
486.664522460937
 31
0.0
 0
LINE
 5
1BD
100
AcDbEntity
 8
Layer8
100
AcDbLine
 39
0.25
 370
106
 10
210.2489
 20
486.127022460938
 30
0.0
 11
210.2489
 21
486.759022460938
 31
0.0
 0
LINE
 5
1BE
100
AcDbEntity
 8
Layer8
100
AcDbLine
 39
0.25
 370
106
 10
210.2489
 20
486.221522460937
 30
0.0
 11
210.2489
 21
486.664522460937
 31
0.0
 0
LINE
 5
1BF
100
AcDbEntity
 8
Layer8
100
AcDbLine
 39
0.25
 370
106
 10
208.3466
 20
486.127022460938
 30
0.0
 11
208.3466
 21
486.759022460938
 31
0.0
 0
LINE
 5
1C0
100
AcDbEntity
 8
Layer8
100
AcDbLine
 39
0.25
 370
106
 10
208.3466
 20
486.221522460937
 30
0.0
 11
208.3466
 21
486.664522460937
 31
0.0
 0
LINE
 5
1C1
100
AcDbEntity
 8
Layer8
100
AcDbLine
 39
0.25
 370
106
 10
210.2183
 20
486.127022460938
 30
0.0
 11
210.2183
 21
486.759022460938
 31
0.0
 0
LINE
 5
1C2
100
AcDbEntity
 8
Layer8
100
AcDbLine
 39
0.25
 370
106
 10
210.2183
 20
486.221522460937
 30
0.0
 11
210.2183
 21
486.664522460937
 31
0.0
 0
LINE
 5
1C3
100
AcDbEntity
 8
Layer8
100
AcDbLine
 39
0.25
 370
106
 10
208.3829
 20
486.127022460938
 30
0.0
 11
208.3829
 21
486.759022460938
 31
0.0
 0
LINE
 5
1C4
100
AcDbEntity
 8
Layer8
100
AcDbLine
 39
0.25
 370
106
 10
208.3829
 20
486.221522460937
 30
0.0
 11
208.3829
 21
486.664522460937
 31
0.0
 0
LINE
 5
1C5
100
AcDbEntity
 8
Layer8
100
AcDbLine
 39
0.25
 370
106
 10
210.1876
 20
486.127022460938
 30
0.0
 11
210.1876
 21
486.759022460938
 31
0.0
 0
LINE
 5
1C6
100
AcDbEntity
 8
Layer8
100
AcDbLine
 39
0.25
 370
106
 10
210.1876
 20
486.221522460937
 30
0.0
 11
210.1876
 21
486.664522460937
 31
0.0
 0
LINE
 5
1C7
100
AcDbEntity
 8
Layer8
100
AcDbLine
 39
0.25
 370
106
 10
208.4138
 20
486.127022460938
 30
0.0
 11
208.4138
 21
486.759022460938
 31
0.0
 0
LINE
 5
1C8
100
AcDbEntity
 8
Layer8
100
AcDbLine
 39
0.25
 370
106
 10
208.4138
 20
486.221522460937
 30
0.0
 11
208.4138
 21
486.664522460937
 31
0.0
 0
LINE
 5
1C9
100
AcDbEntity
 8
Layer8
100
AcDbLine
 39
0.25
 370
106
 10
210.16
 20
486.127022460938
 30
0.0
 11
210.16
 21
486.759022460938
 31
0.0
 0
LINE
 5
1CA
100
AcDbEntity
 8
Layer8
100
AcDbLine
 39
0.25
 370
106
 10
210.16
 20
486.221522460937
 30
0.0
 11
210.16
 21
486.664522460937
 31
0.0
 0
LINE
 5
1CB
100
AcDbEntity
 8
Layer8
100
AcDbLine
 39
0.25
 370
106
 10
208.4627
 20
486.127022460938
 30
0.0
 11
208.4627
 21
486.759022460938
 31
0.0
 0
LINE
 5
1CC
100
AcDbEntity
 8
Layer8
100
AcDbLine
 39
0.25
 370
106
 10
208.4627
 20
486.221522460937
 30
0.0
 11
208.4627
 21
486.664522460937
 31
0.0
 0
LINE
 5
1CD
100
AcDbEntity
 8
Layer8
100
AcDbLine
 39
0.25
 370
106
 10
210.1082
 20
486.127022460938
 30
0.0
 11
210.1082
 21
486.759022460938
 31
0.0
 0
LINE
 5
1CE
100
AcDbEntity
 8
Layer8
100
AcDbLine
 39
0.25
 370
106
 10
210.1082
 20
486.221522460937
 30
0.0
 11
210.1082
 21
486.664522460937
 31
0.0
 0
LINE
 5
1CF
100
AcDbEntity
 8
Layer8
100
AcDbLine
 39
0.25
 370
106
 10
208.4927
 20
486.127022460938
 30
0.0
 11
208.4927
 21
486.759022460938
 31
0.0
 0
LINE
 5
1D0
100
AcDbEntity
 8
Layer8
100
AcDbLine
 39
0.25
 370
106
 10
208.4927
 20
486.221522460937
 30
0.0
 11
208.4927
 21
486.664522460937
 31
0.0
 0
LINE
 5
1D1
100
AcDbEntity
 8
Layer8
100
AcDbLine
 39
0.25
 370
106
 10
210.0717
 20
486.127022460938
 30
0.0
 11
210.0717
 21
486.759022460938
 31
0.0
 0
LINE
 5
1D2
100
AcDbEntity
 8
Layer8
100
AcDbLine
 39
0.25
 370
106
 10
210.0717
 20
486.221522460937
 30
0.0
 11
210.0717
 21
486.664522460937
 31
0.0
 0
LINE
 5
1D3
100
AcDbEntity
 8
Layer8
100
AcDbLine
 39
0.25
 370
106
 10
208.551
 20
486.127022460938
 30
0.0
 11
208.551
 21
486.759022460938
 31
0.0
 0
LINE
 5
1D4
100
AcDbEntity
 8
Layer8
100
AcDbLine
 39
0.25
 370
106
 10
208.551
 20
486.221522460937
 30
0.0
 11
208.551
 21
486.664522460937
 31
0.0
 0
LINE
 5
1D5
100
AcDbEntity
 8
Layer8
100
AcDbLine
 39
0.25
 370
106
 10
210.0228
 20
486.127022460938
 30
0.0
 11
210.0228
 21
486.759022460938
 31
0.0
 0
LINE
 5
1D6
100
AcDbEntity
 8
Layer8
100
AcDbLine
 39
0.25
 370
106
 10
210.0228
 20
486.221522460937
 30
0.0
 11
210.0228
 21
486.664522460937
 31
0.0
 0
LINE
 5
1D7
100
AcDbEntity
 8
Layer8
100
AcDbLine
 39
0.25
 370
106
 10
208.5906
 20
486.127022460938
 30
0.0
 11
208.5906
 21
486.759022460938
 31
0.0
 0
LINE
 5
1D8
100
AcDbEntity
 8
Layer8
100
AcDbLine
 39
0.25
 370
106
 10
208.5906
 20
486.221522460937
 30
0.0
 11
208.5906
 21
486.664522460937
 31
0.0
 0
LINE
 5
1D9
100
AcDbEntity
 8
Layer8
100
AcDbLine
 39
0.25
 370
106
 10
209.983
 20
486.127022460938
 30
0.0
 11
209.983
 21
486.759022460938
 31
0.0
 0
LINE
 5
1DA
100
AcDbEntity
 8
Layer8
100
AcDbLine
 39
0.25
 370
106
 10
209.983
 20
486.221522460937
 30
0.0
 11
209.983
 21
486.664522460937
 31
0.0
 0
LINE
 5
1DB
100
AcDbEntity
 8
Layer8
100
AcDbLine
 39
0.25
 370
106
 10
208.6519
 20
486.127022460938
 30
0.0
 11
208.6519
 21
486.759022460938
 31
0.0
 0
LINE
 5
1DC
100
AcDbEntity
 8
Layer8
100
AcDbLine
 39
0.25
 370
106
 10
208.6519
 20
486.221522460937
 30
0.0
 11
208.6519
 21
486.664522460937
 31
0.0
 0
LINE
 5
1DD
100
AcDbEntity
 8
Layer8
100
AcDbLine
 39
0.25
 370
106
 10
209.922
 20
486.127022460938
 30
0.0
 11
209.922
 21
486.759022460938
 31
0.0
 0
LINE
 5
1DE
100
AcDbEntity
 8
Layer8
100
AcDbLine
 39
0.25
 370
106
 10
209.922
 20
486.221522460937
 30
0.0
 11
209.922
 21
486.664522460937
 31
0.0
 0
LINE
 5
1DF
100
AcDbEntity
 8
Layer8
100
AcDbLine
 39
0.25
 370
106
 10
208.6914
 20
486.127022460938
 30
0.0
 11
208.6914
 21
486.759022460938
 31
0.0
 0
LINE
 5
1E0
100
AcDbEntity
 8
Layer8
100
AcDbLine
 39
0.25
 370
106
 10
208.6914
 20
486.221522460937
 30
0.0
 11
208.6914
 21
486.664522460937
 31
0.0
 0
LINE
 5
1E1
100
AcDbEntity
 8
Layer8
100
AcDbLine
 39
0.25
 370
106
 10
209.8821
 20
486.127022460938
 30
0.0
 11
209.8821
 21
486.759022460938
 31
0.0
 0
LINE
 5
1E2
100
AcDbEntity
 8
Layer8
100
AcDbLine
 39
0.25
 370
106
 10
209.8821
 20
486.221522460937
 30
0.0
 11
209.8821
 21
486.664522460937
 31
0.0
 0
LINE
 5
1E3
100
AcDbEntity
 8
Layer8
100
AcDbLine
 39
0.25
 370
106
 10
208.7587
 20
486.127022460938
 30
0.0
 11
208.7587
 21
486.759022460938
 31
0.0
 0
LINE
 5
1E4
100
AcDbEntity
 8
Layer8
100
AcDbLine
 39
0.25
 370
106
 10
208.7587
 20
486.221522460937
 30
0.0
 11
208.7587
 21
486.664522460937
 31
0.0
 0
LINE
 5
1E5
100
AcDbEntity
 8
Layer8
100
AcDbLine
 39
0.25
 370
106
 10
209.8148
 20
486.127022460938
 30
0.0
 11
209.8148
 21
486.759022460938
 31
0.0
 0
LINE
 5
1E6
100
AcDbEntity
 8
Layer8
100
AcDbLine
 39
0.25
 370
106
 10
209.8148
 20
486.221522460937
 30
0.0
 11
209.8148
 21
486.664522460937
 31
0.0
 0
LINE
 5
1E7
100
AcDbEntity
 8
Layer8
100
AcDbLine
 39
0.25
 370
106
 10
208.8075
 20
486.127022460938
 30
0.0
 11
208.8075
 21
486.759022460938
 31
0.0
 0
LINE
 5
1E8
100
AcDbEntity
 8
Layer8
100
AcDbLine
 39
0.25
 370
106
 10
208.8075
 20
486.221522460937
 30
0.0
 11
208.8075
 21
486.664522460937
 31
0.0
 0
LINE
 5
1E9
100
AcDbEntity
 8
Layer8
100
AcDbLine
 39
0.25
 370
106
 10
209.763
 20
486.127022460938
 30
0.0
 11
209.763
 21
486.759022460938
 31
0.0
 0
LINE
 5
1EA
100
AcDbEntity
 8
Layer8
100
AcDbLine
 39
0.25
 370
106
 10
209.763
 20
486.221522460937
 30
0.0
 11
209.763
 21
486.664522460937
 31
0.0
 0
LINE
 5
1EB
100
AcDbEntity
 8
Layer8
100
AcDbLine
 39
0.25
 370
106
 10
208.8779
 20
486.127022460938
 30
0.0
 11
208.8779
 21
486.759022460938
 31
0.0
 0
LINE
 5
1EC
100
AcDbEntity
 8
Layer8
100
AcDbLine
 39
0.25
 370
106
 10
208.8779
 20
486.221522460937
 30
0.0
 11
208.8779
 21
486.664522460937
 31
0.0
 0
LINE
 5
1ED
100
AcDbEntity
 8
Layer8
100
AcDbLine
 39
0.25
 370
106
 10
209.6961
 20
486.127022460938
 30
0.0
 11
209.6961
 21
486.759022460938
 31
0.0
 0
LINE
 5
1EE
100
AcDbEntity
 8
Layer8
100
AcDbLine
 39
0.25
 370
106
 10
209.6961
 20
486.221522460937
 30
0.0
 11
209.6961
 21
486.664522460937
 31
0.0
 0
LINE
 5
1EF
100
AcDbEntity
 8
Layer8
100
AcDbLine
 39
0.25
 370
106
 10
208.9268
 20
486.127022460938
 30
0.0
 11
208.9268
 21
486.759022460938
 31
0.0
 0
LINE
 5
1F0
100
AcDbEntity
 8
Layer8
100
AcDbLine
 39
0.25
 370
106
 10
208.9268
 20
486.221522460937
 30
0.0
 11
208.9268
 21
486.664522460937
 31
0.0
 0
LINE
 5
1F1
100
AcDbEntity
 8
Layer8
100
AcDbLine
 39
0.25
 370
106
 10
209.6471
 20
486.127022460938
 30
0.0
 11
209.6471
 21
486.759022460938
 31
0.0
 0
LINE
 5
1F2
100
AcDbEntity
 8
Layer8
100
AcDbLine
 39
0.25
 370
106
 10
209.6471
 20
486.221522460937
 30
0.0
 11
209.6471
 21
486.664522460937
 31
0.0
 0
LINE
 5
1F3
100
AcDbEntity
 8
Layer8
100
AcDbLine
 39
0.25
 370
106
 10
208.9937
 20
486.127022460938
 30
0.0
 11
208.9937
 21
486.759022460938
 31
0.0
 0
LINE
 5
1F4
100
AcDbEntity
 8
Layer8
100
AcDbLine
 39
0.25
 370
106
 10
208.9937
 20
486.221522460937
 30
0.0
 11
208.9937
 21
486.664522460937
 31
0.0
 0
LINE
 5
1F5
100
AcDbEntity
 8
Layer8
100
AcDbLine
 39
0.25
 370
106
 10
209.5768
 20
486.127022460938
 30
0.0
 11
209.5768
 21
486.759022460938
 31
0.0
 0
LINE
 5
1F6
100
AcDbEntity
 8
Layer8
100
AcDbLine
 39
0.25
 370
106
 10
209.5768
 20
486.221522460937
 30
0.0
 11
209.5768
 21
486.664522460937
 31
0.0
 0
LINE
 5
1F7
100
AcDbEntity
 8
Layer8
100
AcDbLine
 39
0.25
 370
106
 10
209.055
 20
486.127022460938
 30
0.0
 11
209.055
 21
486.759022460938
 31
0.0
 0
LINE
 5
1F8
100
AcDbEntity
 8
Layer8
100
AcDbLine
 39
0.25
 370
106
 10
209.055
 20
486.221522460937
 30
0.0
 11
209.055
 21
486.664522460937
 31
0.0
 0
LINE
 5
1F9
100
AcDbEntity
 8
Layer8
100
AcDbLine
 39
0.25
 370
106
 10
209.519
 20
486.127022460938
 30
0.0
 11
209.519
 21
486.759022460938
 31
0.0
 0
LINE
 5
1FA
100
AcDbEntity
 8
Layer8
100
AcDbLine
 39
0.25
 370
106
 10
209.519
 20
486.221522460937
 30
0.0
 11
209.519
 21
486.664522460937
 31
0.0
 0
LINE
 5
1FB
100
AcDbEntity
 8
Layer8
100
AcDbLine
 39
0.25
 370
106
 10
209.1249
 20
486.127022460938
 30
0.0
 11
209.1249
 21
486.759022460938
 31
0.0
 0
LINE
 5
1FC
100
AcDbEntity
 8
Layer8
100
AcDbLine
 39
0.25
 370
106
 10
209.1249
 20
486.221522460937
 30
0.0
 11
209.1249
 21
486.664522460937
 31
0.0
 0
LINE
 5
1FD
100
AcDbEntity
 8
Layer8
100
AcDbLine
 39
0.25
 370
106
 10
209.4491
 20
486.127022460938
 30
0.0
 11
209.4491
 21
486.759022460938
 31
0.0
 0
LINE
 5
1FE
100
AcDbEntity
 8
Layer8
100
AcDbLine
 39
0.25
 370
106
 10
209.4491
 20
486.221522460937
 30
0.0
 11
209.4491
 21
486.664522460937
 31
0.0
 0
LINE
 5
1FF
100
AcDbEntity
 8
Layer8
100
AcDbLine
 39
0.25
 370
106
 10
209.1827
 20
486.127022460938
 30
0.0
 11
209.1827
 21
486.759022460938
 31
0.0
 0
LINE
 5
200
100
AcDbEntity
 8
Layer8
100
AcDbLine
 39
0.25
 370
106
 10
209.1827
 20
486.221522460937
 30
0.0
 11
209.1827
 21
486.664522460937
 31
0.0
 0
LINE
 5
201
100
AcDbEntity
 8
Layer8
100
AcDbLine
 39
0.25
 370
106
 10
209.3908
 20
486.127022460938
 30
0.0
 11
209.3908
 21
486.759022460938
 31
0.0
 0
LINE
 5
202
100
AcDbEntity
 8
Layer8
100
AcDbLine
 39
0.25
 370
106
 10
209.3908
 20
486.221522460937
 30
0.0
 11
209.3908
 21
486.664522460937
 31
0.0
 0
LINE
 5
203
100
AcDbEntity
 8
Layer8
100
AcDbLine
 39
0.25
 370
106
 10
209.2626
 20
486.127022460938
 30
0.0
 11
209.2626
 21
486.759022460938
 31
0.0
 0
LINE
 5
204
100
AcDbEntity
 8
Layer8
100
AcDbLine
 39
0.25
 370
106
 10
209.2626
 20
486.221522460937
 30
0.0
 11
209.2626
 21
486.664522460937
 31
0.0
 0
LINE
 5
205
100
AcDbEntity
 8
Layer8
100
AcDbLine
 39
0.25
 370
106
 10
209.3114
 20
486.127022460938
 30
0.0
 11
209.3114
 21
486.759022460938
 31
0.0
 0
LINE
 5
206
100
AcDbEntity
 8
Layer8
100
AcDbLine
 39
0.25
 370
106
 10
209.3114
 20
486.221522460937
 30
0.0
 11
209.3114
 21
486.664522460937
 31
0.0
 0
LINE
 5
207
100
AcDbEntity
 8
Layer8
100
AcDbLine
 39
0.25
 370
106
 10
210.323
 20
486.151022460938
 30
0.0
 11
210.323
 21
486.102022460938
 31
0.0
 0
LINE
 5
208
100
AcDbEntity
 8
Layer8
100
AcDbLine
 39
0.25
 370
106
 10
210.323
 20
486.102022460938
 30
0.0
 11
210.29
 21
486.047022460938
 31
0.0
 0
LINE
 5
209
100
AcDbEntity
 8
Layer8
100
AcDbLine
 39
0.25
 370
106
 10
210.29
 20
486.047022460938
 30
0.0
 11
210.346
 21
486.135022460937
 31
0.0
 0
LINE
 5
20A
100
AcDbEntity
 8
Layer8
100
AcDbLine
 39
0.25
 370
106
 10
210.346
 20
486.135022460937
 30
0.0
 11
210.346
 21
486.151022460938
 31
0.0
 0
LINE
 5
20B
100
AcDbEntity
 8
Layer8
100
AcDbLine
 39
0.25
 370
106
 10
210.3265
 20
486.140322460938
 30
0.0
 11
210.3265
 21
486.091322460938
 31
0.0
 0
LINE
 5
20C
100
AcDbEntity
 8
Layer8
100
AcDbLine
 39
0.25
 370
106
 10
210.3265
 20
486.091322460938
 30
0.0
 11
210.2935
 21
486.036322460938
 31
0.0
 0
LINE
 5
20D
100
AcDbEntity
 8
Layer8
100
AcDbLine
 39
0.25
 370
106
 10
210.2935
 20
486.036322460938
 30
0.0
 11
210.3495
 21
486.124322460937
 31
0.0
 0
LINE
 5
20E
100
AcDbEntity
 8
Layer8
100
AcDbLine
 39
0.25
 370
106
 10
210.3495
 20
486.124322460937
 30
0.0
 11
210.3495
 21
486.140322460938
 31
0.0
 0
LINE
 5
20F
100
AcDbEntity
 8
Layer8
100
AcDbLine
 39
0.25
 370
106
 10
210.3158
 20
486.119822460937
 30
0.0
 11
210.3338
 21
486.119822460937
 31
0.0
 0
LINE
 5
210
100
AcDbEntity
 8
Layer8
100
AcDbLine
 39
0.25
 370
106
 10
210.3119
 20
486.119822460937
 30
0.0
 11
210.3299
 21
486.119822460937
 31
0.0
 0
LINE
 5
211
100
AcDbEntity
 8
Layer8
100
AcDbLine
 39
0.25
 370
106
 10
210.359
 20
486.164622460937
 30
0.0
 11
210.359
 21
486.115622460938
 31
0.0
 0
LINE
 5
212
100
AcDbEntity
 8
Layer8
100
AcDbLine
 39
0.25
 370
106
 10
210.359
 20
486.115622460938
 30
0.0
 11
210.326
 21
486.060622460938
 31
0.0
 0
LINE
 5
213
100
AcDbEntity
 8
Layer8
100
AcDbLine
 39
0.25
 370
106
 10
210.326
 20
486.060622460938
 30
0.0
 11
210.343
 21
486.060622460938
 31
0.0
 0
LINE
 5
214
100
AcDbEntity
 8
Layer8
100
AcDbLine
 39
0.25
 370
106
 10
210.343
 20
486.060622460938
 30
0.0
 11
210.343
 21
486.080622460937
 31
0.0
 0
LINE
 5
215
100
AcDbEntity
 8
Layer8
100
AcDbLine
 39
0.25
 370
106
 10
210.343
 20
486.080622460937
 30
0.0
 11
210.377
 21
486.115622460938
 31
0.0
 0
LINE
 5
216
100
AcDbEntity
 8
Layer8
100
AcDbLine
 39
0.25
 370
106
 10
210.377
 20
486.115622460938
 30
0.0
 11
210.377
 21
486.164622460937
 31
0.0
 0
LINE
 5
217
100
AcDbEntity
 8
Layer8
100
AcDbLine
 39
0.25
 370
106
 10
210.3093
 20
486.140322460938
 30
0.0
 11
210.3093
 21
486.091322460938
 31
0.0
 0
LINE
 5
218
100
AcDbEntity
 8
Layer8
100
AcDbLine
 39
0.25
 370
106
 10
210.3093
 20
486.091322460938
 30
0.0
 11
210.2763
 21
486.036322460938
 31
0.0
 0
LINE
 5
219
100
AcDbEntity
 8
Layer8
100
AcDbLine
 39
0.25
 370
106
 10
210.2763
 20
486.036322460938
 30
0.0
 11
210.2933
 21
486.036322460938
 31
0.0
 0
LINE
 5
21A
100
AcDbEntity
 8
Layer8
100
AcDbLine
 39
0.25
 370
106
 10
210.2933
 20
486.036322460938
 30
0.0
 11
210.2933
 21
486.056322460938
 31
0.0
 0
LINE
 5
21B
100
AcDbEntity
 8
Layer8
100
AcDbLine
 39
0.25
 370
106
 10
210.2933
 20
486.056322460938
 30
0.0
 11
210.3273
 21
486.091322460938
 31
0.0
 0
LINE
 5
21C
100
AcDbEntity
 8
Layer8
100
AcDbLine
 39
0.25
 370
106
 10
210.3273
 20
486.091322460938
 30
0.0
 11
210.3273
 21
486.140322460938
 31
0.0
 0
LINE
 5
21D
100
AcDbEntity
 8
Layer8
100
AcDbLine
 39
0.25
 370
106
 10
210.296
 20
486.119822460937
 30
0.0
 11
210.315
 21
486.119822460937
 31
0.0
 0
LINE
 5
21E
100
AcDbEntity
 8
Layer8
100
AcDbLine
 39
0.25
 370
106
 10
210.2805
 20
486.119822460937
 30
0.0
 11
210.3135
 21
486.119822460937
 31
0.0
 0
LINE
 5
21F
100
AcDbEntity
 8
Layer8
100
AcDbLine
 39
0.25
 370
106
 10
210.2775
 20
486.164422460937
 30
0.0
 11
210.2595
 21
486.115422460938
 31
0.0
 0
LINE
 5
220
100
AcDbEntity
 8
Layer8
100
AcDbLine
 39
0.25
 370
106
 10
210.2595
 20
486.115422460938
 30
0.0
 11
210.2595
 21
486.095422460937
 31
0.0
 0
LINE
 5
221
100
AcDbEntity
 8
Layer8
100
AcDbLine
 39
0.25
 370
106
 10
210.2595
 20
486.095422460937
 30
0.0
 11
210.2445
 21
486.080422460937
 31
0.0
 0
LINE
 5
222
100
AcDbEntity
 8
Layer8
100
AcDbLine
 39
0.25
 370
106
 10
210.2445
 20
486.080422460937
 30
0.0
 11
210.2445
 21
486.060422460938
 31
0.0
 0
LINE
 5
223
100
AcDbEntity
 8
Layer8
100
AcDbLine
 39
0.25
 370
106
 10
210.2445
 20
486.060422460938
 30
0.0
 11
210.2595
 21
486.060422460938
 31
0.0
 0
LINE
 5
224
100
AcDbEntity
 8
Layer8
100
AcDbLine
 39
0.25
 370
106
 10
210.2595
 20
486.060422460938
 30
0.0
 11
210.2595
 21
486.080422460937
 31
0.0
 0
LINE
 5
225
100
AcDbEntity
 8
Layer8
100
AcDbLine
 39
0.25
 370
106
 10
210.2595
 20
486.080422460937
 30
0.0
 11
210.2985
 21
486.115422460938
 31
0.0
 0
LINE
 5
226
100
AcDbEntity
 8
Layer8
100
AcDbLine
 39
0.25
 370
106
 10
210.2985
 20
486.115422460938
 30
0.0
 11
210.2985
 21
486.164422460937
 31
0.0
 0
LINE
 5
227
100
AcDbEntity
 8
Layer8
100
AcDbLine
 39
0.25
 370
106
 10
210.2775
 20
486.140322460938
 30
0.0
 11
210.2595
 21
486.091322460938
 31
0.0
 0
LINE
 5
228
100
AcDbEntity
 8
Layer8
100
AcDbLine
 39
0.25
 370
106
 10
210.2595
 20
486.091322460938
 30
0.0
 11
210.2595
 21
486.071322460937
 31
0.0
 0
LINE
 5
229
100
AcDbEntity
 8
Layer8
100
AcDbLine
 39
0.25
 370
106
 10
210.2595
 20
486.071322460937
 30
0.0
 11
210.2445
 21
486.056322460938
 31
0.0
 0
LINE
 5
22A
100
AcDbEntity
 8
Layer8
100
AcDbLine
 39
0.25
 370
106
 10
210.2445
 20
486.056322460938
 30
0.0
 11
210.2445
 21
486.036322460938
 31
0.0
 0
LINE
 5
22B
100
AcDbEntity
 8
Layer8
100
AcDbLine
 39
0.25
 370
106
 10
210.2445
 20
486.036322460938
 30
0.0
 11
210.2595
 21
486.036322460938
 31
0.0
 0
LINE
 5
22C
100
AcDbEntity
 8
Layer8
100
AcDbLine
 39
0.25
 370
106
 10
210.2595
 20
486.036322460938
 30
0.0
 11
210.2595
 21
486.056322460938
 31
0.0
 0
LINE
 5
22D
100
AcDbEntity
 8
Layer8
100
AcDbLine
 39
0.25
 370
106
 10
210.2595
 20
486.056322460938
 30
0.0
 11
210.2985
 21
486.091322460938
 31
0.0
 0
LINE
 5
22E
100
AcDbEntity
 8
Layer8
100
AcDbLine
 39
0.25
 370
106
 10
210.2985
 20
486.091322460938
 30
0.0
 11
210.2985
 21
486.140322460938
 31
0.0
 0
LINE
 5
22F
100
AcDbEntity
 8
Layer8
100
AcDbLine
 39
0.25
 370
106
 10
210.2489
 20
486.119822460937
 30
0.0
 11
210.2979
 21
486.119822460937
 31
0.0
 0
LINE
 5
230
100
AcDbEntity
 8
Layer8
100
AcDbLine
 39
0.25
 370
106
 10
210.2373
 20
486.119822460937
 30
0.0
 11
210.2863
 21
486.119822460937
 31
0.0
 0
LINE
 5
231
100
AcDbEntity
 8
Layer8
100
AcDbLine
 39
0.25
 370
106
 10
210.2099
 20
486.164622460937
 30
0.0
 11
210.2099
 21
486.115622460938
 31
0.0
 0
LINE
 5
232
100
AcDbEntity
 8
Layer8
100
AcDbLine
 39
0.25
 370
106
 10
210.2099
 20
486.115622460938
 30
0.0
 11
210.1919
 21
486.095622460937
 31
0.0
 0
LINE
 5
233
100
AcDbEntity
 8
Layer8
100
AcDbLine
 39
0.25
 370
106
 10
210.1919
 20
486.095622460937
 30
0.0
 11
210.1919
 21
486.080622460937
 31
0.0
 0
LINE
 5
234
100
AcDbEntity
 8
Layer8
100
AcDbLine
 39
0.25
 370
106
 10
210.1919
 20
486.080622460937
 30
0.0
 11
210.1919
 21
486.060622460938
 31
0.0
 0
LINE
 5
235
100
AcDbEntity
 8
Layer8
100
AcDbLine
 39
0.25
 370
106
 10
210.1919
 20
486.060622460938
 30
0.0
 11
210.2099
 21
486.060622460938
 31
0.0
 0
LINE
 5
236
100
AcDbEntity
 8
Layer8
100
AcDbLine
 39
0.25
 370
106
 10
210.2099
 20
486.060622460938
 30
0.0
 11
210.2629
 21
486.148622460937
 31
0.0
 0
LINE
 5
237
100
AcDbEntity
 8
Layer8
100
AcDbLine
 39
0.25
 370
106
 10
210.2629
 20
486.148622460937
 30
0.0
 11
210.2629
 21
486.164622460937
 31
0.0
 0
LINE
 5
238
100
AcDbEntity
 8
Layer8
100
AcDbLine
 39
0.25
 370
106
 10
210.2099
 20
486.140322460938
 30
0.0
 11
210.2099
 21
486.091322460938
 31
0.0
 0
LINE
 5
239
100
AcDbEntity
 8
Layer8
100
AcDbLine
 39
0.25
 370
106
 10
210.2099
 20
486.091322460938
 30
0.0
 11
210.1919
 21
486.071322460937
 31
0.0
 0
LINE
 5
23A
100
AcDbEntity
 8
Layer8
100
AcDbLine
 39
0.25
 370
106
 10
210.1919
 20
486.071322460937
 30
0.0
 11
210.1919
 21
486.056322460938
 31
0.0
 0
LINE
 5
23B
100
AcDbEntity
 8
Layer8
100
AcDbLine
 39
0.25
 370
106
 10
210.1919
 20
486.056322460938
 30
0.0
 11
210.1919
 21
486.036322460938
 31
0.0
 0
LINE
 5
23C
100
AcDbEntity
 8
Layer8
100
AcDbLine
 39
0.25
 370
106
 10
210.1919
 20
486.036322460938
 30
0.0
 11
210.2099
 21
486.036322460938
 31
0.0
 0
LINE
 5
23D
100
AcDbEntity
 8
Layer8
100
AcDbLine
 39
0.25
 370
106
 10
210.2099
 20
486.036322460938
 30
0.0
 11
210.2629
 21
486.124322460937
 31
0.0
 0
LINE
 5
23E
100
AcDbEntity
 8
Layer8
100
AcDbLine
 39
0.25
 370
106
 10
210.2629
 20
486.124322460937
 30
0.0
 11
210.2629
 21
486.140322460938
 31
0.0
 0
LINE
 5
23F
100
AcDbEntity
 8
Layer8
100
AcDbLine
 39
0.25
 370
106
 10
210.1876
 20
486.119822460937
 30
0.0
 11
210.2416
 21
486.119822460937
 31
0.0
 0
LINE
 5
240
100
AcDbEntity
 8
Layer8
100
AcDbLine
 39
0.25
 370
106
 10
210.1746
 20
486.119822460937
 30
0.0
 11
210.2286
 21
486.119822460937
 31
0.0
 0
LINE
 5
241
100
AcDbEntity
 8
Layer8
100
AcDbLine
 39
0.25
 370
106
 10
210.1561
 20
486.164622460937
 30
0.0
 11
210.1351
 21
486.115622460938
 31
0.0
 0
LINE
 5
242
100
AcDbEntity
 8
Layer8
100
AcDbLine
 39
0.25
 370
106
 10
210.1351
 20
486.115622460938
 30
0.0
 11
210.1351
 21
486.095622460937
 31
0.0
 0
LINE
 5
243
100
AcDbEntity
 8
Layer8
100
AcDbLine
 39
0.25
 370
106
 10
210.1351
 20
486.095622460937
 30
0.0
 11
210.1171
 21
486.080622460937
 31
0.0
 0
LINE
 5
244
100
AcDbEntity
 8
Layer8
100
AcDbLine
 39
0.25
 370
106
 10
210.1171
 20
486.080622460937
 30
0.0
 11
210.1171
 21
486.060622460938
 31
0.0
 0
LINE
 5
245
100
AcDbEntity
 8
Layer8
100
AcDbLine
 39
0.25
 370
106
 10
210.1171
 20
486.060622460938
 30
0.0
 11
210.1561
 21
486.060622460938
 31
0.0
 0
LINE
 5
246
100
AcDbEntity
 8
Layer8
100
AcDbLine
 39
0.25
 370
106
 10
210.1561
 20
486.060622460938
 30
0.0
 11
210.2051
 21
486.148622460937
 31
0.0
 0
LINE
 5
247
100
AcDbEntity
 8
Layer8
100
AcDbLine
 39
0.25
 370
106
 10
210.2051
 20
486.148622460937
 30
0.0
 11
210.2051
 21
486.164622460937
 31
0.0
 0
LINE
 5
248
100
AcDbEntity
 8
Layer8
100
AcDbLine
 39
0.25
 370
106
 10
210.1561
 20
486.140322460938
 30
0.0
 11
210.1351
 21
486.091322460938
 31
0.0
 0
LINE
 5
249
100
AcDbEntity
 8
Layer8
100
AcDbLine
 39
0.25
 370
106
 10
210.1351
 20
486.091322460938
 30
0.0
 11
210.1351
 21
486.071322460937
 31
0.0
 0
LINE
 5
24A
100
AcDbEntity
 8
Layer8
100
AcDbLine
 39
0.25
 370
106
 10
210.1351
 20
486.071322460937
 30
0.0
 11
210.1171
 21
486.056322460938
 31
0.0
 0
LINE
 5
24B
100
AcDbEntity
 8
Layer8
100
AcDbLine
 39
0.25
 370
106
 10
210.1171
 20
486.056322460938
 30
0.0
 11
210.1171
 21
486.036322460938
 31
0.0
 0
LINE
 5
24C
100
AcDbEntity
 8
Layer8
100
AcDbLine
 39
0.25
 370
106
 10
210.1171
 20
486.036322460938
 30
0.0
 11
210.1561
 21
486.036322460938
 31
0.0
 0
LINE
 5
24D
100
AcDbEntity
 8
Layer8
100
AcDbLine
 39
0.25
 370
106
 10
210.1561
 20
486.036322460938
 30
0.0
 11
210.2051
 21
486.124322460937
 31
0.0
 0
LINE
 5
24E
100
AcDbEntity
 8
Layer8
100
AcDbLine
 39
0.25
 370
106
 10
210.2051
 20
486.124322460937
 30
0.0
 11
210.2051
 21
486.140322460938
 31
0.0
 0
LINE
 5
24F
100
AcDbEntity
 8
Layer8
100
AcDbLine
 39
0.25
 370
106
 10
210.1156
 20
486.119822460937
 30
0.0
 11
210.1686
 21
486.119822460937
 31
0.0
 0
LINE
 5
250
100
AcDbEntity
 8
Layer8
100
AcDbLine
 39
0.25
 370
106
 10
210.0871
 20
486.119822460937
 30
0.0
 11
210.1781
 21
486.119822460937
 31
0.0
 0
LINE
 5
251
100
AcDbEntity
 8
Layer8
100
AcDbLine
 39
0.25
 370
106
 10
210.0571
 20
486.164622460937
 30
0.0
 11
210.0571
 21
486.060622460938
 31
0.0
 0
LINE
 5
252
100
AcDbEntity
 8
Layer8
100
AcDbLine
 39
0.25
 370
106
 10
210.0571
 20
486.060622460938
 30
0.0
 11
210.0751
 21
486.060622460938
 31
0.0
 0
LINE
 5
253
100
AcDbEntity
 8
Layer8
100
AcDbLine
 39
0.25
 370
106
 10
210.0751
 20
486.060622460938
 30
0.0
 11
210.1201
 21
486.115622460938
 31
0.0
 0
LINE
 5
254
100
AcDbEntity
 8
Layer8
100
AcDbLine
 39
0.25
 370
106
 10
210.1201
 20
486.115622460938
 30
0.0
 11
210.1201
 21
486.164622460937
 31
0.0
 0
LINE
 5
255
100
AcDbEntity
 8
Layer8
100
AcDbLine
 39
0.25
 370
106
 10
210.0571
 20
486.140322460938
 30
0.0
 11
210.0571
 21
486.036322460938
 31
0.0
 0
LINE
 5
256
100
AcDbEntity
 8
Layer8
100
AcDbLine
 39
0.25
 370
106
 10
210.0571
 20
486.036322460938
 30
0.0
 11
210.0751
 21
486.036322460938
 31
0.0
 0
LINE
 5
257
100
AcDbEntity
 8
Layer8
100
AcDbLine
 39
0.25
 370
106
 10
210.0751
 20
486.036322460938
 30
0.0
 11
210.1201
 21
486.091322460938
 31
0.0
 0
LINE
 5
258
100
AcDbEntity
 8
Layer8
100
AcDbLine
 39
0.25
 370
106
 10
210.1201
 20
486.091322460938
 30
0.0
 11
210.1201
 21
486.140322460938
 31
0.0
 0
LINE
 5
259
100
AcDbEntity
 8
Layer8
100
AcDbLine
 39
0.25
 370
106
 10
210.0305
 20
486.119822460937
 30
0.0
 11
210.0795
 21
486.119822460937
 31
0.0
 0
LINE
 5
25A
100
AcDbEntity
 8
Layer8
100
AcDbLine
 39
0.25
 370
106
 10
210.0031
 20
486.119822460937
 30
0.0
 11
210.0871
 21
486.119822460937
 31
0.0
 0
LINE
 5
25B
100
AcDbEntity
 8
Layer8
100
AcDbLine
 39
0.25
 370
106
 10
209.9713
 20
486.164422460937
 30
0.0
 11
209.9713
 21
486.095422460937
 31
0.0
 0
LINE
 5
25C
100
AcDbEntity
 8
Layer8
100
AcDbLine
 39
0.25
 370
106
 10
209.9713
 20
486.095422460937
 30
0.0
 11
209.9503
 21
486.080422460937
 31
0.0
 0
LINE
 5
25D
100
AcDbEntity
 8
Layer8
100
AcDbLine
 39
0.25
 370
106
 10
209.9503
 20
486.080422460937
 30
0.0
 11
209.9503
 21
486.060422460938
 31
0.0
 0
LINE
 5
25E
100
AcDbEntity
 8
Layer8
100
AcDbLine
 39
0.25
 370
106
 10
209.9503
 20
486.060422460938
 30
0.0
 11
209.9873
 21
486.060422460938
 31
0.0
 0
LINE
 5
25F
100
AcDbEntity
 8
Layer8
100
AcDbLine
 39
0.25
 370
106
 10
209.9873
 20
486.060422460938
 30
0.0
 11
210.0043
 21
486.060422460938
 31
0.0
 0
LINE
 5
260
100
AcDbEntity
 8
Layer8
100
AcDbLine
 39
0.25
 370
106
 10
210.0043
 20
486.060422460938
 30
0.0
 11
210.0043
 21
486.080422460937
 31
0.0
 0
LINE
 5
261
100
AcDbEntity
 8
Layer8
100
AcDbLine
 39
0.25
 370
106
 10
210.0043
 20
486.080422460937
 30
0.0
 11
210.0393
 21
486.115422460938
 31
0.0
 0
LINE
 5
262
100
AcDbEntity
 8
Layer8
100
AcDbLine
 39
0.25
 370
106
 10
210.0393
 20
486.115422460938
 30
0.0
 11
210.0393
 21
486.164422460937
 31
0.0
 0
LINE
 5
263
100
AcDbEntity
 8
Layer8
100
AcDbLine
 39
0.25
 370
106
 10
209.9713
 20
486.140322460938
 30
0.0
 11
209.9713
 21
486.071322460937
 31
0.0
 0
LINE
 5
264
100
AcDbEntity
 8
Layer8
100
AcDbLine
 39
0.25
 370
106
 10
209.9713
 20
486.071322460937
 30
0.0
 11
209.9503
 21
486.056322460938
 31
0.0
 0
LINE
 5
265
100
AcDbEntity
 8
Layer8
100
AcDbLine
 39
0.25
 370
106
 10
209.9503
 20
486.056322460938
 30
0.0
 11
209.9503
 21
486.036322460938
 31
0.0
 0
LINE
 5
266
100
AcDbEntity
 8
Layer8
100
AcDbLine
 39
0.25
 370
106
 10
209.9503
 20
486.036322460938
 30
0.0
 11
209.9873
 21
486.036322460938
 31
0.0
 0
LINE
 5
267
100
AcDbEntity
 8
Layer8
100
AcDbLine
 39
0.25
 370
106
 10
209.9873
 20
486.036322460938
 30
0.0
 11
210.0043
 21
486.036322460938
 31
0.0
 0
LINE
 5
268
100
AcDbEntity
 8
Layer8
100
AcDbLine
 39
0.25
 370
106
 10
210.0043
 20
486.036322460938
 30
0.0
 11
210.0043
 21
486.056322460938
 31
0.0
 0
LINE
 5
269
100
AcDbEntity
 8
Layer8
100
AcDbLine
 39
0.25
 370
106
 10
210.0043
 20
486.056322460938
 30
0.0
 11
210.0393
 21
486.091322460938
 31
0.0
 0
LINE
 5
26A
100
AcDbEntity
 8
Layer8
100
AcDbLine
 39
0.25
 370
106
 10
210.0393
 20
486.091322460938
 30
0.0
 11
210.0393
 21
486.140322460938
 31
0.0
 0
LINE
 5
26B
100
AcDbEntity
 8
Layer8
100
AcDbLine
 39
0.25
 370
106
 10
209.9297
 20
486.119822460937
 30
0.0
 11
209.9907
 21
486.119822460937
 31
0.0
 0
LINE
 5
26C
100
AcDbEntity
 8
Layer8
100
AcDbLine
 39
0.25
 370
106
 10
209.8976
 20
486.119822460937
 30
0.0
 11
210.0046
 21
486.119822460937
 31
0.0
 0
LINE
 5
26D
100
AcDbEntity
 8
Layer8
100
AcDbLine
 39
0.25
 370
106
 10
209.8698
 20
486.164622460937
 30
0.0
 11
209.8518
 21
486.115622460938
 31
0.0
 0
LINE
 5
26E
100
AcDbEntity
 8
Layer8
100
AcDbLine
 39
0.25
 370
106
 10
209.8518
 20
486.115622460938
 30
0.0
 11
209.8518
 21
486.060622460938
 31
0.0
 0
LINE
 5
26F
100
AcDbEntity
 8
Layer8
100
AcDbLine
 39
0.25
 370
106
 10
209.8518
 20
486.060622460938
 30
0.0
 11
209.9088
 21
486.060622460938
 31
0.0
 0
LINE
 5
270
100
AcDbEntity
 8
Layer8
100
AcDbLine
 39
0.25
 370
106
 10
209.9088
 20
486.060622460938
 30
0.0
 11
209.9088
 21
486.080622460937
 31
0.0
 0
LINE
 5
271
100
AcDbEntity
 8
Layer8
100
AcDbLine
 39
0.25
 370
106
 10
209.9088
 20
486.080622460937
 30
0.0
 11
209.9378
 21
486.115622460938
 31
0.0
 0
LINE
 5
272
100
AcDbEntity
 8
Layer8
100
AcDbLine
 39
0.25
 370
106
 10
209.9378
 20
486.115622460938
 30
0.0
 11
209.9378
 21
486.164622460937
 31
0.0
 0
LINE
 5
273
100
AcDbEntity
 8
Layer8
100
AcDbLine
 39
0.25
 370
106
 10
209.8698
 20
486.140322460938
 30
0.0
 11
209.8518
 21
486.091322460938
 31
0.0
 0
LINE
 5
274
100
AcDbEntity
 8
Layer8
100
AcDbLine
 39
0.25
 370
106
 10
209.8518
 20
486.091322460938
 30
0.0
 11
209.8518
 21
486.036322460938
 31
0.0
 0
LINE
 5
275
100
AcDbEntity
 8
Layer8
100
AcDbLine
 39
0.25
 370
106
 10
209.8518
 20
486.036322460938
 30
0.0
 11
209.9088
 21
486.036322460938
 31
0.0
 0
LINE
 5
276
100
AcDbEntity
 8
Layer8
100
AcDbLine
 39
0.25
 370
106
 10
209.9088
 20
486.036322460938
 30
0.0
 11
209.9088
 21
486.056322460938
 31
0.0
 0
LINE
 5
277
100
AcDbEntity
 8
Layer8
100
AcDbLine
 39
0.25
 370
106
 10
209.9088
 20
486.056322460938
 30
0.0
 11
209.9378
 21
486.091322460938
 31
0.0
 0
LINE
 5
278
100
AcDbEntity
 8
Layer8
100
AcDbLine
 39
0.25
 370
106
 10
209.9378
 20
486.091322460938
 30
0.0
 11
209.9378
 21
486.140322460938
 31
0.0
 0
LINE
 5
279
100
AcDbEntity
 8
Layer8
100
AcDbLine
 39
0.25
 370
106
 10
209.8226
 20
486.119822460937
 30
0.0
 11
209.8896
 21
486.119822460937
 31
0.0
 0
LINE
 5
27A
100
AcDbEntity
 8
Layer8
100
AcDbLine
 39
0.25
 370
106
 10
209.7878
 20
486.119822460937
 30
0.0
 11
209.9058
 21
486.119822460937
 31
0.0
 0
LINE
 5
27B
100
AcDbEntity
 8
Layer8
100
AcDbLine
 39
0.25
 370
106
 10
209.7419
 20
486.164422460937
 30
0.0
 11
209.7419
 21
486.060422460938
 31
0.0
 0
LINE
 5
27C
100
AcDbEntity
 8
Layer8
100
AcDbLine
 39
0.25
 370
106
 10
209.7419
 20
486.060422460938
 30
0.0
 11
209.7959
 21
486.060422460938
 31
0.0
 0
LINE
 5
27D
100
AcDbEntity
 8
Layer8
100
AcDbLine
 39
0.25
 370
106
 10
209.7959
 20
486.060422460938
 30
0.0
 11
209.7959
 21
486.080422460937
 31
0.0
 0
LINE
 5
27E
100
AcDbEntity
 8
Layer8
100
AcDbLine
 39
0.25
 370
106
 10
209.7959
 20
486.080422460937
 30
0.0
 11
209.8329
 21
486.115422460938
 31
0.0
 0
LINE
 5
27F
100
AcDbEntity
 8
Layer8
100
AcDbLine
 39
0.25
 370
106
 10
209.8329
 20
486.115422460938
 30
0.0
 11
209.8329
 21
486.164422460937
 31
0.0
 0
LINE
 5
280
100
AcDbEntity
 8
Layer8
100
AcDbLine
 39
0.25
 370
106
 10
209.7419
 20
486.140322460938
 30
0.0
 11
209.7419
 21
486.036322460938
 31
0.0
 0
LINE
 5
281
100
AcDbEntity
 8
Layer8
100
AcDbLine
 39
0.25
 370
106
 10
209.7419
 20
486.036322460938
 30
0.0
 11
209.7959
 21
486.036322460938
 31
0.0
 0
LINE
 5
282
100
AcDbEntity
 8
Layer8
100
AcDbLine
 39
0.25
 370
106
 10
209.7959
 20
486.036322460938
 30
0.0
 11
209.7959
 21
486.056322460938
 31
0.0
 0
LINE
 5
283
100
AcDbEntity
 8
Layer8
100
AcDbLine
 39
0.25
 370
106
 10
209.7959
 20
486.056322460938
 30
0.0
 11
209.8329
 21
486.091322460938
 31
0.0
 0
LINE
 5
284
100
AcDbEntity
 8
Layer8
100
AcDbLine
 39
0.25
 370
106
 10
209.8329
 20
486.091322460938
 30
0.0
 11
209.8329
 21
486.140322460938
 31
0.0
 0
LINE
 5
285
100
AcDbEntity
 8
Layer8
100
AcDbLine
 39
0.25
 370
106
 10
209.7033
 20
486.119822460937
 30
0.0
 11
209.7703
 21
486.119822460937
 31
0.0
 0
LINE
 5
286
100
AcDbEntity
 8
Layer8
100
AcDbLine
 39
0.25
 370
106
 10
209.6687
 20
486.119822460937
 30
0.0
 11
209.7867
 21
486.119822460937
 31
0.0
 0
LINE
 5
287
100
AcDbEntity
 8
Layer8
100
AcDbLine
 39
0.25
 370
106
 10
209.6274
 20
486.164622460937
 30
0.0
 11
209.6274
 21
486.060622460938
 31
0.0
 0
LINE
 5
288
100
AcDbEntity
 8
Layer8
100
AcDbLine
 39
0.25
 370
106
 10
209.6274
 20
486.060622460938
 30
0.0
 11
209.6764
 21
486.060622460938
 31
0.0
 0
LINE
 5
289
100
AcDbEntity
 8
Layer8
100
AcDbLine
 39
0.25
 370
106
 10
209.6764
 20
486.060622460938
 30
0.0
 11
209.6954
 21
486.080622460937
 31
0.0
 0
LINE
 5
28A
100
AcDbEntity
 8
Layer8
100
AcDbLine
 39
0.25
 370
106
 10
209.6954
 20
486.080622460937
 30
0.0
 11
209.6954
 21
486.095622460937
 31
0.0
 0
LINE
 5
28B
100
AcDbEntity
 8
Layer8
100
AcDbLine
 39
0.25
 370
106
 10
209.6954
 20
486.095622460937
 30
0.0
 11
209.7114
 21
486.115622460938
 31
0.0
 0
LINE
 5
28C
100
AcDbEntity
 8
Layer8
100
AcDbLine
 39
0.25
 370
106
 10
209.7114
 20
486.115622460938
 30
0.0
 11
209.7114
 21
486.164622460937
 31
0.0
 0
LINE
 5
28D
100
AcDbEntity
 8
Layer8
100
AcDbLine
 39
0.25
 370
106
 10
209.6274
 20
486.140322460938
 30
0.0
 11
209.6274
 21
486.036322460938
 31
0.0
 0
LINE
 5
28E
100
AcDbEntity
 8
Layer8
100
AcDbLine
 39
0.25
 370
106
 10
209.6274
 20
486.036322460938
 30
0.0
 11
209.6764
 21
486.036322460938
 31
0.0
 0
LINE
 5
28F
100
AcDbEntity
 8
Layer8
100
AcDbLine
 39
0.25
 370
106
 10
209.6764
 20
486.036322460938
 30
0.0
 11
209.6954
 21
486.056322460938
 31
0.0
 0
LINE
 5
290
100
AcDbEntity
 8
Layer8
100
AcDbLine
 39
0.25
 370
106
 10
209.6954
 20
486.056322460938
 30
0.0
 11
209.6954
 21
486.071322460937
 31
0.0
 0
LINE
 5
291
100
AcDbEntity
 8
Layer8
100
AcDbLine
 39
0.25
 370
106
 10
209.6954
 20
486.071322460937
 30
0.0
 11
209.7114
 21
486.091322460938
 31
0.0
 0
LINE
 5
292
100
AcDbEntity
 8
Layer8
100
AcDbLine
 39
0.25
 370
106
 10
209.7114
 20
486.091322460938
 30
0.0
 11
209.7114
 21
486.140322460938
 31
0.0
 0
LINE
 5
293
100
AcDbEntity
 8
Layer8
100
AcDbLine
 39
0.25
 370
106
 10
209.5842
 20
486.119822460937
 30
0.0
 11
209.6542
 21
486.119822460937
 31
0.0
 0
LINE
 5
294
100
AcDbEntity
 8
Layer8
100
AcDbLine
 39
0.25
 370
106
 10
209.5482
 20
486.119822460937
 30
0.0
 11
209.6712
 21
486.119822460937
 31
0.0
 0
LINE
 5
295
100
AcDbEntity
 8
Layer8
100
AcDbLine
 39
0.25
 370
106
 10
209.4953
 20
486.164622460937
 30
0.0
 11
209.4953
 21
486.080622460937
 31
0.0
 0
LINE
 5
296
100
AcDbEntity
 8
Layer8
100
AcDbLine
 39
0.25
 370
106
 10
209.4953
 20
486.080622460937
 30
0.0
 11
209.5633
 21
486.060622460938
 31
0.0
 0
LINE
 5
297
100
AcDbEntity
 8
Layer8
100
AcDbLine
 39
0.25
 370
106
 10
209.5633
 20
486.060622460938
 30
0.0
 11
209.5973
 21
486.164622460937
 31
0.0
 0
LINE
 5
298
100
AcDbEntity
 8
Layer8
100
AcDbLine
 39
0.25
 370
106
 10
209.4953
 20
486.140322460938
 30
0.0
 11
209.4953
 21
486.056322460938
 31
0.0
 0
LINE
 5
299
100
AcDbEntity
 8
Layer8
100
AcDbLine
 39
0.25
 370
106
 10
209.4953
 20
486.056322460938
 30
0.0
 11
209.5633
 21
486.036322460938
 31
0.0
 0
LINE
 5
29A
100
AcDbEntity
 8
Layer8
100
AcDbLine
 39
0.25
 370
106
 10
209.5633
 20
486.036322460938
 30
0.0
 11
209.5973
 21
486.140322460938
 31
0.0
 0
LINE
 5
29B
100
AcDbEntity
 8
Layer8
100
AcDbLine
 39
0.25
 370
106
 10
209.4563
 20
486.119822460937
 30
0.0
 11
209.5263
 21
486.119822460937
 31
0.0
 0
LINE
 5
29C
100
AcDbEntity
 8
Layer8
100
AcDbLine
 39
0.25
 370
106
 10
209.4203
 20
486.119822460937
 30
0.0
 11
209.5433
 21
486.119822460937
 31
0.0
 0
LINE
 5
29D
100
AcDbEntity
 8
Layer8
100
AcDbLine
 39
0.25
 370
106
 10
209.3671
 20
486.164622460937
 30
0.0
 11
209.3671
 21
486.080622460937
 31
0.0
 0
LINE
 5
29E
100
AcDbEntity
 8
Layer8
100
AcDbLine
 39
0.25
 370
106
 10
209.3671
 20
486.080622460937
 30
0.0
 11
209.4351
 21
486.060622460938
 31
0.0
 0
LINE
 5
29F
100
AcDbEntity
 8
Layer8
100
AcDbLine
 39
0.25
 370
106
 10
209.4351
 20
486.060622460938
 30
0.0
 11
209.4691
 21
486.164622460937
 31
0.0
 0
LINE
 5
2A0
100
AcDbEntity
 8
Layer8
100
AcDbLine
 39
0.25
 370
106
 10
209.3671
 20
486.140322460938
 30
0.0
 11
209.3671
 21
486.056322460938
 31
0.0
 0
LINE
 5
2A1
100
AcDbEntity
 8
Layer8
100
AcDbLine
 39
0.25
 370
106
 10
209.3671
 20
486.056322460938
 30
0.0
 11
209.4351
 21
486.036322460938
 31
0.0
 0
LINE
 5
2A2
100
AcDbEntity
 8
Layer8
100
AcDbLine
 39
0.25
 370
106
 10
209.4351
 20
486.036322460938
 30
0.0
 11
209.4691
 21
486.140322460938
 31
0.0
 0
LINE
 5
2A3
100
AcDbEntity
 8
Layer8
100
AcDbLine
 39
0.25
 370
106
 10
209.3183
 20
486.119822460937
 30
0.0
 11
209.3973
 21
486.119822460937
 31
0.0
 0
LINE
 5
2A4
100
AcDbEntity
 8
Layer8
100
AcDbLine
 39
0.25
 370
106
 10
209.3445
 20
486.119822460937
 30
0.0
 11
209.3495
 21
486.119822460937
 31
0.0
 0
LINE
 5
2A5
100
AcDbEntity
 8
Layer8
100
AcDbLine
 39
0.25
 370
106
 10
209.2428
 20
486.164622460937
 30
0.0
 11
209.2428
 21
486.080622460937
 31
0.0
 0
LINE
 5
2A6
100
AcDbEntity
 8
Layer8
100
AcDbLine
 39
0.25
 370
106
 10
209.2428
 20
486.080622460937
 30
0.0
 11
209.2608
 21
486.060622460938
 31
0.0
 0
LINE
 5
2A7
100
AcDbEntity
 8
Layer8
100
AcDbLine
 39
0.25
 370
106
 10
209.2608
 20
486.060622460938
 30
0.0
 11
209.3108
 21
486.060622460938
 31
0.0
 0
LINE
 5
2A8
100
AcDbEntity
 8
Layer8
100
AcDbLine
 39
0.25
 370
106
 10
209.3108
 20
486.060622460938
 30
0.0
 11
209.3108
 21
486.080622460937
 31
0.0
 0
LINE
 5
2A9
100
AcDbEntity
 8
Layer8
100
AcDbLine
 39
0.25
 370
106
 10
209.3108
 20
486.080622460937
 30
0.0
 11
209.3288
 21
486.095622460937
 31
0.0
 0
LINE
 5
2AA
100
AcDbEntity
 8
Layer8
100
AcDbLine
 39
0.25
 370
106
 10
209.3288
 20
486.095622460937
 30
0.0
 11
209.3288
 21
486.164622460937
 31
0.0
 0
LINE
 5
2AB
100
AcDbEntity
 8
Layer8
100
AcDbLine
 39
0.25
 370
106
 10
209.2428
 20
486.140322460938
 30
0.0
 11
209.2428
 21
486.056322460938
 31
0.0
 0
LINE
 5
2AC
100
AcDbEntity
 8
Layer8
100
AcDbLine
 39
0.25
 370
106
 10
209.2428
 20
486.056322460938
 30
0.0
 11
209.2608
 21
486.036322460938
 31
0.0
 0
LINE
 5
2AD
100
AcDbEntity
 8
Layer8
100
AcDbLine
 39
0.25
 370
106
 10
209.2608
 20
486.036322460938
 30
0.0
 11
209.3108
 21
486.036322460938
 31
0.0
 0
LINE
 5
2AE
100
AcDbEntity
 8
Layer8
100
AcDbLine
 39
0.25
 370
106
 10
209.3108
 20
486.036322460938
 30
0.0
 11
209.3108
 21
486.056322460938
 31
0.0
 0
LINE
 5
2AF
100
AcDbEntity
 8
Layer8
100
AcDbLine
 39
0.25
 370
106
 10
209.3108
 20
486.056322460938
 30
0.0
 11
209.3288
 21
486.071322460937
 31
0.0
 0
LINE
 5
2B0
100
AcDbEntity
 8
Layer8
100
AcDbLine
 39
0.25
 370
106
 10
209.3288
 20
486.071322460937
 30
0.0
 11
209.3288
 21
486.140322460938
 31
0.0
 0
LINE
 5
2B1
100
AcDbEntity
 8
Layer8
100
AcDbLine
 39
0.25
 370
106
 10
209.1901
 20
486.119822460937
 30
0.0
 11
209.2691
 21
486.119822460937
 31
0.0
 0
LINE
 5
2B2
100
AcDbEntity
 8
Layer8
100
AcDbLine
 39
0.25
 370
106
 10
209.2157
 20
486.119822460937
 30
0.0
 11
209.2207
 21
486.119822460937
 31
0.0
 0
LINE
 5
2B3
100
AcDbEntity
 8
Layer8
100
AcDbLine
 39
0.25
 370
106
 10
209.1013
 20
486.164622460937
 30
0.0
 11
209.1173
 21
486.080622460937
 31
0.0
 0
LINE
 5
2B4
100
AcDbEntity
 8
Layer8
100
AcDbLine
 39
0.25
 370
106
 10
209.1173
 20
486.080622460937
 30
0.0
 11
209.1503
 21
486.060622460938
 31
0.0
 0
LINE
 5
2B5
100
AcDbEntity
 8
Layer8
100
AcDbLine
 39
0.25
 370
106
 10
209.1503
 20
486.060622460938
 30
0.0
 11
209.1853
 21
486.060622460938
 31
0.0
 0
LINE
 5
2B6
100
AcDbEntity
 8
Layer8
100
AcDbLine
 39
0.25
 370
106
 10
209.1853
 20
486.060622460938
 30
0.0
 11
209.2033
 21
486.095622460937
 31
0.0
 0
LINE
 5
2B7
100
AcDbEntity
 8
Layer8
100
AcDbLine
 39
0.25
 370
106
 10
209.2033
 20
486.095622460937
 30
0.0
 11
209.2033
 21
486.164622460937
 31
0.0
 0
LINE
 5
2B8
100
AcDbEntity
 8
Layer8
100
AcDbLine
 39
0.25
 370
106
 10
209.1013
 20
486.140322460938
 30
0.0
 11
209.1173
 21
486.056322460938
 31
0.0
 0
LINE
 5
2B9
100
AcDbEntity
 8
Layer8
100
AcDbLine
 39
0.25
 370
106
 10
209.1173
 20
486.056322460938
 30
0.0
 11
209.1503
 21
486.036322460938
 31
0.0
 0
LINE
 5
2BA
100
AcDbEntity
 8
Layer8
100
AcDbLine
 39
0.25
 370
106
 10
209.1503
 20
486.036322460938
 30
0.0
 11
209.1853
 21
486.036322460938
 31
0.0
 0
LINE
 5
2BB
100
AcDbEntity
 8
Layer8
100
AcDbLine
 39
0.25
 370
106
 10
209.1853
 20
486.036322460938
 30
0.0
 11
209.2033
 21
486.071322460937
 31
0.0
 0
LINE
 5
2BC
100
AcDbEntity
 8
Layer8
100
AcDbLine
 39
0.25
 370
106
 10
209.2033
 20
486.071322460937
 30
0.0
 11
209.2033
 21
486.140322460938
 31
0.0
 0
LINE
 5
2BD
100
AcDbEntity
 8
Layer8
100
AcDbLine
 39
0.25
 370
106
 10
209.0618
 20
486.119822460937
 30
0.0
 11
209.1318
 21
486.119822460937
 31
0.0
 0
LINE
 5
2BE
100
AcDbEntity
 8
Layer8
100
AcDbLine
 39
0.25
 370
106
 10
209.0267
 20
486.119822460937
 30
0.0
 11
209.1497
 21
486.119822460937
 31
0.0
 0
LINE
 5
2BF
100
AcDbEntity
 8
Layer8
100
AcDbLine
 39
0.25
 370
106
 10
208.9693
 20
486.164422460937
 30
0.0
 11
208.9903
 21
486.080422460937
 31
0.0
 0
LINE
 5
2C0
100
AcDbEntity
 8
Layer8
100
AcDbLine
 39
0.25
 370
106
 10
208.9903
 20
486.080422460937
 30
0.0
 11
209.0603
 21
486.060422460938
 31
0.0
 0
LINE
 5
2C1
100
AcDbEntity
 8
Layer8
100
AcDbLine
 39
0.25
 370
106
 10
209.0603
 20
486.060422460938
 30
0.0
 11
209.0763
 21
486.164422460937
 31
0.0
 0
LINE
 5
2C2
100
AcDbEntity
 8
Layer8
100
AcDbLine
 39
0.25
 370
106
 10
208.9693
 20
486.140322460938
 30
0.0
 11
208.9903
 21
486.056322460938
 31
0.0
 0
LINE
 5
2C3
100
AcDbEntity
 8
Layer8
100
AcDbLine
 39
0.25
 370
106
 10
208.9903
 20
486.056322460938
 30
0.0
 11
209.0603
 21
486.036322460938
 31
0.0
 0
LINE
 5
2C4
100
AcDbEntity
 8
Layer8
100
AcDbLine
 39
0.25
 370
106
 10
209.0603
 20
486.036322460938
 30
0.0
 11
209.0763
 21
486.140322460938
 31
0.0
 0
LINE
 5
2C5
100
AcDbEntity
 8
Layer8
100
AcDbLine
 39
0.25
 370
106
 10
208.9336
 20
486.119822460937
 30
0.0
 11
209.0006
 21
486.119822460937
 31
0.0
 0
LINE
 5
2C6
100
AcDbEntity
 8
Layer8
100
AcDbLine
 39
0.25
 370
106
 10
208.8994
 20
486.119822460937
 30
0.0
 11
209.0174
 21
486.119822460937
 31
0.0
 0
LINE
 5
2C7
100
AcDbEntity
 8
Layer8
100
AcDbLine
 39
0.25
 370
106
 10
208.8581
 20
486.164622460937
 30
0.0
 11
208.8581
 21
486.095622460937
 31
0.0
 0
LINE
 5
2C8
100
AcDbEntity
 8
Layer8
100
AcDbLine
 39
0.25
 370
106
 10
208.8581
 20
486.095622460937
 30
0.0
 11
208.8911
 21
486.060622460938
 31
0.0
 0
LINE
 5
2C9
100
AcDbEntity
 8
Layer8
100
AcDbLine
 39
0.25
 370
106
 10
208.8911
 20
486.060622460938
 30
0.0
 11
208.9261
 21
486.060622460938
 31
0.0
 0
LINE
 5
2CA
100
AcDbEntity
 8
Layer8
100
AcDbLine
 39
0.25
 370
106
 10
208.9261
 20
486.060622460938
 30
0.0
 11
208.9421
 21
486.060622460938
 31
0.0
 0
LINE
 5
2CB
100
AcDbEntity
 8
Layer8
100
AcDbLine
 39
0.25
 370
106
 10
208.9421
 20
486.060622460938
 30
0.0
 11
208.9421
 21
486.164622460937
 31
0.0
 0
LINE
 5
2CC
100
AcDbEntity
 8
Layer8
100
AcDbLine
 39
0.25
 370
106
 10
208.8581
 20
486.140322460938
 30
0.0
 11
208.8581
 21
486.071322460937
 31
0.0
 0
LINE
 5
2CD
100
AcDbEntity
 8
Layer8
100
AcDbLine
 39
0.25
 370
106
 10
208.8581
 20
486.071322460937
 30
0.0
 11
208.8911
 21
486.036322460938
 31
0.0
 0
LINE
 5
2CE
100
AcDbEntity
 8
Layer8
100
AcDbLine
 39
0.25
 370
106
 10
208.8911
 20
486.036322460938
 30
0.0
 11
208.9261
 21
486.036322460938
 31
0.0
 0
LINE
 5
2CF
100
AcDbEntity
 8
Layer8
100
AcDbLine
 39
0.25
 370
106
 10
208.9261
 20
486.036322460938
 30
0.0
 11
208.9421
 21
486.036322460938
 31
0.0
 0
LINE
 5
2D0
100
AcDbEntity
 8
Layer8
100
AcDbLine
 39
0.25
 370
106
 10
208.9421
 20
486.036322460938
 30
0.0
 11
208.9421
 21
486.140322460938
 31
0.0
 0
LINE
 5
2D1
100
AcDbEntity
 8
Layer8
100
AcDbLine
 39
0.25
 370
106
 10
208.8143
 20
486.119822460937
 30
0.0
 11
208.8843
 21
486.119822460937
 31
0.0
 0
LINE
 5
2D2
100
AcDbEntity
 8
Layer8
100
AcDbLine
 39
0.25
 370
106
 10
208.7789
 20
486.119822460937
 30
0.0
 11
208.9019
 21
486.119822460937
 31
0.0
 0
LINE
 5
2D3
100
AcDbEntity
 8
Layer8
100
AcDbLine
 39
0.25
 370
106
 10
208.7393
 20
486.164422460937
 30
0.0
 11
208.7393
 21
486.115422460938
 31
0.0
 0
LINE
 5
2D4
100
AcDbEntity
 8
Layer8
100
AcDbLine
 39
0.25
 370
106
 10
208.7393
 20
486.115422460938
 30
0.0
 11
208.7603
 21
486.095422460937
 31
0.0
 0
LINE
 5
2D5
100
AcDbEntity
 8
Layer8
100
AcDbLine
 39
0.25
 370
106
 10
208.7603
 20
486.095422460937
 30
0.0
 11
208.7603
 21
486.080422460937
 31
0.0
 0
LINE
 5
2D6
100
AcDbEntity
 8
Layer8
100
AcDbLine
 39
0.25
 370
106
 10
208.7603
 20
486.080422460937
 30
0.0
 11
208.7783
 21
486.060422460938
 31
0.0
 0
LINE
 5
2D7
100
AcDbEntity
 8
Layer8
100
AcDbLine
 39
0.25
 370
106
 10
208.7783
 20
486.060422460938
 30
0.0
 11
208.8073
 21
486.060422460938
 31
0.0
 0
LINE
 5
2D8
100
AcDbEntity
 8
Layer8
100
AcDbLine
 39
0.25
 370
106
 10
208.8073
 20
486.060422460938
 30
0.0
 11
208.8233
 21
486.060422460938
 31
0.0
 0
LINE
 5
2D9
100
AcDbEntity
 8
Layer8
100
AcDbLine
 39
0.25
 370
106
 10
208.8233
 20
486.060422460938
 30
0.0
 11
208.8233
 21
486.164422460937
 31
0.0
 0
LINE
 5
2DA
100
AcDbEntity
 8
Layer8
100
AcDbLine
 39
0.25
 370
106
 10
208.7393
 20
486.140322460938
 30
0.0
 11
208.7393
 21
486.091322460938
 31
0.0
 0
LINE
 5
2DB
100
AcDbEntity
 8
Layer8
100
AcDbLine
 39
0.25
 370
106
 10
208.7393
 20
486.091322460938
 30
0.0
 11
208.7603
 21
486.071322460937
 31
0.0
 0
LINE
 5
2DC
100
AcDbEntity
 8
Layer8
100
AcDbLine
 39
0.25
 370
106
 10
208.7603
 20
486.071322460937
 30
0.0
 11
208.7603
 21
486.056322460938
 31
0.0
 0
LINE
 5
2DD
100
AcDbEntity
 8
Layer8
100
AcDbLine
 39
0.25
 370
106
 10
208.7603
 20
486.056322460938
 30
0.0
 11
208.7783
 21
486.036322460938
 31
0.0
 0
LINE
 5
2DE
100
AcDbEntity
 8
Layer8
100
AcDbLine
 39
0.25
 370
106
 10
208.7783
 20
486.036322460938
 30
0.0
 11
208.8073
 21
486.036322460938
 31
0.0
 0
LINE
 5
2DF
100
AcDbEntity
 8
Layer8
100
AcDbLine
 39
0.25
 370
106
 10
208.8073
 20
486.036322460938
 30
0.0
 11
208.8233
 21
486.036322460938
 31
0.0
 0
LINE
 5
2E0
100
AcDbEntity
 8
Layer8
100
AcDbLine
 39
0.25
 370
106
 10
208.8233
 20
486.036322460938
 30
0.0
 11
208.8233
 21
486.140322460938
 31
0.0
 0
LINE
 5
2E1
100
AcDbEntity
 8
Layer8
100
AcDbLine
 39
0.25
 370
106
 10
208.6986
 20
486.119822460937
 30
0.0
 11
208.7656
 21
486.119822460937
 31
0.0
 0
LINE
 5
2E2
100
AcDbEntity
 8
Layer8
100
AcDbLine
 39
0.25
 370
106
 10
208.6643
 20
486.119822460937
 30
0.0
 11
208.7823
 21
486.119822460937
 31
0.0
 0
LINE
 5
2E3
100
AcDbEntity
 8
Layer8
100
AcDbLine
 39
0.25
 370
106
 10
208.6322
 20
486.164622460937
 30
0.0
 11
208.6322
 21
486.115622460938
 31
0.0
 0
LINE
 5
2E4
100
AcDbEntity
 8
Layer8
100
AcDbLine
 39
0.25
 370
106
 10
208.6322
 20
486.115622460938
 30
0.0
 11
208.6482
 21
486.095622460937
 31
0.0
 0
LINE
 5
2E5
100
AcDbEntity
 8
Layer8
100
AcDbLine
 39
0.25
 370
106
 10
208.6482
 20
486.095622460937
 30
0.0
 11
208.6482
 21
486.080622460937
 31
0.0
 0
LINE
 5
2E6
100
AcDbEntity
 8
Layer8
100
AcDbLine
 39
0.25
 370
106
 10
208.6482
 20
486.080622460937
 30
0.0
 11
208.6652
 21
486.060622460938
 31
0.0
 0
LINE
 5
2E7
100
AcDbEntity
 8
Layer8
100
AcDbLine
 39
0.25
 370
106
 10
208.6652
 20
486.060622460938
 30
0.0
 11
208.7002
 21
486.060622460938
 31
0.0
 0
LINE
 5
2E8
100
AcDbEntity
 8
Layer8
100
AcDbLine
 39
0.25
 370
106
 10
208.7002
 20
486.060622460938
 30
0.0
 11
208.7162
 21
486.060622460938
 31
0.0
 0
LINE
 5
2E9
100
AcDbEntity
 8
Layer8
100
AcDbLine
 39
0.25
 370
106
 10
208.7162
 20
486.060622460938
 30
0.0
 11
208.7162
 21
486.115622460938
 31
0.0
 0
LINE
 5
2EA
100
AcDbEntity
 8
Layer8
100
AcDbLine
 39
0.25
 370
106
 10
208.7162
 20
486.115622460938
 30
0.0
 11
208.7002
 21
486.164622460937
 31
0.0
 0
LINE
 5
2EB
100
AcDbEntity
 8
Layer8
100
AcDbLine
 39
0.25
 370
106
 10
208.6322
 20
486.140322460938
 30
0.0
 11
208.6322
 21
486.091322460938
 31
0.0
 0
LINE
 5
2EC
100
AcDbEntity
 8
Layer8
100
AcDbLine
 39
0.25
 370
106
 10
208.6322
 20
486.091322460938
 30
0.0
 11
208.6482
 21
486.071322460937
 31
0.0
 0
LINE
 5
2ED
100
AcDbEntity
 8
Layer8
100
AcDbLine
 39
0.25
 370
106
 10
208.6482
 20
486.071322460937
 30
0.0
 11
208.6482
 21
486.056322460938
 31
0.0
 0
LINE
 5
2EE
100
AcDbEntity
 8
Layer8
100
AcDbLine
 39
0.25
 370
106
 10
208.6482
 20
486.056322460938
 30
0.0
 11
208.6652
 21
486.036322460938
 31
0.0
 0
LINE
 5
2EF
100
AcDbEntity
 8
Layer8
100
AcDbLine
 39
0.25
 370
106
 10
208.6652
 20
486.036322460938
 30
0.0
 11
208.7002
 21
486.036322460938
 31
0.0
 0
LINE
 5
2F0
100
AcDbEntity
 8
Layer8
100
AcDbLine
 39
0.25
 370
106
 10
208.7002
 20
486.036322460938
 30
0.0
 11
208.7162
 21
486.036322460938
 31
0.0
 0
LINE
 5
2F1
100
AcDbEntity
 8
Layer8
100
AcDbLine
 39
0.25
 370
106
 10
208.7162
 20
486.036322460938
 30
0.0
 11
208.7162
 21
486.091322460938
 31
0.0
 0
LINE
 5
2F2
100
AcDbEntity
 8
Layer8
100
AcDbLine
 39
0.25
 370
106
 10
208.7162
 20
486.091322460938
 30
0.0
 11
208.7002
 21
486.140322460938
 31
0.0
 0
LINE
 5
2F3
100
AcDbEntity
 8
Layer8
100
AcDbLine
 39
0.25
 370
106
 10
208.5906
 20
486.119822460937
 30
0.0
 11
208.6976
 21
486.119822460937
 31
0.0
 0
LINE
 5
2F4
100
AcDbEntity
 8
Layer8
100
AcDbLine
 39
0.25
 370
106
 10
208.5656
 20
486.119822460937
 30
0.0
 11
208.6726
 21
486.119822460937
 31
0.0
 0
LINE
 5
2F5
100
AcDbEntity
 8
Layer8
100
AcDbLine
 39
0.25
 370
106
 10
208.5352
 20
486.164422460937
 30
0.0
 11
208.5352
 21
486.115422460938
 31
0.0
 0
LINE
 5
2F6
100
AcDbEntity
 8
Layer8
100
AcDbLine
 39
0.25
 370
106
 10
208.5352
 20
486.115422460938
 30
0.0
 11
208.5562
 21
486.095422460937
 31
0.0
 0
LINE
 5
2F7
100
AcDbEntity
 8
Layer8
100
AcDbLine
 39
0.25
 370
106
 10
208.5562
 20
486.095422460937
 30
0.0
 11
208.5562
 21
486.080422460937
 31
0.0
 0
LINE
 5
2F8
100
AcDbEntity
 8
Layer8
100
AcDbLine
 39
0.25
 370
106
 10
208.5562
 20
486.080422460937
 30
0.0
 11
208.5742
 21
486.060422460938
 31
0.0
 0
LINE
 5
2F9
100
AcDbEntity
 8
Layer8
100
AcDbLine
 39
0.25
 370
106
 10
208.5742
 20
486.060422460938
 30
0.0
 11
208.6032
 21
486.060422460938
 31
0.0
 0
LINE
 5
2FA
100
AcDbEntity
 8
Layer8
100
AcDbLine
 39
0.25
 370
106
 10
208.6032
 20
486.060422460938
 30
0.0
 11
208.6032
 21
486.164422460937
 31
0.0
 0
LINE
 5
2FB
100
AcDbEntity
 8
Layer8
100
AcDbLine
 39
0.25
 370
106
 10
208.5352
 20
486.140322460938
 30
0.0
 11
208.5352
 21
486.091322460938
 31
0.0
 0
LINE
 5
2FC
100
AcDbEntity
 8
Layer8
100
AcDbLine
 39
0.25
 370
106
 10
208.5352
 20
486.091322460938
 30
0.0
 11
208.5562
 21
486.071322460937
 31
0.0
 0
LINE
 5
2FD
100
AcDbEntity
 8
Layer8
100
AcDbLine
 39
0.25
 370
106
 10
208.5562
 20
486.071322460937
 30
0.0
 11
208.5562
 21
486.056322460938
 31
0.0
 0
LINE
 5
2FE
100
AcDbEntity
 8
Layer8
100
AcDbLine
 39
0.25
 370
106
 10
208.5562
 20
486.056322460938
 30
0.0
 11
208.5742
 21
486.036322460938
 31
0.0
 0
LINE
 5
2FF
100
AcDbEntity
 8
Layer8
100
AcDbLine
 39
0.25
 370
106
 10
208.5742
 20
486.036322460938
 30
0.0
 11
208.6032
 21
486.036322460938
 31
0.0
 0
LINE
 5
300
100
AcDbEntity
 8
Layer8
100
AcDbLine
 39
0.25
 370
106
 10
208.6032
 20
486.036322460938
 30
0.0
 11
208.6032
 21
486.140322460938
 31
0.0
 0
LINE
 5
301
100
AcDbEntity
 8
Layer8
100
AcDbLine
 39
0.25
 370
106
 10
208.4996
 20
486.119822460937
 30
0.0
 11
208.5576
 21
486.119822460937
 31
0.0
 0
LINE
 5
302
100
AcDbEntity
 8
Layer8
100
AcDbLine
 39
0.25
 370
106
 10
208.4695
 20
486.119822460937
 30
0.0
 11
208.5715
 21
486.119822460937
 31
0.0
 0
LINE
 5
303
100
AcDbEntity
 8
Layer8
100
AcDbLine
 39
0.25
 370
106
 10
208.4469
 20
486.164422460937
 30
0.0
 11
208.4469
 21
486.115422460938
 31
0.0
 0
LINE
 5
304
100
AcDbEntity
 8
Layer8
100
AcDbLine
 39
0.25
 370
106
 10
208.4469
 20
486.115422460938
 30
0.0
 11
208.4859
 21
486.080422460937
 31
0.0
 0
LINE
 5
305
100
AcDbEntity
 8
Layer8
100
AcDbLine
 39
0.25
 370
106
 10
208.4859
 20
486.080422460937
 30
0.0
 11
208.4859
 21
486.060422460938
 31
0.0
 0
LINE
 5
306
100
AcDbEntity
 8
Layer8
100
AcDbLine
 39
0.25
 370
106
 10
208.4859
 20
486.060422460938
 30
0.0
 11
208.5149
 21
486.060422460938
 31
0.0
 0
LINE
 5
307
100
AcDbEntity
 8
Layer8
100
AcDbLine
 39
0.25
 370
106
 10
208.5149
 20
486.060422460938
 30
0.0
 11
208.5149
 21
486.115422460938
 31
0.0
 0
LINE
 5
308
100
AcDbEntity
 8
Layer8
100
AcDbLine
 39
0.25
 370
106
 10
208.5149
 20
486.115422460938
 30
0.0
 11
208.4999
 21
486.164422460937
 31
0.0
 0
LINE
 5
309
100
AcDbEntity
 8
Layer8
100
AcDbLine
 39
0.25
 370
106
 10
208.4469
 20
486.140322460938
 30
0.0
 11
208.4469
 21
486.091322460938
 31
0.0
 0
LINE
 5
30A
100
AcDbEntity
 8
Layer8
100
AcDbLine
 39
0.25
 370
106
 10
208.4469
 20
486.091322460938
 30
0.0
 11
208.4859
 21
486.056322460938
 31
0.0
 0
LINE
 5
30B
100
AcDbEntity
 8
Layer8
100
AcDbLine
 39
0.25
 370
106
 10
208.4859
 20
486.056322460938
 30
0.0
 11
208.4859
 21
486.036322460938
 31
0.0
 0
LINE
 5
30C
100
AcDbEntity
 8
Layer8
100
AcDbLine
 39
0.25
 370
106
 10
208.4859
 20
486.036322460938
 30
0.0
 11
208.5149
 21
486.036322460938
 31
0.0
 0
LINE
 5
30D
100
AcDbEntity
 8
Layer8
100
AcDbLine
 39
0.25
 370
106
 10
208.5149
 20
486.036322460938
 30
0.0
 11
208.5149
 21
486.091322460938
 31
0.0
 0
LINE
 5
30E
100
AcDbEntity
 8
Layer8
100
AcDbLine
 39
0.25
 370
106
 10
208.5149
 20
486.091322460938
 30
0.0
 11
208.4999
 21
486.140322460938
 31
0.0
 0
LINE
 5
30F
100
AcDbEntity
 8
Layer8
100
AcDbLine
 39
0.25
 370
106
 10
208.4203
 20
486.119822460937
 30
0.0
 11
208.4693
 21
486.119822460937
 31
0.0
 0
LINE
 5
310
100
AcDbEntity
 8
Layer8
100
AcDbLine
 39
0.25
 370
106
 10
208.3942
 20
486.119822460937
 30
0.0
 11
208.4782
 21
486.119822460937
 31
0.0
 0
LINE
 5
311
100
AcDbEntity
 8
Layer8
100
AcDbLine
 39
0.25
 370
106
 10
208.2753
 20
486.164622460937
 30
0.0
 11
208.2963
 21
486.115622460938
 31
0.0
 0
LINE
 5
312
100
AcDbEntity
 8
Layer8
100
AcDbLine
 39
0.25
 370
106
 10
208.2963
 20
486.115622460938
 30
0.0
 11
208.2963
 21
486.095622460937
 31
0.0
 0
LINE
 5
313
100
AcDbEntity
 8
Layer8
100
AcDbLine
 39
0.25
 370
106
 10
208.2963
 20
486.095622460937
 30
0.0
 11
208.3293
 21
486.060622460938
 31
0.0
 0
LINE
 5
314
100
AcDbEntity
 8
Layer8
100
AcDbLine
 39
0.25
 370
106
 10
208.3293
 20
486.060622460938
 30
0.0
 11
208.3433
 21
486.060622460938
 31
0.0
 0
LINE
 5
315
100
AcDbEntity
 8
Layer8
100
AcDbLine
 39
0.25
 370
106
 10
208.3433
 20
486.060622460938
 30
0.0
 11
208.3663
 21
486.060622460938
 31
0.0
 0
LINE
 5
316
100
AcDbEntity
 8
Layer8
100
AcDbLine
 39
0.25
 370
106
 10
208.3663
 20
486.060622460938
 30
0.0
 11
208.3433
 21
486.080622460937
 31
0.0
 0
LINE
 5
317
100
AcDbEntity
 8
Layer8
100
AcDbLine
 39
0.25
 370
106
 10
208.3433
 20
486.080622460937
 30
0.0
 11
208.3433
 21
486.115622460938
 31
0.0
 0
LINE
 5
318
100
AcDbEntity
 8
Layer8
100
AcDbLine
 39
0.25
 370
106
 10
208.3433
 20
486.115622460938
 30
0.0
 11
208.3293
 21
486.164622460937
 31
0.0
 0
LINE
 5
319
100
AcDbEntity
 8
Layer8
100
AcDbLine
 39
0.25
 370
106
 10
208.3624
 20
486.140322460938
 30
0.0
 11
208.3834
 21
486.091322460938
 31
0.0
 0
LINE
 5
31A
100
AcDbEntity
 8
Layer8
100
AcDbLine
 39
0.25
 370
106
 10
208.3834
 20
486.091322460938
 30
0.0
 11
208.3834
 21
486.071322460937
 31
0.0
 0
LINE
 5
31B
100
AcDbEntity
 8
Layer8
100
AcDbLine
 39
0.25
 370
106
 10
208.3834
 20
486.071322460937
 30
0.0
 11
208.4164
 21
486.036322460938
 31
0.0
 0
LINE
 5
31C
100
AcDbEntity
 8
Layer8
100
AcDbLine
 39
0.25
 370
106
 10
208.4164
 20
486.036322460938
 30
0.0
 11
208.4304
 21
486.036322460938
 31
0.0
 0
LINE
 5
31D
100
AcDbEntity
 8
Layer8
100
AcDbLine
 39
0.25
 370
106
 10
208.4304
 20
486.036322460938
 30
0.0
 11
208.4534
 21
486.036322460938
 31
0.0
 0
LINE
 5
31E
100
AcDbEntity
 8
Layer8
100
AcDbLine
 39
0.25
 370
106
 10
208.4534
 20
486.036322460938
 30
0.0
 11
208.4304
 21
486.056322460938
 31
0.0
 0
LINE
 5
31F
100
AcDbEntity
 8
Layer8
100
AcDbLine
 39
0.25
 370
106
 10
208.4304
 20
486.056322460938
 30
0.0
 11
208.4304
 21
486.091322460938
 31
0.0
 0
LINE
 5
320
100
AcDbEntity
 8
Layer8
100
AcDbLine
 39
0.25
 370
106
 10
208.4304
 20
486.091322460938
 30
0.0
 11
208.4164
 21
486.140322460938
 31
0.0
 0
LINE
 5
321
100
AcDbEntity
 8
Layer8
100
AcDbLine
 39
0.25
 370
106
 10
208.3529
 20
486.119822460937
 30
0.0
 11
208.3899
 21
486.119822460937
 31
0.0
 0
LINE
 5
322
100
AcDbEntity
 8
Layer8
100
AcDbLine
 39
0.25
 370
106
 10
208.332
 20
486.119822460937
 30
0.0
 11
208.395
 21
486.119822460937
 31
0.0
 0
LINE
 5
323
100
AcDbEntity
 8
Layer8
100
AcDbLine
 39
0.25
 370
106
 10
208.3097
 20
486.158422460938
 30
0.0
 11
208.3097
 21
486.109422460938
 31
0.0
 0
LINE
 5
324
100
AcDbEntity
 8
Layer8
100
AcDbLine
 39
0.25
 370
106
 10
208.3097
 20
486.109422460938
 30
0.0
 11
208.3627
 21
486.054422460938
 31
0.0
 0
LINE
 5
325
100
AcDbEntity
 8
Layer8
100
AcDbLine
 39
0.25
 370
106
 10
208.3627
 20
486.054422460938
 30
0.0
 11
208.3777
 21
486.054422460938
 31
0.0
 0
LINE
 5
326
100
AcDbEntity
 8
Layer8
100
AcDbLine
 39
0.25
 370
106
 10
208.3777
 20
486.054422460938
 30
0.0
 11
208.3777
 21
486.089422460938
 31
0.0
 0
LINE
 5
327
100
AcDbEntity
 8
Layer8
100
AcDbLine
 39
0.25
 370
106
 10
208.3777
 20
486.089422460938
 30
0.0
 11
208.3627
 21
486.109422460938
 31
0.0
 0
LINE
 5
328
100
AcDbEntity
 8
Layer8
100
AcDbLine
 39
0.25
 370
106
 10
208.3627
 20
486.109422460938
 30
0.0
 11
208.3627
 21
486.142422460938
 31
0.0
 0
LINE
 5
329
100
AcDbEntity
 8
Layer8
100
AcDbLine
 39
0.25
 370
106
 10
208.3627
 20
486.142422460938
 30
0.0
 11
208.3487
 21
486.158422460938
 31
0.0
 0
LINE
 5
32A
100
AcDbEntity
 8
Layer8
100
AcDbLine
 39
0.25
 370
106
 10
208.3097
 20
486.140322460938
 30
0.0
 11
208.3097
 21
486.091322460938
 31
0.0
 0
LINE
 5
32B
100
AcDbEntity
 8
Layer8
100
AcDbLine
 39
0.25
 370
106
 10
208.3097
 20
486.091322460938
 30
0.0
 11
208.3627
 21
486.036322460938
 31
0.0
 0
LINE
 5
32C
100
AcDbEntity
 8
Layer8
100
AcDbLine
 39
0.25
 370
106
 10
208.3627
 20
486.036322460938
 30
0.0
 11
208.3777
 21
486.036322460938
 31
0.0
 0
LINE
 5
32D
100
AcDbEntity
 8
Layer8
100
AcDbLine
 39
0.25
 370
106
 10
208.3777
 20
486.036322460938
 30
0.0
 11
208.3777
 21
486.071322460937
 31
0.0
 0
LINE
 5
32E
100
AcDbEntity
 8
Layer8
100
AcDbLine
 39
0.25
 370
106
 10
208.3777
 20
486.071322460937
 30
0.0
 11
208.3627
 21
486.091322460938
 31
0.0
 0
LINE
 5
32F
100
AcDbEntity
 8
Layer8
100
AcDbLine
 39
0.25
 370
106
 10
208.3627
 20
486.091322460938
 30
0.0
 11
208.3627
 21
486.124322460937
 31
0.0
 0
LINE
 5
330
100
AcDbEntity
 8
Layer8
100
AcDbLine
 39
0.25
 370
106
 10
208.3627
 20
486.124322460937
 30
0.0
 11
208.3487
 21
486.140322460938
 31
0.0
 0
LINE
 5
331
100
AcDbEntity
 8
Layer8
100
AcDbLine
 39
0.25
 370
106
 10
208.3011
 20
486.119822460937
 30
0.0
 11
208.3331
 21
486.119822460937
 31
0.0
 0
LINE
 5
332
100
AcDbEntity
 8
Layer8
100
AcDbLine
 39
0.25
 370
106
 10
208.2818
 20
486.119822460937
 30
0.0
 11
208.3358
 21
486.119822460937
 31
0.0
 0
LINE
 5
333
100
AcDbEntity
 8
Layer8
100
AcDbLine
 39
0.25
 370
106
 10
208.2582
 20
486.164622460937
 30
0.0
 11
208.2912
 21
486.095622460937
 31
0.0
 0
LINE
 5
334
100
AcDbEntity
 8
Layer8
100
AcDbLine
 39
0.25
 370
106
 10
208.2912
 20
486.095622460937
 30
0.0
 11
208.2912
 21
486.080622460937
 31
0.0
 0
LINE
 5
335
100
AcDbEntity
 8
Layer8
100
AcDbLine
 39
0.25
 370
106
 10
208.2912
 20
486.080622460937
 30
0.0
 11
208.3112
 21
486.060622460938
 31
0.0
 0
LINE
 5
336
100
AcDbEntity
 8
Layer8
100
AcDbLine
 39
0.25
 370
106
 10
208.3112
 20
486.060622460938
 30
0.0
 11
208.3262
 21
486.060622460938
 31
0.0
 0
LINE
 5
337
100
AcDbEntity
 8
Layer8
100
AcDbLine
 39
0.25
 370
106
 10
208.3262
 20
486.060622460938
 30
0.0
 11
208.3262
 21
486.080622460937
 31
0.0
 0
LINE
 5
338
100
AcDbEntity
 8
Layer8
100
AcDbLine
 39
0.25
 370
106
 10
208.3262
 20
486.080622460937
 30
0.0
 11
208.3112
 21
486.095622460937
 31
0.0
 0
LINE
 5
339
100
AcDbEntity
 8
Layer8
100
AcDbLine
 39
0.25
 370
106
 10
208.3112
 20
486.095622460937
 30
0.0
 11
208.3112
 21
486.115622460938
 31
0.0
 0
LINE
 5
33A
100
AcDbEntity
 8
Layer8
100
AcDbLine
 39
0.25
 370
106
 10
208.3112
 20
486.115622460938
 30
0.0
 11
208.2912
 21
486.148622460937
 31
0.0
 0
LINE
 5
33B
100
AcDbEntity
 8
Layer8
100
AcDbLine
 39
0.25
 370
106
 10
208.2912
 20
486.148622460937
 30
0.0
 11
208.2912
 21
486.164622460937
 31
0.0
 0
LINE
 5
33C
100
AcDbEntity
 8
Layer8
100
AcDbLine
 39
0.25
 370
106
 10
208.2603
 20
486.140322460938
 30
0.0
 11
208.2933
 21
486.071322460937
 31
0.0
 0
LINE
 5
33D
100
AcDbEntity
 8
Layer8
100
AcDbLine
 39
0.25
 370
106
 10
208.2933
 20
486.071322460937
 30
0.0
 11
208.2933
 21
486.056322460938
 31
0.0
 0
LINE
 5
33E
100
AcDbEntity
 8
Layer8
100
AcDbLine
 39
0.25
 370
106
 10
208.2933
 20
486.056322460938
 30
0.0
 11
208.3133
 21
486.036322460938
 31
0.0
 0
LINE
 5
33F
100
AcDbEntity
 8
Layer8
100
AcDbLine
 39
0.25
 370
106
 10
208.3133
 20
486.036322460938
 30
0.0
 11
208.3283
 21
486.036322460938
 31
0.0
 0
LINE
 5
340
100
AcDbEntity
 8
Layer8
100
AcDbLine
 39
0.25
 370
106
 10
208.3283
 20
486.036322460938
 30
0.0
 11
208.3283
 21
486.056322460938
 31
0.0
 0
LINE
 5
341
100
AcDbEntity
 8
Layer8
100
AcDbLine
 39
0.25
 370
106
 10
208.3283
 20
486.056322460938
 30
0.0
 11
208.3133
 21
486.071322460937
 31
0.0
 0
LINE
 5
342
100
AcDbEntity
 8
Layer8
100
AcDbLine
 39
0.25
 370
106
 10
208.3133
 20
486.071322460937
 30
0.0
 11
208.3133
 21
486.091322460938
 31
0.0
 0
LINE
 5
343
100
AcDbEntity
 8
Layer8
100
AcDbLine
 39
0.25
 370
106
 10
208.3133
 20
486.091322460938
 30
0.0
 11
208.2933
 21
486.124322460937
 31
0.0
 0
LINE
 5
344
100
AcDbEntity
 8
Layer8
100
AcDbLine
 39
0.25
 370
106
 10
208.2933
 20
486.124322460937
 30
0.0
 11
208.2933
 21
486.140322460938
 31
0.0
 0
LINE
 5
345
100
AcDbEntity
 8
Layer8
100
AcDbLine
 39
0.25
 370
106
 10
208.2672
 20
486.119822460937
 30
0.0
 11
208.2832
 21
486.119822460937
 31
0.0
 0
LINE
 5
346
100
AcDbEntity
 8
Layer8
100
AcDbLine
 39
0.25
 370
106
 10
208.2633
 20
486.119822460937
 30
0.0
 11
208.2793
 21
486.119822460937
 31
0.0
 0
LINE
 5
347
100
AcDbEntity
 8
Layer8
100
AcDbLine
 39
0.25
 370
106
 10
208.1824
 20
486.164422460937
 30
0.0
 11
208.1824
 21
486.115422460938
 31
0.0
 0
LINE
 5
348
100
AcDbEntity
 8
Layer8
100
AcDbLine
 39
0.25
 370
106
 10
208.1824
 20
486.115422460938
 30
0.0
 11
208.2034
 21
486.095422460937
 31
0.0
 0
LINE
 5
349
100
AcDbEntity
 8
Layer8
100
AcDbLine
 39
0.25
 370
106
 10
208.2034
 20
486.095422460937
 30
0.0
 11
208.2034
 21
486.080422460937
 31
0.0
 0
LINE
 5
34A
100
AcDbEntity
 8
Layer8
100
AcDbLine
 39
0.25
 370
106
 10
208.2034
 20
486.080422460937
 30
0.0
 11
208.2214
 21
486.060422460938
 31
0.0
 0
LINE
 5
34B
100
AcDbEntity
 8
Layer8
100
AcDbLine
 39
0.25
 370
106
 10
208.2214
 20
486.060422460938
 30
0.0
 11
208.2364
 21
486.060422460938
 31
0.0
 0
LINE
 5
34C
100
AcDbEntity
 8
Layer8
100
AcDbLine
 39
0.25
 370
106
 10
208.2364
 20
486.060422460938
 30
0.0
 11
208.2214
 21
486.080422460937
 31
0.0
 0
LINE
 5
34D
100
AcDbEntity
 8
Layer8
100
AcDbLine
 39
0.25
 370
106
 10
208.2214
 20
486.080422460937
 30
0.0
 11
208.2214
 21
486.095422460937
 31
0.0
 0
LINE
 5
34E
100
AcDbEntity
 8
Layer8
100
AcDbLine
 39
0.25
 370
106
 10
208.2214
 20
486.095422460937
 30
0.0
 11
208.2034
 21
486.115422460938
 31
0.0
 0
LINE
 5
34F
100
AcDbEntity
 8
Layer8
100
AcDbLine
 39
0.25
 370
106
 10
208.2034
 20
486.115422460938
 30
0.0
 11
208.2034
 21
486.164422460937
 31
0.0
 0
LINE
 5
350
100
AcDbEntity
 8
Layer8
100
AcDbLine
 39
0.25
 370
106
 10
208.2422
 20
486.140322460938
 30
0.0
 11
208.2422
 21
486.091322460938
 31
0.0
 0
LINE
 5
351
100
AcDbEntity
 8
Layer8
100
AcDbLine
 39
0.25
 370
106
 10
208.2422
 20
486.091322460938
 30
0.0
 11
208.2632
 21
486.071322460937
 31
0.0
 0
LINE
 5
352
100
AcDbEntity
 8
Layer8
100
AcDbLine
 39
0.25
 370
106
 10
208.2632
 20
486.071322460937
 30
0.0
 11
208.2632
 21
486.056322460938
 31
0.0
 0
LINE
 5
353
100
AcDbEntity
 8
Layer8
100
AcDbLine
 39
0.25
 370
106
 10
208.2632
 20
486.056322460938
 30
0.0
 11
208.2812
 21
486.036322460938
 31
0.0
 0
LINE
 5
354
100
AcDbEntity
 8
Layer8
100
AcDbLine
 39
0.25
 370
106
 10
208.2812
 20
486.036322460938
 30
0.0
 11
208.2962
 21
486.036322460938
 31
0.0
 0
LINE
 5
355
100
AcDbEntity
 8
Layer8
100
AcDbLine
 39
0.25
 370
106
 10
208.2962
 20
486.036322460938
 30
0.0
 11
208.2812
 21
486.056322460938
 31
0.0
 0
LINE
 5
356
100
AcDbEntity
 8
Layer8
100
AcDbLine
 39
0.25
 370
106
 10
208.2812
 20
486.056322460938
 30
0.0
 11
208.2812
 21
486.071322460937
 31
0.0
 0
LINE
 5
357
100
AcDbEntity
 8
Layer8
100
AcDbLine
 39
0.25
 370
106
 10
208.2812
 20
486.071322460937
 30
0.0
 11
208.2632
 21
486.091322460938
 31
0.0
 0
LINE
 5
358
100
AcDbEntity
 8
Layer8
100
AcDbLine
 39
0.25
 370
106
 10
208.2632
 20
486.091322460938
 30
0.0
 11
208.2632
 21
486.140322460938
 31
0.0
 0
LINE
 5
359
100
AcDbEntity
 8
Layer8
100
AcDbLine
 39
0.25
 370
106
 10
208.2454
 20
486.119822460937
 30
0.0
 11
208.2634
 21
486.119822460937
 31
0.0
 0
LINE
 5
35A
100
AcDbEntity
 8
Layer8
100
AcDbLine
 39
0.25
 370
106
 10
208.2415
 20
486.119822460937
 30
0.0
 11
208.2595
 21
486.119822460937
 31
0.0
 0
LINE
 5
35B
100
AcDbEntity
 8
Layer8
100
AcDbLine
 39
0.25
 370
106
 10
208.2264
 20
486.158822460937
 30
0.0
 11
208.2444
 21
486.109822460937
 31
0.0
 0
LINE
 5
35C
100
AcDbEntity
 8
Layer8
100
AcDbLine
 39
0.25
 370
106
 10
208.2444
 20
486.109822460937
 30
0.0
 11
208.2444
 21
486.089822460937
 31
0.0
 0
LINE
 5
35D
100
AcDbEntity
 8
Layer8
100
AcDbLine
 39
0.25
 370
106
 10
208.2444
 20
486.089822460937
 30
0.0
 11
208.2804
 21
486.054822460937
 31
0.0
 0
LINE
 5
35E
100
AcDbEntity
 8
Layer8
100
AcDbLine
 39
0.25
 370
106
 10
208.2804
 20
486.054822460937
 30
0.0
 11
208.2594
 21
486.074822460937
 31
0.0
 0
LINE
 5
35F
100
AcDbEntity
 8
Layer8
100
AcDbLine
 39
0.25
 370
106
 10
208.2594
 20
486.074822460937
 30
0.0
 11
208.2594
 21
486.089822460937
 31
0.0
 0
LINE
 5
360
100
AcDbEntity
 8
Layer8
100
AcDbLine
 39
0.25
 370
106
 10
208.2594
 20
486.089822460937
 30
0.0
 11
208.2444
 21
486.109822460937
 31
0.0
 0
LINE
 5
361
100
AcDbEntity
 8
Layer8
100
AcDbLine
 39
0.25
 370
106
 10
208.2444
 20
486.109822460937
 30
0.0
 11
208.2444
 21
486.158822460937
 31
0.0
 0
LINE
 5
362
100
AcDbEntity
 8
Layer8
100
AcDbLine
 39
0.25
 370
106
 10
208.2238
 20
486.140322460938
 30
0.0
 11
208.2418
 21
486.091322460938
 31
0.0
 0
LINE
 5
363
100
AcDbEntity
 8
Layer8
100
AcDbLine
 39
0.25
 370
106
 10
208.2418
 20
486.091322460938
 30
0.0
 11
208.2418
 21
486.071322460937
 31
0.0
 0
LINE
 5
364
100
AcDbEntity
 8
Layer8
100
AcDbLine
 39
0.25
 370
106
 10
208.2418
 20
486.071322460937
 30
0.0
 11
208.2778
 21
486.036322460938
 31
0.0
 0
LINE
 5
365
100
AcDbEntity
 8
Layer8
100
AcDbLine
 39
0.25
 370
106
 10
208.2778
 20
486.036322460938
 30
0.0
 11
208.2568
 21
486.056322460938
 31
0.0
 0
LINE
 5
366
100
AcDbEntity
 8
Layer8
100
AcDbLine
 39
0.25
 370
106
 10
208.2568
 20
486.056322460938
 30
0.0
 11
208.2568
 21
486.071322460937
 31
0.0
 0
LINE
 5
367
100
AcDbEntity
 8
Layer8
100
AcDbLine
 39
0.25
 370
106
 10
208.2568
 20
486.071322460937
 30
0.0
 11
208.2418
 21
486.091322460938
 31
0.0
 0
LINE
 5
368
100
AcDbEntity
 8
Layer8
100
AcDbLine
 39
0.25
 370
106
 10
208.2418
 20
486.091322460938
 30
0.0
 11
208.2418
 21
486.140322460938
 31
0.0
 0
LINE
 5
369
100
AcDbEntity
 8
Layer8
100
AcDbLine
 39
0.25
 370
106
 10
210.2745
 20
486.051122460938
 30
0.0
 11
208.3125
 21
486.051122460938
 31
0.0
 0
LINE
 5
36A
100
AcDbEntity
 8
Layer8
100
AcDbLine
 39
0.25
 370
106
 10
210.1802
 20
486.051122460938
 30
0.0
 11
208.4082
 21
486.051122460938
 31
0.0
 0
LINE
 5
36B
100
AcDbEntity
 8
Layer8
100
AcDbLine
 39
0.25
 370
106
 10
209.5983
 20
468.012522460937
 30
0.0
 11
209.5983
 21
486.058522460937
 31
0.0
 0
LINE
 5
36C
100
AcDbEntity
 8
Layer8
100
AcDbLine
 39
0.25
 370
106
 10
209.5983
 20
464.639422460938
 30
0.0
 11
209.5983
 21
485.963422460938
 31
0.0
 0
LINE
 5
36D
100
AcDbEntity
 8
Layer8
100
AcDbLine
 39
0.25
 370
106
 10
208.9752
 20
486.058522460938
 30
0.0
 11
208.9752
 21
467.718522460938
 31
0.0
 0
LINE
 5
36E
100
AcDbEntity
 8
Layer8
100
AcDbLine
 39
0.25
 370
106
 10
208.9752
 20
485.964122460938
 30
0.0
 11
208.9752
 21
464.141122460938
 31
0.0
 0
LINE
 5
36F
100
AcDbEntity
 8
Layer8
100
AcDbLine
 39
0.25
 370
106
 10
208.9752
 20
464.511522460938
 30
0.0
 11
208.9752
 21
443.147522460938
 31
0.0
 0
LINE
 5
370
100
AcDbEntity
 8
Layer8
100
AcDbLine
 39
0.25
 370
106
 10
208.9752
 20
464.417222460938
 30
0.0
 11
208.9752
 21
443.242222460938
 31
0.0
 0
LINE
 5
371
100
AcDbEntity
 8
Layer8
100
AcDbLine
 39
0.25
 370
106
 10
209.5983
 20
443.147022460937
 30
0.0
 11
209.5983
 21
464.979022460937
 31
0.0
 0
LINE
 5
372
100
AcDbEntity
 8
Layer8
100
AcDbLine
 39
0.25
 370
106
 10
209.5983
 20
443.241522460938
 30
0.0
 11
209.5983
 21
464.885522460938
 31
0.0
 0
LINE
 5
373
100
AcDbEntity
 8
Layer8
100
AcDbLine
 39
0.25
 370
106
 10
216.9691
 20
487.034422460937
 30
0.0
 11
216.9691
 21
490.389422460938
 31
0.0
 0
LINE
 5
374
100
AcDbEntity
 8
Layer8
100
AcDbLine
 39
0.25
 370
106
 10
216.9691
 20
487.128522460938
 30
0.0
 11
216.9691
 21
490.295522460937
 31
0.0
 0
LINE
 5
375
100
AcDbEntity
 8
Layer8
100
AcDbLine
 39
0.25
 370
106
 10
201.6014
 20
490.388622460937
 30
0.0
 11
201.6014
 21
487.033622460937
 31
0.0
 0
LINE
 5
376
100
AcDbEntity
 8
Layer8
100
AcDbLine
 39
0.25
 370
106
 10
201.6014
 20
490.294522460938
 30
0.0
 11
201.6014
 21
487.127522460938
 31
0.0
 0
ARC
 5
377
100
AcDbEntity
 8
Layer8
100
AcDbCircle
 39
0.25
 370
106
 10
216.613634091284
 20
487.119077006304
 30
0.0
 40
0.328668755374402
100
AcDbArc
 50
-52.4153438895734
 51
2.01309657397132
 0
LINE
 5
378
100
AcDbEntity
 8
Layer8
100
AcDbLine
 39
0.25
 370
106
 10
216.6591
 20
486.814622460938
 30
0.0
 11
216.8141
 21
486.858622460938
 31
0.0
 0
LINE
 5
379
100
AcDbEntity
 8
Layer8
100
AcDbLine
 39
0.25
 370
106
 10
216.7993
 20
486.853622460938
 30
0.0
 11
216.8293
 21
486.858622460938
 31
0.0
 0
LINE
 5
37A
100
AcDbEntity
 8
Layer8
100
AcDbLine
 39
0.25
 370
106
 10
216.8293
 20
486.858622460938
 30
0.0
 11
216.8623
 21
486.878622460937
 31
0.0
 0
LINE
 5
37B
100
AcDbEntity
 8
Layer8
100
AcDbLine
 39
0.25
 370
106
 10
216.8623
 20
486.878622460937
 30
0.0
 11
216.8803
 21
486.906622460938
 31
0.0
 0
LINE
 5
37C
100
AcDbEntity
 8
Layer8
100
AcDbLine
 39
0.25
 370
106
 10
216.8803
 20
486.906622460938
 30
0.0
 11
216.8853
 21
486.939622460938
 31
0.0
 0
LINE
 5
37D
100
AcDbEntity
 8
Layer8
100
AcDbLine
 39
0.25
 370
106
 10
201.6163
 20
487.093122460937
 30
0.0
 11
201.6163
 21
487.035122460937
 31
0.0
 0
LINE
 5
37E
100
AcDbEntity
 8
Layer8
100
AcDbLine
 39
0.25
 370
106
 10
201.6163
 20
487.035122460937
 30
0.0
 11
201.7093
 21
486.894122460937
 31
0.0
 0
LINE
 5
37F
100
AcDbEntity
 8
Layer8
100
AcDbLine
 39
0.25
 370
106
 10
201.7093
 20
486.894122460937
 30
0.0
 11
201.8133
 21
486.835122460938
 31
0.0
 0
LINE
 5
380
100
AcDbEntity
 8
Layer8
100
AcDbLine
 39
0.25
 370
106
 10
201.8133
 20
486.835122460938
 30
0.0
 11
201.9413
 21
486.815122460937
 31
0.0
 0
LINE
 5
381
100
AcDbEntity
 8
Layer8
100
AcDbLine
 39
0.25
 370
106
 10
201.6991
 20
486.940122460938
 30
0.0
 11
201.7061
 21
486.907122460938
 31
0.0
 0
LINE
 5
382
100
AcDbEntity
 8
Layer8
100
AcDbLine
 39
0.25
 370
106
 10
201.7061
 20
486.907122460938
 30
0.0
 11
201.7381
 21
486.866122460938
 31
0.0
 0
LINE
 5
383
100
AcDbEntity
 8
Layer8
100
AcDbLine
 39
0.25
 370
106
 10
201.7381
 20
486.866122460938
 30
0.0
 11
201.7891
 21
486.854122460938
 31
0.0
 0
LINE
 5
384
100
AcDbEntity
 8
Layer8
100
AcDbLine
 39
0.25
 370
106
 10
208.2363
 20
486.759522460937
 30
0.0
 11
208.2363
 21
486.127522460937
 31
0.0
 0
LINE
 5
385
100
AcDbEntity
 8
Layer8
100
AcDbLine
 39
0.25
 370
106
 10
208.2363
 20
486.665222460938
 30
0.0
 11
208.2363
 21
486.222222460938
 31
0.0
 0
LINE
 5
386
100
AcDbEntity
 8
Layer8
100
AcDbLine
 39
0.25
 370
106
 10
210.3372
 20
486.127022460938
 30
0.0
 11
210.3372
 21
486.759022460938
 31
0.0
 0
LINE
 5
387
100
AcDbEntity
 8
Layer8
100
AcDbLine
 39
0.25
 370
106
 10
210.3372
 20
486.221522460937
 30
0.0
 11
210.3372
 21
486.664522460937
 31
0.0
 0
LINE
 5
388
100
AcDbEntity
 8
Layer8
100
AcDbLine
 39
0.25
 370
106
 10
210.2475
 20
486.051122460938
 30
0.0
 11
210.2865
 21
486.051122460938
 31
0.0
 0
LINE
 5
389
100
AcDbEntity
 8
Layer8
100
AcDbLine
 39
0.25
 370
106
 10
210.2865
 20
486.051122460938
 30
0.0
 11
210.3155
 21
486.067122460938
 31
0.0
 0
LINE
 5
38A
100
AcDbEntity
 8
Layer8
100
AcDbLine
 39
0.25
 370
106
 10
210.251
 20
486.047222460938
 30
0.0
 11
210.29
 21
486.047222460938
 31
0.0
 0
LINE
 5
38B
100
AcDbEntity
 8
Layer8
100
AcDbLine
 39
0.25
 370
106
 10
210.29
 20
486.047222460938
 30
0.0
 11
210.319
 21
486.063222460938
 31
0.0
 0
LINE
 5
38C
100
AcDbEntity
 8
Layer8
100
AcDbLine
 39
0.25
 370
106
 10
208.2324
 20
486.165822460937
 30
0.0
 11
208.2654
 21
486.081822460937
 31
0.0
 0
LINE
 5
38D
100
AcDbEntity
 8
Layer8
100
AcDbLine
 39
0.25
 370
106
 10
208.2654
 20
486.081822460937
 30
0.0
 11
208.3554
 21
486.044822460938
 31
0.0
 0
LINE
 5
38E
100
AcDbEntity
 8
Layer8
100
AcDbLine
 39
0.25
 370
106
 10
208.208
 20
486.143522460938
 30
0.0
 11
208.241
 21
486.059522460938
 31
0.0
 0
LINE
 5
38F
100
AcDbEntity
 8
Layer8
100
AcDbLine
 39
0.25
 370
106
 10
208.241
 20
486.059522460938
 30
0.0
 11
208.331
 21
486.022522460938
 31
0.0
 0
CIRCLE
 5
390
100
AcDbEntity
 8
Layer8
100
AcDbCircle
 39
0.25
 370
106
 10
127.747
 20
349.845622460937
 30
0.0
 40
2.71525
 370
106
 0
CIRCLE
 5
391
100
AcDbEntity
 8
Layer8
100
AcDbCircle
 39
0.25
 370
106
 10
127.747
 20
349.845622460937
 30
0.0
 40
2.71525
 370
106
 0
CIRCLE
 5
392
100
AcDbEntity
 8
Layer8
100
AcDbCircle
 39
0.25
 370
106
 10
127.747
 20
349.845622460937
 30
0.0
 40
2.71525
 370
106
 0
CIRCLE
 5
393
100
AcDbEntity
 8
Layer8
100
AcDbCircle
 39
0.25
 370
106
 10
127.747
 20
349.845622460937
 30
0.0
 40
2.71525
 370
106
 0
CIRCLE
 5
394
100
AcDbEntity
 8
Layer8
100
AcDbCircle
 39
0.25
 370
106
 10
73.757
 20
319.741122460938
 30
0.0
 40
2.71599999999999
 370
106
 0
CIRCLE
 5
395
100
AcDbEntity
 8
Layer8
100
AcDbCircle
 39
0.25
 370
106
 10
73.757
 20
319.741122460938
 30
0.0
 40
2.71599999999999
 370
106
 0
CIRCLE
 5
396
100
AcDbEntity
 8
Layer8
100
AcDbCircle
 39
0.25
 370
106
 10
73.757
 20
319.741122460938
 30
0.0
 40
2.71599999999999
 370
106
 0
CIRCLE
 5
397
100
AcDbEntity
 8
Layer8
100
AcDbCircle
 39
0.25
 370
106
 10
73.757
 20
319.741122460938
 30
0.0
 40
2.71599999999999
 370
106
 0
CIRCLE
 5
398
100
AcDbEntity
 8
Layer8
100
AcDbCircle
 39
0.25
 370
106
 10
73.7615
 20
319.739122460937
 30
0.0
 40
2.28975000000001
 370
106
 0
CIRCLE
 5
399
100
AcDbEntity
 8
Layer8
100
AcDbCircle
 39
0.25
 370
106
 10
73.7605
 20
319.738122460937
 30
0.0
 40
3.14425000000001
 370
106
 0
CIRCLE
 5
39A
100
AcDbEntity
 8
Layer8
100
AcDbCircle
 39
0.25
 370
106
 10
73.7615
 20
319.739122460937
 30
0.0
 40
2.28975000000001
 370
106
 0
CIRCLE
 5
39B
100
AcDbEntity
 8
Layer8
100
AcDbCircle
 39
0.25
 370
106
 10
73.7605
 20
319.738122460937
 30
0.0
 40
3.14425000000001
 370
106
 0
CIRCLE
 5
39C
100
AcDbEntity
 8
Layer8
100
AcDbCircle
 39
0.25
 370
106
 10
73.7615
 20
319.739122460937
 30
0.0
 40
2.28975000000001
 370
106
 0
CIRCLE
 5
39D
100
AcDbEntity
 8
Layer8
100
AcDbCircle
 39
0.25
 370
106
 10
73.7605
 20
319.738122460937
 30
0.0
 40
3.14425000000001
 370
106
 0
CIRCLE
 5
39E
100
AcDbEntity
 8
Layer8
100
AcDbCircle
 39
0.25
 370
106
 10
73.7615
 20
319.739122460937
 30
0.0
 40
2.28975000000001
 370
106
 0
CIRCLE
 5
39F
100
AcDbEntity
 8
Layer8
100
AcDbCircle
 39
0.25
 370
106
 10
73.7605
 20
319.738122460937
 30
0.0
 40
3.14425000000001
 370
106
 0
LINE
 5
3A0
100
AcDbEntity
 8
Layer8
100
AcDbLine
 39
0.25
 370
106
 10
182.3158
 20
440.205822460938
 30
0.0
 11
182.3158
 21
489.946822460937
 31
0.0
 0
CIRCLE
 5
3A1
100
AcDbEntity
 8
Layer8
100
AcDbCircle
 39
0.25
 370
106
 10
289.026
 20
319.741122460938
 30
0.0
 40
2.71699999999998
 370
106
 0
CIRCLE
 5
3A2
100
AcDbEntity
 8
Layer8
100
AcDbCircle
 39
0.25
 370
106
 10
289.026
 20
319.741122460938
 30
0.0
 40
2.71699999999998
 370
106
 0
CIRCLE
 5
3A3
100
AcDbEntity
 8
Layer8
100
AcDbCircle
 39
0.25
 370
106
 10
289.026
 20
319.741122460938
 30
0.0
 40
2.71699999999998
 370
106
 0
CIRCLE
 5
3A4
100
AcDbEntity
 8
Layer8
100
AcDbCircle
 39
0.25
 370
106
 10
289.026
 20
319.741122460938
 30
0.0
 40
2.71699999999998
 370
106
 0
CIRCLE
 5
3A5
100
AcDbEntity
 8
Layer8
100
AcDbCircle
 39
0.25
 370
106
 10
289.024
 20
319.741622460937
 30
0.0
 40
2.28874999999999
 370
106
 0
CIRCLE
 5
3A6
100
AcDbEntity
 8
Layer8
100
AcDbCircle
 39
0.25
 370
106
 10
289.0245
 20
319.738122460937
 30
0.0
 40
3.14324999999997
 370
106
 0
CIRCLE
 5
3A7
100
AcDbEntity
 8
Layer8
100
AcDbCircle
 39
0.25
 370
106
 10
289.024
 20
319.741622460937
 30
0.0
 40
2.28874999999999
 370
106
 0
CIRCLE
 5
3A8
100
AcDbEntity
 8
Layer8
100
AcDbCircle
 39
0.25
 370
106
 10
289.0245
 20
319.738122460937
 30
0.0
 40
3.14324999999997
 370
106
 0
CIRCLE
 5
3A9
100
AcDbEntity
 8
Layer8
100
AcDbCircle
 39
0.25
 370
106
 10
289.025
 20
319.741622460937
 30
0.0
 40
2.28924999999998
 370
106
 0
CIRCLE
 5
3AA
100
AcDbEntity
 8
Layer8
100
AcDbCircle
 39
0.25
 370
106
 10
289.025
 20
319.741622460937
 30
0.0
 40
2.28924999999998
 370
106
 0
CIRCLE
 5
3AB
100
AcDbEntity
 8
Layer8
100
AcDbCircle
 39
0.25
 370
106
 10
127.747
 20
349.844122460937
 30
0.0
 40
2.71599999999998
 370
106
 0
CIRCLE
 5
3AC
100
AcDbEntity
 8
Layer8
100
AcDbCircle
 39
0.25
 370
106
 10
127.747
 20
349.844122460937
 30
0.0
 40
2.71599999999998
 370
106
 0
CIRCLE
 5
3AD
100
AcDbEntity
 8
Layer8
100
AcDbCircle
 39
0.25
 370
106
 10
127.747
 20
349.844122460937
 30
0.0
 40
2.71599999999998
 370
106
 0
CIRCLE
 5
3AE
100
AcDbEntity
 8
Layer8
100
AcDbCircle
 39
0.25
 370
106
 10
127.747
 20
349.844122460937
 30
0.0
 40
2.71599999999998
 370
106
 0
CIRCLE
 5
3AF
100
AcDbEntity
 8
Layer8
100
AcDbCircle
 39
0.25
 370
106
 10
127.746
 20
349.843122460937
 30
0.0
 40
2.289
 370
106
 0
CIRCLE
 5
3B0
100
AcDbEntity
 8
Layer8
100
AcDbCircle
 39
0.25
 370
106
 10
127.7465
 20
349.844122460938
 30
0.0
 40
3.14375000000001
 370
106
 0
CIRCLE
 5
3B1
100
AcDbEntity
 8
Layer8
100
AcDbCircle
 39
0.25
 370
106
 10
127.746
 20
349.843122460937
 30
0.0
 40
2.289
 370
106
 0
CIRCLE
 5
3B2
100
AcDbEntity
 8
Layer8
100
AcDbCircle
 39
0.25
 370
106
 10
127.7465
 20
349.844122460938
 30
0.0
 40
3.14375000000001
 370
106
 0
CIRCLE
 5
3B3
100
AcDbEntity
 8
Layer8
100
AcDbCircle
 39
0.25
 370
106
 10
127.746
 20
349.843122460937
 30
0.0
 40
2.289
 370
106
 0
CIRCLE
 5
3B4
100
AcDbEntity
 8
Layer8
100
AcDbCircle
 39
0.25
 370
106
 10
127.7465
 20
349.844122460938
 30
0.0
 40
3.14375000000001
 370
106
 0
CIRCLE
 5
3B5
100
AcDbEntity
 8
Layer8
100
AcDbCircle
 39
0.25
 370
106
 10
127.746
 20
349.843122460937
 30
0.0
 40
2.289
 370
106
 0
CIRCLE
 5
3B6
100
AcDbEntity
 8
Layer8
100
AcDbCircle
 39
0.25
 370
106
 10
127.7465
 20
349.844122460938
 30
0.0
 40
3.14375000000001
 370
106
 0
LINE
 5
3B7
100
AcDbEntity
 8
Layer8
100
AcDbLine
 39
0.25
 370
106
 10
283.983
 20
318.661122460937
 30
0.0
 11
284.887625
 21
319.315872460937
 31
0.0
 0
LINE
 5
3B8
100
AcDbEntity
 8
Layer8
100
AcDbLine
 39
0.25
 370
106
 10
284.887625
 20
319.315872460937
 30
0.0
 11
285.703
 21
320.167122460937
 31
0.0
 0
LINE
 5
3B9
100
AcDbEntity
 8
Layer8
100
AcDbLine
 39
0.25
 370
106
 10
285.703
 20
320.167122460937
 30
0.0
 11
285.772890625
 21
318.886575585937
 31
0.0
 0
LINE
 5
3BA
100
AcDbEntity
 8
Layer8
100
AcDbLine
 39
0.25
 370
106
 10
285.772890625
 20
318.886575585937
 30
0.0
 11
286.086375
 21
318.114497460938
 31
0.0
 0
LINE
 5
3BB
100
AcDbEntity
 8
Layer8
100
AcDbLine
 39
0.25
 370
106
 10
286.086375
 20
318.114497460938
 30
0.0
 11
286.573671875
 21
317.451731835937
 31
0.0
 0
LINE
 5
3BC
100
AcDbEntity
 8
Layer8
100
AcDbLine
 39
0.25
 370
106
 10
286.573671875
 20
317.451731835937
 30
0.0
 11
287.206
 21
316.926122460937
 31
0.0
 0
LINE
 5
3BD
100
AcDbEntity
 8
Layer8
100
AcDbLine
 39
0.25
 370
106
 10
287.206
 20
316.926122460937
 30
0.0
 11
285.495
 21
316.327122460937
 31
0.0
 0
LINE
 5
3BE
100
AcDbEntity
 8
Layer8
100
AcDbLine
 39
0.25
 370
106
 10
285.495
 20
316.327122460937
 30
0.0
 11
276.174
 21
311.072122460937
 31
0.0
 0
LINE
 5
3BF
100
AcDbEntity
 8
Layer8
100
AcDbLine
 39
0.25
 370
106
 10
276.174
 20
311.072122460937
 30
0.0
 11
274.784
 21
313.476122460937
 31
0.0
 0
LINE
 5
3C0
100
AcDbEntity
 8
Layer8
100
AcDbLine
 39
0.25
 370
106
 10
274.784
 20
313.476122460937
 30
0.0
 11
283.983
 21
318.661122460937
 31
0.0
 0
LINE
 5
3C1
100
AcDbEntity
 8
Layer8
100
AcDbLine
 39
0.25
 370
106
 10
283.983
 20
318.661122460937
 30
0.0
 11
284.887625
 21
319.315872460937
 31
0.0
 0
LINE
 5
3C2
100
AcDbEntity
 8
Layer8
100
AcDbLine
 39
0.25
 370
106
 10
284.887625
 20
319.315872460937
 30
0.0
 11
285.703
 21
320.167122460937
 31
0.0
 0
LINE
 5
3C3
100
AcDbEntity
 8
Layer8
100
AcDbLine
 39
0.25
 370
106
 10
285.703
 20
320.167122460937
 30
0.0
 11
285.772890625
 21
318.886575585937
 31
0.0
 0
LINE
 5
3C4
100
AcDbEntity
 8
Layer8
100
AcDbLine
 39
0.25
 370
106
 10
285.772890625
 20
318.886575585937
 30
0.0
 11
286.086375
 21
318.114497460938
 31
0.0
 0
LINE
 5
3C5
100
AcDbEntity
 8
Layer8
100
AcDbLine
 39
0.25
 370
106
 10
286.086375
 20
318.114497460938
 30
0.0
 11
286.573671875
 21
317.451731835937
 31
0.0
 0
LINE
 5
3C6
100
AcDbEntity
 8
Layer8
100
AcDbLine
 39
0.25
 370
106
 10
286.573671875
 20
317.451731835937
 30
0.0
 11
287.206
 21
316.926122460937
 31
0.0
 0
LINE
 5
3C7
100
AcDbEntity
 8
Layer8
100
AcDbLine
 39
0.25
 370
106
 10
287.206
 20
316.926122460937
 30
0.0
 11
285.495
 21
316.327122460937
 31
0.0
 0
LINE
 5
3C8
100
AcDbEntity
 8
Layer8
100
AcDbLine
 39
0.25
 370
106
 10
285.495
 20
316.327122460937
 30
0.0
 11
276.174
 21
311.072122460937
 31
0.0
 0
LINE
 5
3C9
100
AcDbEntity
 8
Layer8
100
AcDbLine
 39
0.25
 370
106
 10
276.174
 20
311.072122460937
 30
0.0
 11
274.784
 21
313.476122460937
 31
0.0
 0
LINE
 5
3CA
100
AcDbEntity
 8
Layer8
100
AcDbLine
 39
0.25
 370
106
 10
274.784
 20
313.476122460937
 30
0.0
 11
283.983
 21
318.661122460937
 31
0.0
 0
LINE
 5
3CB
100
AcDbEntity
 8
Layer8
100
AcDbLine
 39
0.25
 370
106
 10
283.983
 20
318.661122460937
 30
0.0
 11
284.887625
 21
319.315872460937
 31
0.0
 0
LINE
 5
3CC
100
AcDbEntity
 8
Layer8
100
AcDbLine
 39
0.25
 370
106
 10
284.887625
 20
319.315872460937
 30
0.0
 11
285.703
 21
320.167122460937
 31
0.0
 0
LINE
 5
3CD
100
AcDbEntity
 8
Layer8
100
AcDbLine
 39
0.25
 370
106
 10
285.703
 20
320.167122460937
 30
0.0
 11
285.772890625
 21
318.886575585937
 31
0.0
 0
LINE
 5
3CE
100
AcDbEntity
 8
Layer8
100
AcDbLine
 39
0.25
 370
106
 10
285.772890625
 20
318.886575585937
 30
0.0
 11
286.086375
 21
318.114497460938
 31
0.0
 0
LINE
 5
3CF
100
AcDbEntity
 8
Layer8
100
AcDbLine
 39
0.25
 370
106
 10
286.086375
 20
318.114497460938
 30
0.0
 11
286.573671875
 21
317.451731835937
 31
0.0
 0
LINE
 5
3D0
100
AcDbEntity
 8
Layer8
100
AcDbLine
 39
0.25
 370
106
 10
286.573671875
 20
317.451731835937
 30
0.0
 11
287.206
 21
316.926122460937
 31
0.0
 0
LINE
 5
3D1
100
AcDbEntity
 8
Layer8
100
AcDbLine
 39
0.25
 370
106
 10
287.206
 20
316.926122460937
 30
0.0
 11
285.495
 21
316.327122460937
 31
0.0
 0
LINE
 5
3D2
100
AcDbEntity
 8
Layer8
100
AcDbLine
 39
0.25
 370
106
 10
285.495
 20
316.327122460937
 30
0.0
 11
276.174
 21
311.072122460937
 31
0.0
 0
LINE
 5
3D3
100
AcDbEntity
 8
Layer8
100
AcDbLine
 39
0.25
 370
106
 10
276.174
 20
311.072122460937
 30
0.0
 11
274.784
 21
313.476122460937
 31
0.0
 0
LINE
 5
3D4
100
AcDbEntity
 8
Layer8
100
AcDbLine
 39
0.25
 370
106
 10
274.784
 20
313.476122460937
 30
0.0
 11
283.983
 21
318.661122460937
 31
0.0
 0
LINE
 5
3D5
100
AcDbEntity
 8
Layer8
100
AcDbLine
 39
0.25
 370
106
 10
283.983
 20
318.661122460937
 30
0.0
 11
284.887625
 21
319.315872460937
 31
0.0
 0
LINE
 5
3D6
100
AcDbEntity
 8
Layer8
100
AcDbLine
 39
0.25
 370
106
 10
284.887625
 20
319.315872460937
 30
0.0
 11
285.703
 21
320.167122460937
 31
0.0
 0
LINE
 5
3D7
100
AcDbEntity
 8
Layer8
100
AcDbLine
 39
0.25
 370
106
 10
285.703
 20
320.167122460937
 30
0.0
 11
285.772890625
 21
318.886575585937
 31
0.0
 0
LINE
 5
3D8
100
AcDbEntity
 8
Layer8
100
AcDbLine
 39
0.25
 370
106
 10
285.772890625
 20
318.886575585937
 30
0.0
 11
286.086375
 21
318.114497460938
 31
0.0
 0
LINE
 5
3D9
100
AcDbEntity
 8
Layer8
100
AcDbLine
 39
0.25
 370
106
 10
286.086375
 20
318.114497460938
 30
0.0
 11
286.573671875
 21
317.451731835937
 31
0.0
 0
LINE
 5
3DA
100
AcDbEntity
 8
Layer8
100
AcDbLine
 39
0.25
 370
106
 10
286.573671875
 20
317.451731835937
 30
0.0
 11
287.206
 21
316.926122460937
 31
0.0
 0
LINE
 5
3DB
100
AcDbEntity
 8
Layer8
100
AcDbLine
 39
0.25
 370
106
 10
287.206
 20
316.926122460937
 30
0.0
 11
285.495
 21
316.327122460937
 31
0.0
 0
LINE
 5
3DC
100
AcDbEntity
 8
Layer8
100
AcDbLine
 39
0.25
 370
106
 10
285.495
 20
316.327122460937
 30
0.0
 11
276.174
 21
311.072122460937
 31
0.0
 0
LINE
 5
3DD
100
AcDbEntity
 8
Layer8
100
AcDbLine
 39
0.25
 370
106
 10
276.174
 20
311.072122460937
 30
0.0
 11
274.784
 21
313.476122460937
 31
0.0
 0
LINE
 5
3DE
100
AcDbEntity
 8
Layer8
100
AcDbLine
 39
0.25
 370
106
 10
274.784
 20
313.476122460937
 30
0.0
 11
283.983
 21
318.661122460937
 31
0.0
 0
ARC
 5
3DF
100
AcDbEntity
 8
Layer8
100
AcDbCircle
 39
0.25
 370
106
 10
118.899295817538
 20
324.794909751291
 30
0.0
 40
7.2771546893799
100
AcDbArc
 50
-58.9182848343695
 51
-2.17662473435953
 0
LINE
 5
3E0
100
AcDbEntity
 8
Layer8
100
AcDbLine
 39
0.25
 370
106
 10
126.1712
 20
334.857522460938
 30
0.0
 11
126.1712
 21
324.518522460938
 31
0.0
 0
LINE
 5
3E1
100
AcDbEntity
 8
Layer8
100
AcDbLine
 39
0.25
 370
106
 10
122.6562
 20
318.562522460937
 30
0.0
 11
113.0992
 21
313.157522460938
 31
0.0
 0
ARC
 5
3E2
100
AcDbEntity
 8
Layer8
100
AcDbCircle
 39
0.25
 370
106
 10
136.09325492518
 20
345.055635543372
 30
0.0
 40
6.8963247529683
100
AcDbArc
 50
154.748802551466
 51
177.61580916797
 0
LINE
 5
3E3
100
AcDbEntity
 8
Layer8
100
AcDbLine
 39
0.25
 370
106
 10
129.2009
 20
334.857522460938
 30
0.0
 11
129.2029
 21
345.342522460938
 31
0.0
 0
ARC
 5
3E4
100
AcDbEntity
 8
Layer8
100
AcDbCircle
 39
0.25
 370
106
 10
127.746399999999
 20
349.836172863211
 30
0.0
 40
2.7134213737966
100
AcDbArc
 50
-137.342582025533
 51
-42.657417974438
 0
LINE
 5
3E5
100
AcDbEntity
 8
Layer8
100
AcDbLine
 39
0.25
 370
106
 10
129.8559
 20
347.997522460937
 30
0.0
 11
129.7419
 21
347.997522460937
 31
0.0
 0
ARC
 5
3E6
100
AcDbEntity
 8
Layer8
100
AcDbCircle
 39
0.25
 370
106
 10
120.167471985513
 20
345.278297738738
 30
0.0
 40
6.00177165743627
100
AcDbArc
 50
0.613131582723146
 51
26.9408450501837
 0
LINE
 5
3E7
100
AcDbEntity
 8
Layer8
100
AcDbLine
 39
0.25
 370
106
 10
125.7509
 20
347.997522460937
 30
0.0
 11
125.5179
 21
347.997522460937
 31
0.0
 0
LINE
 5
3E8
100
AcDbEntity
 8
Layer8
100
AcDbLine
 39
0.25
 370
106
 10
126.1689
 20
345.342522460938
 30
0.0
 11
126.1709
 21
334.857522460938
 31
0.0
 0
LINE
 5
3E9
100
AcDbEntity
 8
Layer8
100
AcDbLine
 39
0.25
 370
106
 10
114.5044
 20
310.721322460937
 30
0.0
 11
113.0994
 21
313.157322460937
 31
0.0
 0
ARC
 5
3EA
100
AcDbEntity
 8
Layer8
100
AcDbCircle
 39
0.25
 370
106
 10
136.419191311596
 20
324.760358367435
 30
0.0
 40
7.22252447800327
100
AcDbArc
 50
-178.085142758898
 51
-120.885458944766
 0
LINE
 5
3EB
100
AcDbEntity
 8
Layer8
100
AcDbLine
 39
0.25
 370
106
 10
141.9177
 20
313.357022460938
 30
0.0
 11
132.7117
 21
318.562022460938
 31
0.0
 0
LINE
 5
3EC
100
AcDbEntity
 8
Layer8
100
AcDbLine
 39
0.25
 370
106
 10
129.2007
 20
324.519022460937
 30
0.0
 11
129.2007
 21
334.857022460938
 31
0.0
 0
ARC
 5
3ED
100
AcDbEntity
 8
Layer8
100
AcDbCircle
 39
0.25
 370
106
 10
163.502116940938
 20
299.563768326994
 30
0.0
 40
7.29682463367599
100
AcDbArc
 50
121.183153623823
 51
177.733637987692
 0
LINE
 5
3EE
100
AcDbEntity
 8
Layer8
100
AcDbLine
 39
0.25
 370
106
 10
156.211
 20
289.332322460938
 30
0.0
 11
156.211
 21
299.852322460938
 31
0.0
 0
LINE
 5
3EF
100
AcDbEntity
 8
Layer8
100
AcDbLine
 39
0.25
 370
106
 10
159.724
 20
305.806322460938
 30
0.0
 11
168.424
 21
310.726322460938
 31
0.0
 0
LINE
 5
3F0
100
AcDbEntity
 8
Layer8
100
AcDbLine
 39
0.25
 370
106
 10
168.424
 20
310.726322460938
 30
0.0
 11
167.029
 21
313.138322460938
 31
0.0
 0
LINE
 5
3F1
100
AcDbEntity
 8
Layer8
100
AcDbLine
 39
0.25
 370
106
 10
114.5044
 20
310.721322460937
 30
0.0
 11
113.0994
 21
313.157322460937
 31
0.0
 0
ARC
 5
3F2
100
AcDbEntity
 8
Layer8
100
AcDbCircle
 39
0.25
 370
106
 10
154.666200000001
 20
314.681377552862
 30
0.0
 40
7.42829600829235
100
AcDbArc
 50
-118.447558507892
 51
-61.552441492126
 0
LINE
 5
3F3
100
AcDbEntity
 8
Layer8
100
AcDbLine
 39
0.25
 370
106
 10
141.9177
 20
313.357022460938
 30
0.0
 11
151.1277
 21
308.150022460938
 31
0.0
 0
LINE
 5
3F4
100
AcDbEntity
 8
Layer8
100
AcDbLine
 39
0.25
 370
106
 10
158.2047
 20
308.150022460938
 30
0.0
 11
167.0297
 21
313.138022460938
 31
0.0
 0
LINE
 5
3F5
100
AcDbEntity
 8
Layer8
100
AcDbLine
 39
0.25
 370
106
 10
88.0003
 20
313.359522460938
 30
0.0
 11
86.6073
 21
310.949522460937
 31
0.0
 0
LINE
 5
3F6
100
AcDbEntity
 8
Layer8
100
AcDbLine
 39
0.25
 370
106
 10
102.2984
 20
289.323522460938
 30
0.0
 11
102.3004
 21
289.332522460938
 31
0.0
 0
LINE
 5
3F7
100
AcDbEntity
 8
Layer8
100
AcDbLine
 39
0.25
 370
106
 10
102.3004
 20
289.332522460938
 30
0.0
 11
99.2144
 21
289.332522460938
 31
0.0
 0
LINE
 5
3F8
100
AcDbEntity
 8
Layer8
100
AcDbLine
 39
0.25
 370
106
 10
99.2144
 20
289.332522460938
 30
0.0
 11
99.2154
 21
289.323522460938
 31
0.0
 0
ARC
 5
3F9
100
AcDbEntity
 8
Layer8
100
AcDbCircle
 39
0.25
 370
106
 10
181.6494
 20
309.514162044158
 30
0.0
 40
7.57065250081386
100
AcDbArc
 50
62.3611643697271
 51
117.638835630284
 0
LINE
 5
3FA
100
AcDbEntity
 8
Layer8
100
AcDbLine
 39
0.25
 370
106
 10
194.5974
 20
310.883922460938
 30
0.0
 11
185.1614
 21
316.220922460938
 31
0.0
 0
LINE
 5
3FB
100
AcDbEntity
 8
Layer8
100
AcDbLine
 39
0.25
 370
106
 10
178.1374
 20
316.220922460938
 30
0.0
 11
168.4254
 21
310.726922460938
 31
0.0
 0
LINE
 5
3FC
100
AcDbEntity
 8
Layer8
100
AcDbLine
 39
0.25
 370
106
 10
168.4254
 20
310.726922460938
 30
0.0
 11
167.0294
 21
313.137922460938
 31
0.0
 0
LINE
 5
3FD
100
AcDbEntity
 8
Layer8
100
AcDbLine
 39
0.25
 370
106
 10
129.2009
 20
334.857522460938
 30
0.0
 11
126.1709
 21
334.857522460938
 31
0.0
 0
LINE
 5
3FE
100
AcDbEntity
 8
Layer8
100
AcDbLine
 39
0.25
 370
106
 10
77.0783
 20
320.069522460937
 30
0.0
 11
77.0981518518519
 21
319.928596535012
 31
0.0
 0
LINE
 5
3FF
100
AcDbEntity
 8
Layer8
100
AcDbLine
 39
0.25
 370
106
 10
77.0981518518519
 20
319.928596535012
 30
0.0
 11
77.1151148148148
 21
319.786781720197
 31
0.0
 0
LINE
 5
400
100
AcDbEntity
 8
Layer8
100
AcDbLine
 39
0.25
 370
106
 10
77.1151148148148
 20
319.786781720197
 30
0.0
 11
77.1223
 21
319.642522460938
 31
0.0
 0
ARC
 5
401
100
AcDbEntity
 8
Layer8
100
AcDbCircle
 39
0.25
 370
106
 10
82.5177360569505
 20
324.542182054129
 30
0.0
 40
7.04216930030973
100
AcDbArc
 50
-140.570724768017
 51
-121.852898145796
 0
ARC
 5
402
100
AcDbEntity
 8
Layer8
100
AcDbCircle
 39
0.25
 370
106
 10
73.7526239458696
 20
319.651784709457
 30
0.0
 40
3.36968878370337
100
AcDbArc
 50
-57.1941745689381
 51
-0.157488851733463
 0
ARC
 5
403
100
AcDbEntity
 8
Layer8
100
AcDbCircle
 39
0.25
 370
106
 10
74.6209020862389
 20
311.349741910196
 30
0.0
 40
5.55293706416249
100
AcDbArc
 50
61.279446900316
 51
80.071860829381
 0
LINE
 5
404
100
AcDbEntity
 8
Layer8
100
AcDbLine
 39
0.25
 370
106
 10
88.0003
 20
313.359522460938
 30
0.0
 11
78.8013
 21
318.560522460938
 31
0.0
 0
LINE
 5
405
100
AcDbEntity
 8
Layer8
100
AcDbLine
 39
0.25
 370
106
 10
77.2893
 20
316.219522460938
 30
0.0
 11
86.6073
 21
310.949522460937
 31
0.0
 0
ARC
 5
406
100
AcDbEntity
 8
Layer8
100
AcDbCircle
 39
0.25
 370
106
 10
109.518503501146
 20
299.612215126284
 30
0.0
 40
7.2221292497497
100
AcDbArc
 50
120.883749417671
 51
178.086852285974
 0
LINE
 5
407
100
AcDbEntity
 8
Layer8
100
AcDbLine
 39
0.25
 370
106
 10
114.5044
 20
310.721322460937
 30
0.0
 11
105.8114
 21
305.810322460937
 31
0.0
 0
ARC
 5
408
100
AcDbEntity
 8
Layer8
100
AcDbCircle
 39
0.25
 370
106
 10
91.9137534563015
 20
299.564154420828
 30
0.0
 40
7.30537184668588
100
AcDbArc
 50
2.26852762301105
 51
58.7608706733609
 0
LINE
 5
409
100
AcDbEntity
 8
Layer8
100
AcDbLine
 39
0.25
 370
106
 10
102.3004
 20
299.853322460937
 30
0.0
 11
102.3004
 21
289.336322460937
 31
0.0
 0
LINE
 5
40A
100
AcDbEntity
 8
Layer8
100
AcDbLine
 39
0.25
 370
106
 10
102.3004
 20
289.336322460937
 30
0.0
 11
99.2134
 21
289.336322460937
 31
0.0
 0
LINE
 5
40B
100
AcDbEntity
 8
Layer8
100
AcDbLine
 39
0.25
 370
106
 10
99.2134
 20
289.336322460937
 30
0.0
 11
99.2134
 21
299.853322460937
 31
0.0
 0
LINE
 5
40C
100
AcDbEntity
 8
Layer8
100
AcDbLine
 39
0.25
 370
106
 10
95.7024
 20
305.810322460937
 30
0.0
 11
86.6074
 21
310.949322460937
 31
0.0
 0
ARC
 5
40D
100
AcDbEntity
 8
Layer8
100
AcDbCircle
 39
0.25
 370
106
 10
100.7293
 20
314.845178101115
 30
0.0
 40
7.5590455633813
100
AcDbArc
 50
-117.684915000314
 51
-62.3150849996894
 0
LINE
 5
40E
100
AcDbEntity
 8
Layer8
100
AcDbLine
 39
0.25
 370
106
 10
88.0003
 20
313.359522460938
 30
0.0
 11
97.2173
 21
308.151522460937
 31
0.0
 0
CIRCLE
 5
40F
100
AcDbEntity
 8
Layer8
100
AcDbCircle
 39
0.25
 370
106
 10
181.6317
 20
350.076122460938
 30
0.0
 40
3.149
 370
106
 0
LINE
 5
410
100
AcDbEntity
 8
Layer8
100
AcDbLine
 39
0.25
 370
106
 10
104.2413
 20
308.151522460937
 30
0.0
 11
113.0993
 21
313.157522460938
 31
0.0
 0
LINE
 5
411
100
AcDbEntity
 8
Layer8
100
AcDbLine
 39
0.25
 370
106
 10
194.5974
 20
310.883922460938
 30
0.0
 11
200.5844
 21
307.480922460938
 31
0.0
 0
LINE
 5
412
100
AcDbEntity
 8
Layer8
100
AcDbLine
 39
0.25
 370
106
 10
194.5974
 20
310.883922460938
 30
0.0
 11
196.0224
 21
313.230922460938
 31
0.0
 0
LINE
 5
413
100
AcDbEntity
 8
Layer8
100
AcDbLine
 39
0.25
 370
106
 10
194.5974
 20
310.883922460938
 30
0.0
 11
196.0224
 21
313.230922460938
 31
0.0
 0
CIRCLE
 5
414
100
AcDbEntity
 8
Layer8
100
AcDbCircle
 39
0.25
 370
106
 10
181.6313
 20
350.075622460938
 30
0.0
 40
2.71899999999999
 370
106
 0
CIRCLE
 5
415
100
AcDbEntity
 8
Layer8
100
AcDbCircle
 39
0.25
 370
106
 10
181.6311
 20
350.075022460938
 30
0.0
 40
2.29275000000001
 370
106
 0
LINE
 5
416
100
AcDbEntity
 8
Layer8
100
AcDbLine
 39
0.25
 370
106
 10
201.9395
 20
309.885722460937
 30
0.0
 11
196.0225
 21
313.230722460938
 31
0.0
 0
LINE
 5
417
100
AcDbEntity
 8
Layer8
100
AcDbLine
 39
0.25
 370
106
 10
181.6365
 20
347.997922460938
 30
0.0
 11
181.6275
 21
347.997922460938
 31
0.0
 0
ARC
 5
418
100
AcDbEntity
 8
Layer8
100
AcDbCircle
 39
0.25
 370
106
 10
190.396119690666
 20
324.798701983089
 30
0.0
 40
7.28800728069794
100
AcDbArc
 50
-177.796783074118
 51
-121.165402898484
 0
LINE
 5
419
100
AcDbEntity
 8
Layer8
100
AcDbLine
 39
0.25
 370
106
 10
183.1135
 20
334.857522460938
 30
0.0
 11
183.1135
 21
324.518522460938
 31
0.0
 0
LINE
 5
41A
100
AcDbEntity
 8
Layer8
100
AcDbLine
 39
0.25
 370
106
 10
186.6245
 20
318.562522460937
 30
0.0
 11
196.0225
 21
313.231522460938
 31
0.0
 0
ARC
 5
41B
100
AcDbEntity
 8
Layer8
100
AcDbCircle
 39
0.25
 370
106
 10
172.850180309347
 20
324.79870198308
 30
0.0
 40
7.28800728068455
100
AcDbArc
 50
-58.8345971015667
 51
-2.20321692581784
 0
LINE
 5
41C
100
AcDbEntity
 8
Layer8
100
AcDbLine
 39
0.25
 370
106
 10
180.1328
 20
334.857522460938
 30
0.0
 11
180.1328
 21
324.518522460938
 31
0.0
 0
LINE
 5
41D
100
AcDbEntity
 8
Layer8
100
AcDbLine
 39
0.25
 370
106
 10
176.6218
 20
318.562522460937
 30
0.0
 11
167.0288
 21
313.138522460938
 31
0.0
 0
LINE
 5
41E
100
AcDbEntity
 8
Layer8
100
AcDbLine
 39
0.25
 370
106
 10
141.9177
 20
313.357022460938
 30
0.0
 11
140.5347
 21
310.966022460937
 31
0.0
 0
ARC
 5
41F
100
AcDbEntity
 8
Layer8
100
AcDbCircle
 39
0.25
 370
106
 10
235.560100000001
 20
269.365273200236
 30
0.0
 40
7.56683486754775
100
AcDbArc
 50
-117.653973834052
 51
-62.3460261659685
 0
LINE
 5
420
100
AcDbEntity
 8
Layer8
100
AcDbLine
 39
0.25
 370
106
 10
248.4651
 20
267.968822460937
 30
0.0
 11
239.0721
 21
262.662822460937
 31
0.0
 0
LINE
 5
421
100
AcDbEntity
 8
Layer8
100
AcDbLine
 39
0.25
 370
106
 10
232.0481
 20
262.662822460937
 30
0.0
 11
222.6351
 21
267.984822460937
 31
0.0
 0
LINE
 5
422
100
AcDbEntity
 8
Layer8
100
AcDbLine
 39
0.25
 370
106
 10
222.6355
 20
267.985122460937
 30
0.0
 11
222.0885
 21
267.037122460938
 31
0.0
 0
LINE
 5
423
100
AcDbEntity
 8
Layer8
100
AcDbLine
 39
0.25
 370
106
 10
237.0735
 20
244.327022460938
 30
0.0
 11
234.0475
 21
244.327022460938
 31
0.0
 0
LINE
 5
424
100
AcDbEntity
 8
Layer8
100
AcDbLine
 39
0.25
 370
106
 10
216.7254
 20
307.376122460937
 30
0.0
 11
222.4774
 21
310.630122460938
 31
0.0
 0
LINE
 5
425
100
AcDbEntity
 8
Layer8
100
AcDbLine
 39
0.25
 370
106
 10
222.4774
 20
310.630122460938
 30
0.0
 11
221.0844
 21
313.042122460937
 31
0.0
 0
LINE
 5
426
100
AcDbEntity
 8
Layer8
100
AcDbLine
 39
0.25
 370
106
 10
221.0844
 20
313.042122460937
 30
0.0
 11
215.3804
 21
309.818122460938
 31
0.0
 0
LINE
 5
427
100
AcDbEntity
 8
Layer8
100
AcDbLine
 39
0.25
 370
106
 10
207.2356
 20
289.323522460938
 30
0.0
 11
207.2356
 21
289.233522460938
 31
0.0
 0
LINE
 5
428
100
AcDbEntity
 8
Layer8
100
AcDbLine
 39
0.25
 370
106
 10
207.2356
 20
289.233522460938
 30
0.0
 11
210.1216
 21
289.233522460938
 31
0.0
 0
LINE
 5
429
100
AcDbEntity
 8
Layer8
100
AcDbLine
 39
0.25
 370
106
 10
210.1216
 20
289.323522460938
 30
0.0
 11
207.2356
 21
289.323522460938
 31
0.0
 0
LINE
 5
42A
100
AcDbEntity
 8
Layer8
100
AcDbLine
 39
0.25
 370
106
 10
207.0916
 20
289.323522460938
 30
0.0
 11
207.2356
 21
289.323522460938
 31
0.0
 0
LINE
 5
42B
100
AcDbEntity
 8
Layer8
100
AcDbLine
 39
0.25
 370
106
 10
207.2356
 20
289.332322460938
 30
0.0
 11
207.2356
 21
289.323322460938
 31
0.0
 0
LINE
 5
42C
100
AcDbEntity
 8
Layer8
100
AcDbLine
 39
0.25
 370
106
 10
222.6355
 20
267.985122460937
 30
0.0
 11
222.0885
 21
267.037122460938
 31
0.0
 0
ARC
 5
42D
100
AcDbEntity
 8
Layer8
100
AcDbCircle
 39
0.25
 370
106
 10
119.477193538925
 20
234.111509299564
 30
0.0
 40
6.70107405956407
100
AcDbArc
 50
-19.9234464381109
 51
-2.98099018834274
 0
ARC
 5
42E
100
AcDbEntity
 8
Layer8
100
AcDbCircle
 39
0.25
 370
106
 10
127.753068304635
 20
229.092046158808
 30
0.0
 40
3.37485138681308
100
AcDbArc
 50
56.2466365346389
 51
125.836075972276
 0
ARC
 5
42F
100
AcDbEntity
 8
Layer8
100
AcDbCircle
 39
0.25
 370
106
 10
134.378904421141
 20
233.823459006741
 30
0.0
 40
5.12606070867034
100
AcDbArc
 50
-179.324463866427
 51
-157.937535599585
 0
LINE
 5
430
100
AcDbEntity
 8
Layer8
100
AcDbLine
 39
0.25
 370
106
 10
126.1692
 20
244.327022460938
 30
0.0
 11
126.1692
 21
233.763022460938
 31
0.0
 0
LINE
 5
431
100
AcDbEntity
 8
Layer8
100
AcDbLine
 39
0.25
 370
106
 10
129.2532
 20
233.763022460938
 30
0.0
 11
129.2532
 21
244.327022460938
 31
0.0
 0
LINE
 5
432
100
AcDbEntity
 8
Layer8
100
AcDbLine
 39
0.25
 370
106
 10
126.1692
 20
244.327022460938
 30
0.0
 11
129.2532
 21
244.327022460938
 31
0.0
 0
ARC
 5
433
100
AcDbEntity
 8
Layer8
100
AcDbCircle
 39
0.25
 370
106
 10
243.821828250133
 20
234.146409612266
 30
0.0
 40
6.75926679852517
100
AcDbArc
 50
-176.739934936284
 51
-160.066903122688
 0
ARC
 5
434
100
AcDbEntity
 8
Layer8
100
AcDbCircle
 39
0.25
 370
106
 10
235.512729161255
 20
229.135581219896
 30
0.0
 40
3.33855555940279
100
AcDbArc
 50
54.1606937748605
 51
123.141749403439
 0
ARC
 5
435
100
AcDbEntity
 8
Layer8
100
AcDbCircle
 39
0.25
 370
106
 10
228.874155220838
 20
233.828283313202
 30
0.0
 40
5.17376910043558
100
AcDbArc
 50
-21.5127139603589
 51
-0.73381144368233
 0
LINE
 5
436
100
AcDbEntity
 8
Layer8
100
AcDbLine
 39
0.25
 370
106
 10
237.0735
 20
244.327022460938
 30
0.0
 11
237.0735
 21
233.762022460937
 31
0.0
 0
LINE
 5
437
100
AcDbEntity
 8
Layer8
100
AcDbLine
 39
0.25
 370
106
 10
234.0475
 20
233.762022460937
 30
0.0
 11
234.0475
 21
244.327022460938
 31
0.0
 0
LINE
 5
438
100
AcDbEntity
 8
Layer8
100
AcDbLine
 39
0.25
 370
106
 10
99.2156
 20
289.323522460938
 30
0.0
 11
102.2986
 21
289.323522460938
 31
0.0
 0
LINE
 5
439
100
AcDbEntity
 8
Layer8
100
AcDbLine
 39
0.25
 370
106
 10
264.0325
 20
289.323522460938
 30
0.0
 11
261.0045
 21
289.323522460938
 31
0.0
 0
LINE
 5
43A
100
AcDbEntity
 8
Layer8
100
AcDbLine
 39
0.25
 370
106
 10
264.0325
 20
289.323522460938
 30
0.0
 11
264.0345
 21
289.332522460938
 31
0.0
 0
LINE
 5
43B
100
AcDbEntity
 8
Layer8
100
AcDbLine
 39
0.25
 370
106
 10
264.0345
 20
289.332522460938
 30
0.0
 11
261.0045
 21
289.332522460938
 31
0.0
 0
LINE
 5
43C
100
AcDbEntity
 8
Layer8
100
AcDbLine
 39
0.25
 370
106
 10
261.0045
 20
289.332522460938
 30
0.0
 11
261.0045
 21
289.323522460938
 31
0.0
 0
ARC
 5
43D
100
AcDbEntity
 8
Layer8
100
AcDbCircle
 39
0.25
 370
106
 10
217.342969985174
 20
279.269674564264
 30
0.0
 40
7.22544212882306
100
AcDbArc
 50
-178.100069180417
 51
-120.889903257834
 0
LINE
 5
43E
100
AcDbEntity
 8
Layer8
100
AcDbLine
 39
0.25
 370
106
 10
222.6355
 20
267.985122460937
 30
0.0
 11
213.6335
 21
273.069122460937
 31
0.0
 0
LINE
 5
43F
100
AcDbEntity
 8
Layer8
100
AcDbLine
 39
0.25
 370
106
 10
210.1215
 20
279.030122460937
 30
0.0
 11
210.1215
 21
289.234122460938
 31
0.0
 0
LINE
 5
440
100
AcDbEntity
 8
Layer8
100
AcDbLine
 39
0.25
 370
106
 10
153.1809
 20
289.323522460938
 30
0.0
 11
153.1809
 21
289.332522460938
 31
0.0
 0
LINE
 5
441
100
AcDbEntity
 8
Layer8
100
AcDbLine
 39
0.25
 370
106
 10
156.211
 20
289.323522460938
 30
0.0
 11
156.211
 21
289.332522460938
 31
0.0
 0
LINE
 5
442
100
AcDbEntity
 8
Layer8
100
AcDbLine
 39
0.25
 370
106
 10
156.211
 20
289.323522460938
 30
0.0
 11
153.181
 21
289.323522460938
 31
0.0
 0
LINE
 5
443
100
AcDbEntity
 8
Layer8
100
AcDbLine
 39
0.25
 370
106
 10
156.211
 20
289.332322460938
 30
0.0
 11
153.181
 21
289.332322460938
 31
0.0
 0
LINE
 5
444
100
AcDbEntity
 8
Layer8
100
AcDbLine
 39
0.25
 370
106
 10
180.1328
 20
334.857522460938
 30
0.0
 11
183.1138
 21
334.857522460938
 31
0.0
 0
ARC
 5
445
100
AcDbEntity
 8
Layer8
100
AcDbCircle
 39
0.25
 370
106
 10
145.892121535446
 20
299.56388010237
 30
0.0
 40
7.29448356633759
100
AcDbArc
 50
2.26621110434498
 51
58.8455454949467
 0
LINE
 5
446
100
AcDbEntity
 8
Layer8
100
AcDbLine
 39
0.25
 370
106
 10
153.1809
 20
289.332322460938
 30
0.0
 11
153.1809
 21
299.852322460938
 31
0.0
 0
LINE
 5
447
100
AcDbEntity
 8
Layer8
100
AcDbLine
 39
0.25
 370
106
 10
149.6659
 20
305.806322460938
 30
0.0
 11
140.5349
 21
310.966322460938
 31
0.0
 0
LINE
 5
448
100
AcDbEntity
 8
Layer8
100
AcDbLine
 39
0.25
 370
106
 10
210.2659
 20
295.940822460938
 30
0.0
 11
210.2659
 21
289.233822460938
 31
0.0
 0
LINE
 5
449
100
AcDbEntity
 8
Layer8
100
AcDbLine
 39
0.25
 370
106
 10
210.2659
 20
289.233822460938
 30
0.0
 11
210.1219
 21
289.233822460938
 31
0.0
 0
LINE
 5
44A
100
AcDbEntity
 8
Layer8
100
AcDbLine
 39
0.25
 370
106
 10
210.1218
 20
289.233922460937
 30
0.0
 11
210.1218
 21
289.323922460937
 31
0.0
 0
ARC
 5
44B
100
AcDbEntity
 8
Layer8
100
AcDbCircle
 39
0.25
 370
106
 10
173.273517462773
 20
344.95491606312
 30
0.0
 40
6.87011275158899
100
AcDbArc
 50
3.21759437061265
 51
20.0611564047163
 0
ARC
 5
44C
100
AcDbEntity
 8
Layer8
100
AcDbCircle
 39
0.25
 370
106
 10
181.634439985449
 20
350.072871705902
 30
0.0
 40
3.35620916612018
100
AcDbArc
 50
-124.638120036836
 51
-55.9672180145465
 0
ARC
 5
44D
100
AcDbEntity
 8
Layer8
100
AcDbCircle
 39
0.25
 370
106
 10
188.419732016836
 20
345.271703458008
 30
0.0
 40
5.30637829620604
100
AcDbArc
 50
157.626678350612
 51
179.256903910455
 0
LINE
 5
44E
100
AcDbEntity
 8
Layer8
100
AcDbLine
 39
0.25
 370
106
 10
180.1328
 20
334.857522460938
 30
0.0
 11
180.1328
 21
345.340522460938
 31
0.0
 0
LINE
 5
44F
100
AcDbEntity
 8
Layer8
100
AcDbLine
 39
0.25
 370
106
 10
183.1138
 20
345.340522460938
 30
0.0
 11
183.1138
 21
334.857522460938
 31
0.0
 0
LINE
 5
450
100
AcDbEntity
 8
Layer8
100
AcDbLine
 39
0.25
 370
106
 10
141.9177
 20
313.357022460938
 30
0.0
 11
140.5347
 21
310.966022460937
 31
0.0
 0
LINE
 5
451
100
AcDbEntity
 8
Layer8
100
AcDbLine
 39
0.25
 370
106
 10
210.1216
 20
289.323522460938
 30
0.0
 11
210.1216
 21
289.332522460938
 31
0.0
 0
LINE
 5
452
100
AcDbEntity
 8
Layer8
100
AcDbLine
 39
0.25
 370
106
 10
210.1216
 20
289.332522460938
 30
0.0
 11
207.2356
 21
289.332522460938
 31
0.0
 0
LINE
 5
453
100
AcDbEntity
 8
Layer8
100
AcDbLine
 39
0.25
 370
106
 10
207.2356
 20
289.332322460938
 30
0.0
 11
207.0916
 21
289.332322460938
 31
0.0
 0
LINE
 5
454
100
AcDbEntity
 8
Layer8
100
AcDbLine
 39
0.25
 370
106
 10
207.0916
 20
289.332322460938
 30
0.0
 11
207.0916
 21
289.323322460938
 31
0.0
 0
CIRCLE
 5
455
100
AcDbEntity
 8
Layer8
100
AcDbCircle
 39
0.25
 370
106
 10
73.828
 20
259.342622460937
 30
0.0
 40
3.14750000000001
 370
106
 0
LINE
 5
456
100
AcDbEntity
 8
Layer8
100
AcDbLine
 39
0.25
 370
106
 10
207.2356
 20
295.899522460937
 30
0.0
 11
207.2356
 21
289.332522460937
 31
0.0
 0
ARC
 5
457
100
AcDbEntity
 8
Layer8
100
AcDbCircle
 39
0.25
 370
106
 10
118.896699101305
 20
254.311405518704
 30
0.0
 40
7.27783599169541
100
AcDbArc
 50
2.19398689497788
 51
58.8976458392088
 0
LINE
 5
458
100
AcDbEntity
 8
Layer8
100
AcDbLine
 39
0.25
 370
106
 10
126.1692
 20
244.327022460938
 30
0.0
 11
126.1692
 21
254.590022460938
 31
0.0
 0
LINE
 5
459
100
AcDbEntity
 8
Layer8
100
AcDbLine
 39
0.25
 370
106
 10
122.6562
 20
260.543022460937
 30
0.0
 11
113.2942
 21
265.839022460937
 31
0.0
 0
LINE
 5
45A
100
AcDbEntity
 8
Layer8
100
AcDbLine
 39
0.25
 370
106
 10
140.4422
 20
267.855122460937
 30
0.0
 11
141.7342
 21
265.615122460937
 31
0.0
 0
ARC
 5
45B
100
AcDbEntity
 8
Layer8
100
AcDbCircle
 39
0.25
 370
106
 10
145.959780668154
 20
279.271510810447
 30
0.0
 40
7.22545261569233
100
AcDbArc
 50
-59.138331643828
 51
-1.91449704059088
 0
LINE
 5
45C
100
AcDbEntity
 8
Layer8
100
AcDbLine
 39
0.25
 370
106
 10
140.4422
 20
267.855122460937
 30
0.0
 11
149.6662
 21
273.069122460937
 31
0.0
 0
LINE
 5
45D
100
AcDbEntity
 8
Layer8
100
AcDbLine
 39
0.25
 370
106
 10
153.1812
 20
279.030122460937
 30
0.0
 11
153.1812
 21
289.323122460938
 31
0.0
 0
CIRCLE
 5
45E
100
AcDbEntity
 8
Layer8
100
AcDbCircle
 39
0.25
 370
106
 10
127.744
 20
229.111422460937
 30
0.0
 40
2.29325
 370
106
 0
CIRCLE
 5
45F
100
AcDbEntity
 8
Layer8
100
AcDbCircle
 39
0.25
 370
106
 10
127.7426
 20
229.112122460937
 30
0.0
 40
3.14900000000003
 370
106
 0
CIRCLE
 5
460
100
AcDbEntity
 8
Layer8
100
AcDbCircle
 39
0.25
 370
106
 10
127.7452
 20
229.113922460937
 30
0.0
 40
2.72
 370
106
 0
LINE
 5
461
100
AcDbEntity
 8
Layer8
100
AcDbLine
 39
0.25
 370
106
 10
140.4422
 20
267.855122460937
 30
0.0
 11
141.7342
 21
265.615122460937
 31
0.0
 0
ARC
 5
462
100
AcDbEntity
 8
Layer8
100
AcDbCircle
 39
0.25
 370
106
 10
136.536008215147
 20
254.304351979459
 30
0.0
 40
7.2879092039069
100
AcDbArc
 50
121.126264489207
 51
177.753552248448
 0
LINE
 5
463
100
AcDbEntity
 8
Layer8
100
AcDbLine
 39
0.25
 370
106
 10
129.2537
 20
244.327022460938
 30
0.0
 11
129.2537
 21
254.590022460938
 31
0.0
 0
CIRCLE
 5
464
100
AcDbEntity
 8
Layer8
100
AcDbCircle
 39
0.25
 370
106
 10
181.6505
 20
228.903122460937
 30
0.0
 40
2.72074999999998
 370
106
 0
CIRCLE
 5
465
100
AcDbEntity
 8
Layer8
100
AcDbCircle
 39
0.25
 370
106
 10
181.6498
 20
228.901422460938
 30
0.0
 40
3.14900000000003
 370
106
 0
CIRCLE
 5
466
100
AcDbEntity
 8
Layer8
100
AcDbCircle
 39
0.25
 370
106
 10
181.6506
 20
228.905122460937
 30
0.0
 40
2.29225000000002
 370
106
 0
LINE
 5
467
100
AcDbEntity
 8
Layer8
100
AcDbLine
 39
0.25
 370
106
 10
132.7687
 20
260.543022460937
 30
0.0
 11
141.7347
 21
265.616022460938
 31
0.0
 0
ARC
 5
468
100
AcDbEntity
 8
Layer8
100
AcDbCircle
 39
0.25
 370
106
 10
154.693100000001
 20
264.255636435917
 30
0.0
 40
7.56409900439311
100
AcDbArc
 50
62.3437189445214
 51
117.656281055493
 0
LINE
 5
469
100
AcDbEntity
 8
Layer8
100
AcDbLine
 39
0.25
 370
106
 10
167.2241
 20
265.856522460938
 30
0.0
 11
158.2041
 21
270.955522460938
 31
0.0
 0
LINE
 5
46A
100
AcDbEntity
 8
Layer8
100
AcDbLine
 39
0.25
 370
106
 10
151.1821
 20
270.955522460938
 30
0.0
 11
141.7341
 21
265.615522460938
 31
0.0
 0
ARC
 5
46B
100
AcDbEntity
 8
Layer8
100
AcDbCircle
 39
0.25
 370
106
 10
173.218181010615
 20
234.152883454907
 30
0.0
 40
6.92528446022259
100
AcDbArc
 50
-21.6818317984758
 51
-3.2247034742935
 0
ARC
 5
46C
100
AcDbEntity
 8
Layer8
100
AcDbCircle
 39
0.25
 370
106
 10
181.648999999999
 20
228.935446648997
 30
0.0
 40
3.32440082320487
100
AcDbArc
 50
53.111583211946
 51
126.888416788043
 0
ARC
 5
46D
100
AcDbEntity
 8
Layer8
100
AcDbCircle
 39
0.25
 370
106
 10
188.598669198991
 20
233.828292823093
 30
0.0
 40
5.43455757456122
100
AcDbArc
 50
-179.315010252067
 51
-155.728084623634
 0
LINE
 5
46E
100
AcDbEntity
 8
Layer8
100
AcDbLine
 39
0.25
 370
106
 10
180.1345
 20
244.332322460937
 30
0.0
 11
180.1325
 21
233.763322460938
 31
0.0
 0
LINE
 5
46F
100
AcDbEntity
 8
Layer8
100
AcDbLine
 39
0.25
 370
106
 10
183.1645
 20
233.763322460938
 30
0.0
 11
183.1645
 21
244.327322460937
 31
0.0
 0
ARC
 5
470
100
AcDbEntity
 8
Layer8
100
AcDbCircle
 39
0.25
 370
106
 10
190.449959865887
 20
254.304117151201
 30
0.0
 40
7.29097948528181
100
AcDbArc
 50
121.158074693786
 51
177.750292572032
 0
LINE
 5
471
100
AcDbEntity
 8
Layer8
100
AcDbLine
 39
0.25
 370
106
 10
183.1646
 20
244.332322460937
 30
0.0
 11
183.1646
 21
254.590322460938
 31
0.0
 0
ARC
 5
472
100
AcDbEntity
 8
Layer8
100
AcDbCircle
 39
0.25
 370
106
 10
181.649600000001
 20
269.360721994625
 30
0.0
 40
7.56236104096074
100
AcDbArc
 50
-117.671736188395
 51
-62.3282638116174
 0
LINE
 5
473
100
AcDbEntity
 8
Layer8
100
AcDbLine
 39
0.25
 370
106
 10
186.6776
 20
260.543322460937
 30
0.0
 11
195.8516
 21
265.730322460937
 31
0.0
 0
LINE
 5
474
100
AcDbEntity
 8
Layer8
100
AcDbLine
 39
0.25
 370
106
 10
195.8516
 20
265.730322460937
 30
0.0
 11
194.5556
 21
267.973322460937
 31
0.0
 0
LINE
 5
475
100
AcDbEntity
 8
Layer8
100
AcDbLine
 39
0.25
 370
106
 10
194.5556
 20
267.973322460937
 30
0.0
 11
185.1616
 21
262.663322460937
 31
0.0
 0
LINE
 5
476
100
AcDbEntity
 8
Layer8
100
AcDbLine
 39
0.25
 370
106
 10
178.1376
 20
262.663322460937
 30
0.0
 11
168.5206
 21
268.099322460938
 31
0.0
 0
LINE
 5
477
100
AcDbEntity
 8
Layer8
100
AcDbLine
 39
0.25
 370
106
 10
168.5206
 20
268.099322460938
 30
0.0
 11
167.2246
 21
265.856322460937
 31
0.0
 0
ARC
 5
478
100
AcDbEntity
 8
Layer8
100
AcDbCircle
 39
0.25
 370
106
 10
172.849140134126
 20
254.30411715121
 30
0.0
 40
7.29097948526799
100
AcDbArc
 50
2.24970742790631
 51
58.8419253062694
 0
LINE
 5
479
100
AcDbEntity
 8
Layer8
100
AcDbLine
 39
0.25
 370
106
 10
180.1345
 20
244.332322460937
 30
0.0
 11
180.1345
 21
254.590322460938
 31
0.0
 0
LINE
 5
47A
100
AcDbEntity
 8
Layer8
100
AcDbLine
 39
0.25
 370
106
 10
176.6215
 20
260.543322460937
 30
0.0
 11
167.2245
 21
265.856322460937
 31
0.0
 0
ARC
 5
47B
100
AcDbEntity
 8
Layer8
100
AcDbCircle
 39
0.25
 370
106
 10
163.517183996964
 20
279.319572759718
 30
0.0
 40
7.31189952561655
100
AcDbArc
 50
-177.734421995361
 51
-121.249688882681
 0
LINE
 5
47C
100
AcDbEntity
 8
Layer8
100
AcDbLine
 39
0.25
 370
106
 10
156.211
 20
289.323522460938
 30
0.0
 11
156.211
 21
279.030522460938
 31
0.0
 0
ARC
 5
47D
100
AcDbEntity
 8
Layer8
100
AcDbCircle
 39
0.25
 370
106
 10
73.8262636863241
 20
259.344558774616
 30
0.0
 40
2.28956375571112
100
AcDbArc
 50
90.0141061141416
 51
179.985893885922
 0
ARC
 5
47E
100
AcDbEntity
 8
Layer8
100
AcDbCircle
 39
0.25
 370
106
 10
73.8291000000018
 20
259.342885955814
 30
0.0
 40
2.29200109117847
100
AcDbArc
 50
179.944091507964
 51
0.0559084920415138
 0
LINE
 5
47F
100
AcDbEntity
 8
Layer8
100
AcDbLine
 39
0.25
 370
106
 10
159.724
 20
273.068522460938
 30
0.0
 11
168.521
 21
268.103522460937
 31
0.0
 0
LINE
 5
480
100
AcDbEntity
 8
Layer8
100
AcDbLine
 39
0.25
 370
106
 10
168.521
 20
268.103522460937
 30
0.0
 11
167.224
 21
265.856522460938
 31
0.0
 0
ARC
 5
481
100
AcDbEntity
 8
Layer8
100
AcDbCircle
 39
0.25
 370
106
 10
127.7392
 20
269.375942755549
 30
0.0
 40
7.57694874654335
100
AcDbArc
 50
-117.630976005202
 51
-62.3690239947968
 0
LINE
 5
482
100
AcDbEntity
 8
Layer8
100
AcDbLine
 39
0.25
 370
106
 10
140.4422
 20
267.855122460937
 30
0.0
 11
131.2532
 21
262.663122460937
 31
0.0
 0
CIRCLE
 5
483
100
AcDbEntity
 8
Layer8
100
AcDbCircle
 39
0.25
 370
106
 10
73.8287
 20
259.345122460937
 30
0.0
 40
2.72075
 370
106
 0
ARC
 5
484
100
AcDbEntity
 8
Layer8
100
AcDbCircle
 39
0.25
 370
106
 10
73.8268490435655
 20
259.3398661499
 30
0.0
 40
2.29425697773946
100
AcDbArc
 50
0.131268948786468
 51
90.0436798602666
 0
LINE
 5
485
100
AcDbEntity
 8
Layer8
100
AcDbLine
 39
0.25
 370
106
 10
124.2252
 20
262.663122460937
 30
0.0
 11
114.6042
 21
268.101122460937
 31
0.0
 0
LINE
 5
486
100
AcDbEntity
 8
Layer8
100
AcDbLine
 39
0.25
 370
106
 10
114.6042
 20
268.101122460937
 30
0.0
 11
113.2942
 21
265.839122460937
 31
0.0
 0
ARC
 5
487
100
AcDbEntity
 8
Layer8
100
AcDbCircle
 39
0.25
 370
106
 10
74.3757446832128
 20
268.284899144997
 30
0.0
 40
6.32836295096644
100
AcDbArc
 50
-77.5218210161807
 51
-62.589352435703
 0
LINE
 5
488
100
AcDbEntity
 8
Layer8
100
AcDbLine
 39
0.25
 370
106
 10
77.1931
 20
259.345022460938
 30
0.0
 11
77.1883592592593
 21
259.276578016493
 31
0.0
 0
LINE
 5
489
100
AcDbEntity
 8
Layer8
100
AcDbLine
 39
0.25
 370
106
 10
77.1883592592593
 20
259.276578016493
 30
0.0
 11
77.1791740740741
 21
259.210800238715
 31
0.0
 0
LINE
 5
48A
100
AcDbEntity
 8
Layer8
100
AcDbLine
 39
0.25
 370
106
 10
77.1791740740741
 20
259.210800238715
 30
0.0
 11
77.1731
 21
259.147022460937
 31
0.0
 0
ARC
 5
48B
100
AcDbEntity
 8
Layer8
100
AcDbCircle
 39
0.25
 370
106
 10
73.8419082281639
 20
259.346319973011
 30
0.0
 40
3.35119202302098
100
AcDbArc
 50
-0.0221837385112991
 51
55.4365828262091
 0
ARC
 5
48C
100
AcDbEntity
 8
Layer8
100
AcDbCircle
 39
0.25
 370
106
 10
81.8261759776342
 20
255.37840542983
 30
0.0
 40
5.98778676814719
100
AcDbArc
 50
120.322967729536
 51
140.995312141036
 0
LINE
 5
48D
100
AcDbEntity
 8
Layer8
100
AcDbLine
 39
0.25
 370
106
 10
86.5081
 20
267.875022460937
 30
0.0
 11
77.2891
 21
262.667022460937
 31
0.0
 0
ARC
 5
48E
100
AcDbEntity
 8
Layer8
100
AcDbCircle
 39
0.25
 370
106
 10
73.8274308883792
 20
259.340449774056
 30
0.0
 40
2.29367387123929
100
AcDbArc
 50
0.116723404249891
 51
90.0582254048034
 0
ARC
 5
48F
100
AcDbEntity
 8
Layer8
100
AcDbCircle
 39
0.25
 370
106
 10
73.8256800938138
 20
259.345142367126
 30
0.0
 40
2.28898009389813
100
AcDbArc
 50
89.999501725483
 51
-179.999501725431
 0
LINE
 5
490
100
AcDbEntity
 8
Layer8
100
AcDbLine
 39
0.25
 370
106
 10
78.8031
 20
260.547022460938
 30
0.0
 11
87.8041
 21
265.633022460937
 31
0.0
 0
LINE
 5
491
100
AcDbEntity
 8
Layer8
100
AcDbLine
 39
0.25
 370
106
 10
87.8041
 20
265.633022460937
 30
0.0
 11
87.3731
 21
266.381022460937
 31
0.0
 0
ARC
 5
492
100
AcDbEntity
 8
Layer8
100
AcDbCircle
 39
0.25
 370
106
 10
109.602228055396
 20
279.319455891785
 30
0.0
 40
7.30954080570368
100
AcDbArc
 50
-177.73460731844
 51
-121.220973889477
 0
LINE
 5
493
100
AcDbEntity
 8
Layer8
100
AcDbLine
 39
0.25
 370
106
 10
102.2984
 20
289.323522460938
 30
0.0
 11
102.2984
 21
279.030522460938
 31
0.0
 0
LINE
 5
494
100
AcDbEntity
 8
Layer8
100
AcDbLine
 39
0.25
 370
106
 10
105.8134
 20
273.068522460938
 30
0.0
 11
114.6024
 21
268.103522460937
 31
0.0
 0
LINE
 5
495
100
AcDbEntity
 8
Layer8
100
AcDbLine
 39
0.25
 370
106
 10
114.6024
 20
268.103522460937
 30
0.0
 11
113.2944
 21
265.839522460938
 31
0.0
 0
LINE
 5
496
100
AcDbEntity
 8
Layer8
100
AcDbLine
 39
0.25
 370
106
 10
86.5081
 20
267.875022460937
 30
0.0
 11
87.3731
 21
266.381022460937
 31
0.0
 0
ARC
 5
497
100
AcDbEntity
 8
Layer8
100
AcDbCircle
 39
0.25
 370
106
 10
100.7292
 20
264.245511287414
 30
0.0
 40
7.57397545612486
100
AcDbArc
 50
62.3743268834354
 51
117.625673116567
 0
LINE
 5
498
100
AcDbEntity
 8
Layer8
100
AcDbLine
 39
0.25
 370
106
 10
113.2942
 20
265.839022460937
 30
0.0
 11
104.2412
 21
270.956022460938
 31
0.0
 0
LINE
 5
499
100
AcDbEntity
 8
Layer8
100
AcDbLine
 39
0.25
 370
106
 10
97.2172
 20
270.956022460938
 30
0.0
 11
87.8052
 21
265.633022460937
 31
0.0
 0
LINE
 5
49A
100
AcDbEntity
 8
Layer8
100
AcDbLine
 39
0.25
 370
106
 10
87.8052
 20
265.633022460937
 30
0.0
 11
87.3732
 21
266.381022460937
 31
0.0
 0
ARC
 5
49B
100
AcDbEntity
 8
Layer8
100
AcDbCircle
 39
0.25
 370
106
 10
127.7384
 20
309.495726525189
 30
0.0
 40
7.58826967700571
100
AcDbArc
 50
62.4137613217584
 51
117.586238678244
 0
LINE
 5
49C
100
AcDbEntity
 8
Layer8
100
AcDbLine
 39
0.25
 370
106
 10
114.5044
 20
310.721322460937
 30
0.0
 11
124.2244
 21
316.221322460937
 31
0.0
 0
LINE
 5
49D
100
AcDbEntity
 8
Layer8
100
AcDbLine
 39
0.25
 370
106
 10
131.2524
 20
316.221322460937
 30
0.0
 11
140.5344
 21
310.966322460937
 31
0.0
 0
ARC
 5
49E
100
AcDbEntity
 8
Layer8
100
AcDbCircle
 39
0.25
 370
106
 10
91.9937109076984
 20
279.270116068079
 30
0.0
 40
7.22637870172866
100
AcDbArc
 50
-59.1060472855775
 51
-1.90398027618813
 0
LINE
 5
49F
100
AcDbEntity
 8
Layer8
100
AcDbLine
 39
0.25
 370
106
 10
86.5081
 20
267.875022460937
 30
0.0
 11
95.7041
 21
273.069022460938
 31
0.0
 0
LINE
 5
4A0
100
AcDbEntity
 8
Layer8
100
AcDbLine
 39
0.25
 370
106
 10
99.2161
 20
279.030022460937
 30
0.0
 11
99.2161
 21
289.323022460937
 31
0.0
 0
LINE
 5
4A1
100
AcDbEntity
 8
Layer8
100
AcDbLine
 39
0.25
 370
106
 10
86.5081
 20
267.875022460937
 30
0.0
 11
87.3731
 21
266.381022460937
 31
0.0
 0
ARC
 5
4A2
100
AcDbEntity
 8
Layer8
100
AcDbCircle
 39
0.25
 370
106
 10
253.788446310991
 20
279.268130796481
 30
0.0
 40
7.21762204776603
100
AcDbArc
 50
-59.1637485823846
 51
-1.90005392296161
 0
LINE
 5
4A3
100
AcDbEntity
 8
Layer8
100
AcDbLine
 39
0.25
 370
106
 10
248.4651
 20
267.968822460937
 30
0.0
 11
257.4881
 21
273.070822460937
 31
0.0
 0
CIRCLE
 5
4A4
100
AcDbEntity
 8
Layer8
100
AcDbCircle
 39
0.25
 370
106
 10
289.5296
 20
259.342422460938
 30
0.0
 40
2.29149999999999
 370
106
 0
LINE
 5
4A5
100
AcDbEntity
 8
Layer8
100
AcDbLine
 39
0.25
 370
106
 10
261.0021
 20
279.028822460937
 30
0.0
 11
261.0041
 21
289.323822460937
 31
0.0
 0
ARC
 5
4A6
100
AcDbEntity
 8
Layer8
100
AcDbCircle
 39
0.25
 370
106
 10
271.324833887719
 20
279.31487008016
 30
0.0
 40
7.29795371929796
100
AcDbArc
 50
-177.751325468312
 51
-121.170603603987
 0
LINE
 5
4A7
100
AcDbEntity
 8
Layer8
100
AcDbLine
 39
0.25
 370
106
 10
264.0325
 20
289.323522460938
 30
0.0
 11
264.0325
 21
279.028522460937
 31
0.0
 0
LINE
 5
4A8
100
AcDbEntity
 8
Layer8
100
AcDbLine
 39
0.25
 370
106
 10
267.5475
 20
273.070522460938
 30
0.0
 11
276.5415
 21
267.985522460937
 31
0.0
 0
LINE
 5
4A9
100
AcDbEntity
 8
Layer8
100
AcDbLine
 39
0.25
 370
106
 10
275.5227
 20
266.215422460937
 30
0.0
 11
276.5417
 21
267.985422460937
 31
0.0
 0
CIRCLE
 5
4AA
100
AcDbEntity
 8
Layer8
100
AcDbCircle
 39
0.25
 370
106
 10
289.5301
 20
259.342622460937
 30
0.0
 40
3.14799999999997
 370
106
 0
CIRCLE
 5
4AB
100
AcDbEntity
 8
Layer8
100
AcDbCircle
 39
0.25
 370
106
 10
289.5318
 20
259.345122460937
 30
0.0
 40
2.72000000000003
 370
106
 0
LINE
 5
4AC
100
AcDbEntity
 8
Layer8
100
AcDbLine
 39
0.25
 370
106
 10
275.5227
 20
266.215422460937
 30
0.0
 11
276.5417
 21
267.985422460937
 31
0.0
 0
CIRCLE
 5
4AD
100
AcDbEntity
 8
Layer8
100
AcDbCircle
 39
0.25
 370
106
 10
235.5138
 20
350.017722460938
 30
0.0
 40
2.72
 370
106
 0
ARC
 5
4AE
100
AcDbEntity
 8
Layer8
100
AcDbCircle
 39
0.25
 370
106
 10
244.515381474613
 20
324.9213329765
 30
0.0
 40
7.45083432175032
100
AcDbArc
 50
-177.14426552052
 51
-121.802905795052
 0
ARC
 5
4AF
100
AcDbEntity
 8
Layer8
100
AcDbCircle
 39
0.25
 370
106
 10
235.5603
 20
309.588194805268
 30
0.0
 40
7.72826734905632
100
AcDbArc
 50
62.9672113121617
 51
117.032788687837
 0
LINE
 5
4B0
100
AcDbEntity
 8
Layer8
100
AcDbLine
 39
0.25
 370
106
 10
237.0738
 20
324.550122460937
 30
0.0
 11
237.0738
 21
334.805122460937
 31
0.0
 0
LINE
 5
4B1
100
AcDbEntity
 8
Layer8
100
AcDbLine
 39
0.25
 370
106
 10
237.0738
 20
334.805122460937
 30
0.0
 11
234.0468
 21
334.805122460937
 31
0.0
 0
LINE
 5
4B2
100
AcDbEntity
 8
Layer8
100
AcDbLine
 39
0.25
 370
106
 10
234.0468
 20
334.805122460937
 30
0.0
 11
234.0468
 21
324.550122460937
 31
0.0
 0
LINE
 5
4B3
100
AcDbEntity
 8
Layer8
100
AcDbLine
 39
0.25
 370
106
 10
234.0468
 20
324.550122460937
 30
0.0
 11
233.76983125
 21
322.850763085938
 31
0.0
 0
LINE
 5
4B4
100
AcDbEntity
 8
Layer8
100
AcDbLine
 39
0.25
 370
106
 10
233.76983125
 20
322.850763085938
 30
0.0
 11
233.0153
 21
321.160497460937
 31
0.0
 0
LINE
 5
4B5
100
AcDbEntity
 8
Layer8
100
AcDbLine
 39
0.25
 370
106
 10
233.0153
 20
321.160497460937
 30
0.0
 11
231.89776875
 21
319.674794335938
 31
0.0
 0
LINE
 5
4B6
100
AcDbEntity
 8
Layer8
100
AcDbLine
 39
0.25
 370
106
 10
231.89776875
 20
319.674794335938
 30
0.0
 11
230.5318
 21
318.589122460938
 31
0.0
 0
LINE
 5
4B7
100
AcDbEntity
 8
Layer8
100
AcDbLine
 39
0.25
 370
106
 10
230.5318
 20
318.589122460938
 30
0.0
 11
221.3408
 21
313.389122460937
 31
0.0
 0
LINE
 5
4B8
100
AcDbEntity
 8
Layer8
100
AcDbLine
 39
0.25
 370
106
 10
221.3408
 20
313.389122460937
 30
0.0
 11
222.6348
 21
311.150122460938
 31
0.0
 0
LINE
 5
4B9
100
AcDbEntity
 8
Layer8
100
AcDbLine
 39
0.25
 370
106
 10
222.6348
 20
311.150122460938
 30
0.0
 11
232.0478
 21
316.472122460938
 31
0.0
 0
LINE
 5
4BA
100
AcDbEntity
 8
Layer8
100
AcDbLine
 39
0.25
 370
106
 10
239.0728
 20
316.472122460938
 30
0.0
 11
248.4668
 21
311.162122460938
 31
0.0
 0
LINE
 5
4BB
100
AcDbEntity
 8
Layer8
100
AcDbLine
 39
0.25
 370
106
 10
248.4668
 20
311.162122460938
 30
0.0
 11
249.7608
 21
313.405122460937
 31
0.0
 0
LINE
 5
4BC
100
AcDbEntity
 8
Layer8
100
AcDbLine
 39
0.25
 370
106
 10
249.7608
 20
313.405122460937
 30
0.0
 11
240.5888
 21
318.589122460938
 31
0.0
 0
LINE
 5
4BD
100
AcDbEntity
 8
Layer8
100
AcDbLine
 39
0.25
 370
106
 10
180.1345
 20
244.332322460937
 30
0.0
 11
183.1645
 21
244.327322460937
 31
0.0
 0
LINE
 5
4BE
100
AcDbEntity
 8
Layer8
100
AcDbLine
 39
0.25
 370
106
 10
286.2017
 20
258.997422460937
 30
0.0
 11
286.188625925926
 21
259.110089127604
 31
0.0
 0
LINE
 5
4BF
100
AcDbEntity
 8
Layer8
100
AcDbLine
 39
0.25
 370
106
 10
286.188625925926
 20
259.110089127604
 30
0.0
 11
286.173774074074
 21
259.226089127604
 31
0.0
 0
LINE
 5
4C0
100
AcDbEntity
 8
Layer8
100
AcDbLine
 39
0.25
 370
106
 10
286.173774074074
 20
259.226089127604
 30
0.0
 11
286.1667
 21
259.345422460937
 31
0.0
 0
ARC
 5
4C1
100
AcDbEntity
 8
Layer8
100
AcDbCircle
 39
0.25
 370
106
 10
280.784006047432
 20
254.616450671311
 30
0.0
 40
6.96737551630357
100
AcDbArc
 50
38.9604391487166
 51
58.2851562577648
 0
ARC
 5
4C2
100
AcDbEntity
 8
Layer8
100
AcDbCircle
 39
0.25
 370
106
 10
289.553389102441
 20
259.321332811132
 30
0.0
 40
3.38677477665748
100
AcDbArc
 50
125.416485663376
 51
179.592459790392
 0
ARC
 5
4C3
100
AcDbEntity
 8
Layer8
100
AcDbCircle
 39
0.25
 370
106
 10
288.580691122044
 20
267.427638146383
 30
0.0
 40
5.43710442947654
100
AcDbArc
 50
-118.807769727834
 51
-100.490971154827
 0
LINE
 5
4C4
100
AcDbEntity
 8
Layer8
100
AcDbLine
 39
0.25
 370
106
 10
275.5227
 20
266.215422460937
 30
0.0
 11
275.2497
 21
265.740422460937
 31
0.0
 0
LINE
 5
4C5
100
AcDbEntity
 8
Layer8
100
AcDbLine
 39
0.25
 370
106
 10
275.2497
 20
265.740422460937
 30
0.0
 11
284.4467
 21
260.543422460937
 31
0.0
 0
CIRCLE
 5
4C6
100
AcDbEntity
 8
Layer8
100
AcDbCircle
 39
0.25
 370
106
 10
235.5158
 20
350.016722460938
 30
0.0
 40
3.148
 370
106
 0
LINE
 5
4C7
100
AcDbEntity
 8
Layer8
100
AcDbLine
 39
0.25
 370
106
 10
285.9607
 20
262.663422460937
 30
0.0
 11
276.5417
 21
267.985422460937
 31
0.0
 0
CIRCLE
 5
4C8
100
AcDbEntity
 8
Layer8
100
AcDbCircle
 39
0.25
 370
106
 10
235.5139
 20
350.017922460937
 30
0.0
 40
2.29125000000002
 370
106
 0
CIRCLE
 5
4C9
100
AcDbEntity
 8
Layer8
100
AcDbCircle
 39
0.25
 370
106
 10
235.5138
 20
229.118822460938
 30
0.0
 40
2.72
 370
106
 0
ARC
 5
4CA
100
AcDbEntity
 8
Layer8
100
AcDbCircle
 39
0.25
 370
106
 10
262.4893
 20
315.133526148467
 30
0.0
 40
7.82729614753384
100
AcDbArc
 50
-116.876687543286
 51
-63.1233124567205
 0
ARC
 5
4CB
100
AcDbEntity
 8
Layer8
100
AcDbCircle
 39
0.25
 370
106
 10
253.565448995031
 20
299.478757582227
 30
0.0
 40
7.44669676916366
100
AcDbArc
 50
2.87083766918078
 51
58.2156515307386
 0
LINE
 5
4CC
100
AcDbEntity
 8
Layer8
100
AcDbLine
 39
0.25
 370
106
 10
275.0508
 20
313.252722460937
 30
0.0
 11
266.0278
 21
308.151722460937
 31
0.0
 0
LINE
 5
4CD
100
AcDbEntity
 8
Layer8
100
AcDbLine
 39
0.25
 370
106
 10
258.9508
 20
308.151722460937
 30
0.0
 11
249.9438
 21
313.243722460938
 31
0.0
 0
LINE
 5
4CE
100
AcDbEntity
 8
Layer8
100
AcDbLine
 39
0.25
 370
106
 10
249.9438
 20
313.243722460938
 30
0.0
 11
248.5608
 21
310.856722460938
 31
0.0
 0
LINE
 5
4CF
100
AcDbEntity
 8
Layer8
100
AcDbLine
 39
0.25
 370
106
 10
248.5608
 20
310.856722460938
 30
0.0
 11
257.4878
 21
305.808722460938
 31
0.0
 0
LINE
 5
4D0
100
AcDbEntity
 8
Layer8
100
AcDbLine
 39
0.25
 370
106
 10
261.0028
 20
299.851722460938
 30
0.0
 11
261.0028
 21
289.335722460938
 31
0.0
 0
LINE
 5
4D1
100
AcDbEntity
 8
Layer8
100
AcDbLine
 39
0.25
 370
106
 10
261.0028
 20
289.335722460938
 30
0.0
 11
264.0328
 21
289.335722460938
 31
0.0
 0
LINE
 5
4D2
100
AcDbEntity
 8
Layer8
100
AcDbLine
 39
0.25
 370
106
 10
264.0328
 20
289.335722460938
 30
0.0
 11
264.0328
 21
299.851722460938
 31
0.0
 0
LINE
 5
4D3
100
AcDbEntity
 8
Layer8
100
AcDbLine
 39
0.25
 370
106
 10
264.0328
 20
299.851722460938
 30
0.0
 11
264.30989375
 21
301.548909960938
 31
0.0
 0
LINE
 5
4D4
100
AcDbEntity
 8
Layer8
100
AcDbLine
 39
0.25
 370
106
 10
264.30989375
 20
301.548909960938
 30
0.0
 11
265.06455
 21
303.237472460938
 31
0.0
 0
LINE
 5
4D5
100
AcDbEntity
 8
Layer8
100
AcDbLine
 39
0.25
 370
106
 10
265.06455
 20
303.237472460938
 30
0.0
 11
266.18183125
 21
304.722409960938
 31
0.0
 0
LINE
 5
4D6
100
AcDbEntity
 8
Layer8
100
AcDbLine
 39
0.25
 370
106
 10
266.18183125
 20
304.722409960938
 30
0.0
 11
267.5468
 21
305.808722460938
 31
0.0
 0
LINE
 5
4D7
100
AcDbEntity
 8
Layer8
100
AcDbLine
 39
0.25
 370
106
 10
267.5468
 20
305.808722460938
 30
0.0
 11
276.4458
 21
310.840722460938
 31
0.0
 0
LINE
 5
4D8
100
AcDbEntity
 8
Layer8
100
AcDbLine
 39
0.25
 370
106
 10
276.4458
 20
310.840722460938
 30
0.0
 11
275.0508
 21
313.252722460937
 31
0.0
 0
ARC
 5
4D9
100
AcDbEntity
 8
Layer8
100
AcDbCircle
 39
0.25
 370
106
 10
199.778593599589
 20
279.324867143501
 30
0.0
 40
7.31892761301894
100
AcDbArc
 50
-58.7395377493297
 51
-2.3048810427725
 0
LINE
 5
4DA
100
AcDbEntity
 8
Layer8
100
AcDbLine
 39
0.25
 370
106
 10
207.0916
 20
289.323522460938
 30
0.0
 11
207.0916
 21
279.030522460938
 31
0.0
 0
ARC
 5
4DB
100
AcDbEntity
 8
Layer8
100
AcDbCircle
 39
0.25
 370
106
 10
208.602599999999
 20
264.252635938027
 30
0.0
 40
7.56675681775425
100
AcDbArc
 50
62.354264751261
 51
117.645735248728
 0
LINE
 5
4DC
100
AcDbEntity
 8
Layer8
100
AcDbLine
 39
0.25
 370
106
 10
203.5766
 20
273.068522460938
 30
0.0
 11
194.5576
 21
267.976522460938
 31
0.0
 0
LINE
 5
4DD
100
AcDbEntity
 8
Layer8
100
AcDbLine
 39
0.25
 370
106
 10
194.5576
 20
267.976522460938
 30
0.0
 11
195.8506
 21
265.733522460938
 31
0.0
 0
LINE
 5
4DE
100
AcDbEntity
 8
Layer8
100
AcDbLine
 39
0.25
 370
106
 10
195.8506
 20
265.733522460938
 30
0.0
 11
205.0916
 21
270.955522460938
 31
0.0
 0
CIRCLE
 5
4DF
100
AcDbEntity
 8
Layer8
100
AcDbCircle
 39
0.25
 370
106
 10
235.5136
 20
229.117622460937
 30
0.0
 40
3.15025
 370
106
 0
LINE
 5
4E0
100
AcDbEntity
 8
Layer8
100
AcDbLine
 39
0.25
 370
106
 10
212.1136
 20
270.955522460938
 30
0.0
 11
221.3406
 21
265.742522460937
 31
0.0
 0
LINE
 5
4E1
100
AcDbEntity
 8
Layer8
100
AcDbLine
 39
0.25
 370
106
 10
221.3406
 20
265.742522460937
 30
0.0
 11
222.0886
 21
267.037522460938
 31
0.0
 0
ARC
 5
4E2
100
AcDbEntity
 8
Layer8
100
AcDbCircle
 39
0.25
 370
106
 10
226.844932658596
 20
254.351612801096
 30
0.0
 40
7.20621218276028
100
AcDbArc
 50
1.89591425780081
 51
59.2242690045508
 0
LINE
 5
4E3
100
AcDbEntity
 8
Layer8
100
AcDbLine
 39
0.25
 370
106
 10
222.0882
 20
267.037022460938
 30
0.0
 11
221.3402
 21
265.741022460938
 31
0.0
 0
LINE
 5
4E4
100
AcDbEntity
 8
Layer8
100
AcDbLine
 39
0.25
 370
106
 10
221.3402
 20
265.741022460938
 30
0.0
 11
230.5322
 21
260.543022460938
 31
0.0
 0
LINE
 5
4E5
100
AcDbEntity
 8
Layer8
100
AcDbLine
 39
0.25
 370
106
 10
234.0472
 20
254.590022460938
 30
0.0
 11
234.0472
 21
244.327022460938
 31
0.0
 0
LINE
 5
4E6
100
AcDbEntity
 8
Layer8
100
AcDbLine
 39
0.25
 370
106
 10
180.1345
 20
244.332322460937
 30
0.0
 11
183.1645
 21
244.332322460937
 31
0.0
 0
ARC
 5
4E7
100
AcDbEntity
 8
Layer8
100
AcDbCircle
 39
0.25
 370
106
 10
262.515700000002
 20
264.250162643911
 30
0.0
 40
7.56932316748391
100
AcDbArc
 50
62.3558950851953
 51
117.64410491484
 0
LINE
 5
4E8
100
AcDbEntity
 8
Layer8
100
AcDbLine
 39
0.25
 370
106
 10
275.5227
 20
266.215422460937
 30
0.0
 11
275.2497
 21
265.742422460937
 31
0.0
 0
LINE
 5
4E9
100
AcDbEntity
 8
Layer8
100
AcDbLine
 39
0.25
 370
106
 10
275.2497
 20
265.742422460937
 30
0.0
 11
266.0277
 21
270.955422460937
 31
0.0
 0
LINE
 5
4EA
100
AcDbEntity
 8
Layer8
100
AcDbLine
 39
0.25
 370
106
 10
259.0037
 20
270.955422460937
 30
0.0
 11
249.7607
 21
265.730422460937
 31
0.0
 0
LINE
 5
4EB
100
AcDbEntity
 8
Layer8
100
AcDbLine
 39
0.25
 370
106
 10
183.1646
 20
244.332322460937
 30
0.0
 11
183.1646
 21
244.327322460937
 31
0.0
 0
CIRCLE
 5
4EC
100
AcDbEntity
 8
Layer8
100
AcDbCircle
 39
0.25
 370
106
 10
235.5136
 20
229.118222460937
 30
0.0
 40
2.29349999999999
 370
106
 0
ARC
 5
4ED
100
AcDbEntity
 8
Layer8
100
AcDbCircle
 39
0.25
 370
106
 10
235.513024183608
 20
349.994274574212
 30
0.0
 40
3.33615337212757
100
AcDbArc
 50
-123.185003777516
 51
-54.1477380195922
 0
LINE
 5
4EE
100
AcDbEntity
 8
Layer8
100
AcDbLine
 39
0.25
 370
106
 10
233.687
 20
347.202222460937
 30
0.0
 11
234.047
 21
345.370222460938
 31
0.0
 0
LINE
 5
4EF
100
AcDbEntity
 8
Layer8
100
AcDbLine
 39
0.25
 370
106
 10
234.047
 20
345.370222460938
 30
0.0
 11
234.047
 21
334.806222460937
 31
0.0
 0
LINE
 5
4F0
100
AcDbEntity
 8
Layer8
100
AcDbLine
 39
0.25
 370
106
 10
234.047
 20
334.806222460937
 30
0.0
 11
237.073
 21
334.806222460937
 31
0.0
 0
LINE
 5
4F1
100
AcDbEntity
 8
Layer8
100
AcDbLine
 39
0.25
 370
106
 10
237.073
 20
334.806222460937
 30
0.0
 11
237.073
 21
345.370222460938
 31
0.0
 0
LINE
 5
4F2
100
AcDbEntity
 8
Layer8
100
AcDbLine
 39
0.25
 370
106
 10
237.073
 20
345.370222460938
 30
0.0
 11
237.18375
 21
346.316722460937
 31
0.0
 0
LINE
 5
4F3
100
AcDbEntity
 8
Layer8
100
AcDbLine
 39
0.25
 370
106
 10
237.18375
 20
346.316722460937
 30
0.0
 11
237.467
 21
347.290222460938
 31
0.0
 0
LINE
 5
4F4
100
AcDbEntity
 8
Layer8
100
AcDbLine
 39
0.25
 370
106
 10
248.4651
 20
267.968822460937
 30
0.0
 11
249.7611
 21
265.729822460938
 31
0.0
 0
ARC
 5
4F5
100
AcDbEntity
 8
Layer8
100
AcDbCircle
 39
0.25
 370
106
 10
244.364933518393
 20
254.29896386575
 30
0.0
 40
7.2972404276538
100
AcDbArc
 50
121.165729363274
 51
177.714087374382
 0
LINE
 5
4F6
100
AcDbEntity
 8
Layer8
100
AcDbLine
 39
0.25
 370
106
 10
237.0735
 20
244.327022460938
 30
0.0
 11
237.0735
 21
254.590022460938
 31
0.0
 0
LINE
 5
4F7
100
AcDbEntity
 8
Layer8
100
AcDbLine
 39
0.25
 370
106
 10
240.5885
 20
260.543022460937
 30
0.0
 11
249.7605
 21
265.730022460938
 31
0.0
 0
LINE
 5
4F8
100
AcDbEntity
 8
Layer8
100
AcDbLine
 39
0.25
 370
106
 10
215.3725
 20
309.828722460937
 30
0.0
 11
215.374574074074
 21
309.825870609086
 31
0.0
 0
LINE
 5
4F9
100
AcDbEntity
 8
Layer8
100
AcDbLine
 39
0.25
 370
106
 10
215.374574074074
 20
309.825870609086
 30
0.0
 11
215.378425925926
 21
309.820574312789
 31
0.0
 0
LINE
 5
4FA
100
AcDbEntity
 8
Layer8
100
AcDbLine
 39
0.25
 370
106
 10
215.378425925926
 20
309.820574312789
 30
0.0
 11
215.3805
 21
309.817722460937
 31
0.0
 0
LINE
 5
4FB
100
AcDbEntity
 8
Layer8
100
AcDbLine
 39
0.25
 370
106
 10
201.8707
 20
309.809422460938
 30
0.0
 11
201.893477777778
 21
309.835348386863
 31
0.0
 0
LINE
 5
4FC
100
AcDbEntity
 8
Layer8
100
AcDbLine
 39
0.25
 370
106
 10
201.893477777778
 20
309.835348386863
 30
0.0
 11
201.916922222222
 21
309.860163201678
 31
0.0
 0
LINE
 5
4FD
100
AcDbEntity
 8
Layer8
100
AcDbLine
 39
0.25
 370
106
 10
201.916922222222
 20
309.860163201678
 30
0.0
 11
201.9397
 21
309.885422460937
 31
0.0
 0
LINE
 5
4FE
100
AcDbEntity
 8
Layer8
100
AcDbLine
 39
0.25
 370
106
 10
210.1416
 20
295.913522460937
 30
0.0
 11
210.183303703704
 21
295.921855794271
 31
0.0
 0
LINE
 5
4FF
100
AcDbEntity
 8
Layer8
100
AcDbLine
 39
0.25
 370
106
 10
210.183303703704
 20
295.921855794271
 30
0.0
 11
210.224562962963
 21
295.931522460938
 31
0.0
 0
LINE
 5
500
100
AcDbEntity
 8
Layer8
100
AcDbLine
 39
0.25
 370
106
 10
210.224562962963
 20
295.931522460938
 30
0.0
 11
210.2656
 21
295.940522460937
 31
0.0
 0
LINE
 5
501
100
AcDbEntity
 8
Layer8
100
AcDbLine
 39
0.25
 370
106
 10
216.7254
 20
307.376122460937
 30
0.0
 11
216.722807407407
 21
307.383900238715
 31
0.0
 0
LINE
 5
502
100
AcDbEntity
 8
Layer8
100
AcDbLine
 39
0.25
 370
106
 10
216.722807407407
 20
307.383900238715
 30
0.0
 11
216.717992592593
 21
307.39834468316
 31
0.0
 0
LINE
 5
503
100
AcDbEntity
 8
Layer8
100
AcDbLine
 39
0.25
 370
106
 10
216.717992592593
 20
307.39834468316
 30
0.0
 11
216.7154
 21
307.406122460937
 31
0.0
 0
ARC
 5
504
100
AcDbEntity
 8
Layer8
100
AcDbCircle
 39
0.25
 370
106
 10
208.848650661754
 20
304.62746331228
 30
0.0
 40
8.34306249618296
100
AcDbArc
 50
19.4540189082271
 51
38.4735095578628
 0
ARC
 5
505
100
AcDbEntity
 8
Layer8
100
AcDbCircle
 39
0.25
 370
106
 10
208.861637894513
 20
304.275678773953
 30
0.0
 40
8.45232404842111
100
AcDbArc
 50
-80.4365824185667
 51
21.5171700568169
 0
LINE
 5
506
100
AcDbEntity
 8
Layer8
100
AcDbLine
 39
0.25
 370
106
 10
207.2356
 20
295.899522460937
 30
0.0
 11
207.205081481482
 21
295.9044854239
 31
0.0
 0
LINE
 5
507
100
AcDbEntity
 8
Layer8
100
AcDbLine
 39
0.25
 370
106
 10
207.205081481482
 20
295.9044854239
 30
0.0
 11
207.174118518519
 21
295.908559497974
 31
0.0
 0
LINE
 5
508
100
AcDbEntity
 8
Layer8
100
AcDbLine
 39
0.25
 370
106
 10
207.174118518519
 20
295.908559497974
 30
0.0
 11
207.1436
 21
295.913522460937
 31
0.0
 0
LINE
 5
509
100
AcDbEntity
 8
Layer8
100
AcDbLine
 39
0.25
 370
106
 10
200.5516
 20
307.406522460937
 30
0.0
 11
200.562155555556
 21
307.431040979456
 31
0.0
 0
LINE
 5
50A
100
AcDbEntity
 8
Layer8
100
AcDbLine
 39
0.25
 370
106
 10
200.562155555556
 20
307.431040979456
 30
0.0
 11
200.574044444444
 21
307.455337275752
 31
0.0
 0
LINE
 5
50B
100
AcDbEntity
 8
Layer8
100
AcDbLine
 39
0.25
 370
106
 10
200.574044444444
 20
307.455337275752
 30
0.0
 11
200.5846
 21
307.480522460937
 31
0.0
 0
CIRCLE
 5
50C
100
AcDbEntity
 8
Layer8
100
AcDbCircle
 39
0.25
 370
106
 10
100.688
 20
274.745222460938
 30
0.0
 40
0.837000000000003
 370
106
 0
CIRCLE
 5
50D
100
AcDbEntity
 8
Layer8
100
AcDbCircle
 39
0.25
 370
106
 10
181.6002
 20
319.743122460937
 30
0.0
 40
0.837000000000018
 370
106
 0
CIRCLE
 5
50E
100
AcDbEntity
 8
Layer8
100
AcDbCircle
 39
0.25
 370
106
 10
262.759
 20
274.745222460938
 30
0.0
 40
0.836999999999989
 370
106
 0
LINE
 5
50F
100
AcDbEntity
 8
Layer8
100
AcDbLine
 39
0.25
 370
106
 10
248.4651
 20
267.968822460937
 30
0.0
 11
249.7611
 21
265.729822460938
 31
0.0
 0
LINE
 5
510
100
AcDbEntity
 8
Layer8
100
AcDbLine
 39
0.25
 370
106
 10
201.9164
 20
502.124822460937
 30
0.0
 11
201.9164
 21
496.196822460937
 31
0.0
 0
LINE
 5
511
100
AcDbEntity
 8
Layer8
100
AcDbLine
 39
0.25
 370
106
 10
216.5538
 20
502.124822460937
 30
0.0
 11
216.5538
 21
496.196822460937
 31
0.0
 0
LINE
 5
512
100
AcDbEntity
 8
Layer8
100
AcDbLine
 39
0.25
 370
106
 10
193.8897
 20
489.782922460938
 30
0.0
 11
187.9617
 21
489.782922460938
 31
0.0
 0
HATCH
 5
513
100
AcDbEntity
 8
Layer22
100
AcDbHatch
 10
 0.0
 20
 0.0
 30
 0.0
 210
 0.0
 220
 0.0
 230
 1.0
 2
SOLID
 70
 1
 71
 1
 91
1              
 92
 0
 93
42             
 72
 1
 10
30.715
 20
12.8131224609375
 11
34.753
 21
12.8131224609375
 72
 1
 10
34.753
 20
12.8131224609375
 11
34.632
 21
21.6941224609375
 72
 1
 10
34.632
 20
21.6941224609375
 11
34.620888671875
 21
22.3759134765625
 72
 1
 10
34.620888671875
 20
22.3759134765625
 11
34.608359375
 21
23.1078255859375
 72
 1
 10
34.608359375
 20
23.1078255859375
 11
34.592994140625
 21
23.8726673828124
 72
 1
 10
34.592994140625
 20
23.8726673828124
 11
34.573375
 21
24.6532474609375
 72
 1
 10
34.573375
 20
24.6532474609375
 11
34.548083984375
 21
25.4323744140626
 72
 1
 10
34.548083984375
 20
25.4323744140626
 11
34.515703125
 21
26.1928568359375
 72
 1
 10
34.515703125
 20
26.1928568359375
 11
34.474814453125
 21
26.9175033203126
 72
 1
 10
34.474814453125
 20
26.9175033203126
 11
34.424
 21
27.5891224609375
 72
 1
 10
34.424
 20
27.5891224609375
 11
34.610123046875
 21
27.0332884765626
 72
 1
 10
34.610123046875
 20
27.0332884765626
 11
34.867859375
 21
26.3464505859375
 72
 1
 10
34.867859375
 20
26.3464505859375
 11
35.185009765625
 21
25.5517298828125
 72
 1
 10
35.185009765625
 20
25.5517298828125
 11
35.549375
 21
24.6722474609376
 72
 1
 10
35.549375
 20
24.6722474609376
 11
35.948755859375
 21
23.7311244140626
 72
 1
 10
35.948755859375
 20
23.7311244140626
 11
36.370953125
 21
22.7514818359375
 72
 1
 10
36.370953125
 20
22.7514818359375
 11
36.803767578125
 21
21.7564408203126
 72
 1
 10
36.803767578125
 20
21.7564408203126
 11
37.235
 21
20.7691224609375
 72
 1
 10
37.235
 20
20.7691224609375
 11
40.795
 21
12.8131224609375
 72
 1
 10
40.795
 20
12.8131224609375
 11
45.161
 21
12.8131224609375
 72
 1
 10
45.161
 20
12.8131224609375
 11
45.161
 21
33.5991224609375
 72
 1
 10
45.161
 20
33.5991224609375
 11
41.183
 21
33.5991224609375
 72
 1
 10
41.183
 20
33.5991224609375
 11
41.273
 21
25.1051224609375
 72
 1
 10
41.273
 20
25.1051224609375
 11
41.289349609375
 21
24.5138392578125
 72
 1
 10
41.289349609375
 20
24.5138392578125
 11
41.315671875
 21
23.8340443359375
 72
 1
 10
41.315671875
 20
23.8340443359375
 11
41.350501953125
 21
23.0924447265625
 72
 1
 10
41.350501953125
 20
23.0924447265625
 11
41.392375
 21
22.3157474609375
 72
 1
 10
41.392375
 20
22.3157474609375
 11
41.439826171875
 21
21.5306595703125
 72
 1
 10
41.439826171875
 20
21.5306595703125
 11
41.491390625
 21
20.7638880859375
 72
 1
 10
41.491390625
 20
20.7638880859375
 11
41.545603515625
 21
20.0421400390625
 72
 1
 10
41.545603515625
 20
20.0421400390625
 11
41.601
 21
19.3921224609375
 72
 1
 10
41.601
 20
19.3921224609375
 11
41.4263046875
 21
19.9837591796875
 72
 1
 10
41.4263046875
 20
19.9837591796875
 11
41.216875
 21
20.6322787109375
 72
 1
 10
41.216875
 20
20.6322787109375
 11
40.9744453125
 21
21.3299701171875
 72
 1
 10
40.9744453125
 20
21.3299701171875
 11
40.70075
 21
22.0691224609375
 72
 1
 10
40.70075
 20
22.0691224609375
 11
40.3975234375
 21
22.8420248046874
 72
 1
 10
40.3975234375
 20
22.8420248046874
 11
40.0665
 21
23.6409662109374
 72
 1
 10
40.0665
 20
23.6409662109374
 11
39.7094140625
 21
24.4582357421875
 72
 1
 10
39.7094140625
 20
24.4582357421875
 11
39.328
 21
25.2861224609375
 72
 1
 10
39.328
 20
25.2861224609375
 11
35.352
 21
33.5991224609375
 72
 1
 10
35.352
 20
33.5991224609375
 11
30.715
 21
33.5991224609375
 72
 1
 10
30.715
 20
33.5991224609375
 11
30.715
 21
12.8131224609375
 97
 1
 330
514
 75
 0
 76
 1
 98
 1
 10
 0.0
 20
 0.0
 0
HATCH
 5
515
100
AcDbEntity
 8
Layer22
100
AcDbHatch
 10
 0.0
 20
 0.0
 30
 0.0
 210
 0.0
 220
 0.0
 230
 1.0
 2
SOLID
 70
 1
 71
 1
 91
1              
 92
 0
 93
12             
 72
 1
 10
47.6691
 20
33.5995224609375
 11
47.6691
 21
12.8135224609375
 72
 1
 10
47.6691
 20
12.8135224609375
 11
59.7831
 21
12.8135224609375
 72
 1
 10
59.7831
 20
12.8135224609375
 11
59.7831
 21
16.4025224609375
 72
 1
 10
59.7831
 20
16.4025224609375
 11
51.9181
 21
16.4025224609375
 72
 1
 10
51.9181
 20
16.4025224609375
 11
51.9181
 21
21.9645224609375
 72
 1
 10
51.9181
 20
21.9645224609375
 11
57.8081
 21
21.9645224609375
 72
 1
 10
57.8081
 20
21.9645224609375
 11
57.8081
 21
25.3755224609375
 72
 1
 10
57.8081
 20
25.3755224609375
 11
51.8561
 21
25.3755224609375
 72
 1
 10
51.8561
 20
25.3755224609375
 11
51.8561
 21
30.1895224609375
 72
 1
 10
51.8561
 20
30.1895224609375
 11
58.9741
 21
30.1895224609375
 72
 1
 10
58.9741
 20
30.1895224609375
 11
59.5131
 21
33.5995224609375
 72
 1
 10
59.5131
 20
33.5995224609375
 11
47.6691
 21
33.5995224609375
 97
 1
 330
516
 75
 0
 76
 1
 98
 1
 10
 0.0
 20
 0.0
 0
HATCH
 5
517
100
AcDbEntity
 8
Layer22
100
AcDbHatch
 10
 0.0
 20
 0.0
 30
 0.0
 210
 0.0
 220
 0.0
 230
 1.0
 2
SOLID
 70
 1
 71
 1
 91
1              
 92
 0
 93
49             
 72
 1
 10
61.3366
 20
12.8131224609375
 11
65.5536
 21
12.8131224609375
 72
 1
 10
65.5536
 20
12.8131224609375
 11
66.2706
 21
23.6701224609375
 72
 1
 10
66.2706
 20
23.6701224609375
 11
66.302598046875
 21
24.1468158203124
 72
 1
 10
66.302598046875
 20
24.1468158203124
 11
66.331584375
 21
24.6145443359375
 72
 1
 10
66.331584375
 20
24.6145443359375
 11
66.357172265625
 21
25.0754056640625
 72
 1
 10
66.357172265625
 20
25.0754056640625
 11
66.378975
 21
25.5314974609375
 72
 1
 10
66.378975
 20
25.5314974609375
 11
66.396605859375
 21
25.9849173828125
 72
 1
 10
66.396605859375
 20
25.9849173828125
 11
66.409678125
 21
26.4377630859375
 72
 1
 10
66.409678125
 20
26.4377630859375
 11
66.417805078125
 21
26.8921322265625
 72
 1
 10
66.417805078125
 20
26.8921322265625
 11
66.4206
 21
27.3501224609375
 72
 1
 10
66.4206
 20
27.3501224609375
 11
70.2196
 21
12.8131224609375
 72
 1
 10
70.2196
 20
12.8131224609375
 11
73.8986
 21
12.8131224609375
 72
 1
 10
73.8986
 20
12.8131224609375
 11
75.152703515625
 21
17.1790931640625
 72
 1
 10
75.152703515625
 20
17.1790931640625
 11
76.098053125
 21
20.4746380859375
 72
 1
 10
76.098053125
 20
20.4746380859375
 11
76.781957421875
 21
22.8687064453125
 72
 1
 10
76.781957421875
 20
22.8687064453125
 11
77.251725
 21
24.5302474609375
 72
 1
 10
77.251725
 20
24.5302474609375
 11
77.554664453125
 21
25.6282103515625
 72
 1
 10
77.554664453125
 20
25.6282103515625
 11
77.738084375
 21
26.3315443359376
 72
 1
 10
77.738084375
 20
26.3315443359376
 11
77.849293359375
 21
26.8091986328125
 72
 1
 10
77.849293359375
 20
26.8091986328125
 11
77.9356
 21
27.2301224609375
 72
 1
 10
77.9356
 20
27.2301224609375
 11
77.97672109375
 21
26.2925248046874
 72
 1
 10
77.97672109375
 20
26.2925248046874
 11
78.08513125
 21
24.5100287109375
 72
 1
 10
78.08513125
 20
24.5100287109375
 11
78.23840078125
 21
22.1815794921876
 72
 1
 10
78.23840078125
 20
22.1815794921876
 11
78.4141
 21
19.6061224609375
 72
 1
 10
78.4141
 20
19.6061224609375
 11
78.58979921875
 21
17.0826029296876
 72
 1
 10
78.58979921875
 20
17.0826029296876
 11
78.74306875
 21
14.9099662109376
 72
 1
 10
78.74306875
 20
14.9099662109376
 11
78.85147890625
 21
13.3871576171874
 72
 1
 10
78.85147890625
 20
13.3871576171874
 11
78.8926
 21
12.8131224609375
 72
 1
 10
78.8926
 20
12.8131224609375
 11
83.0206
 21
12.8131224609375
 72
 1
 10
83.0206
 20
12.8131224609375
 11
81.1666
 21
33.5991224609375
 72
 1
 10
81.1666
 20
33.5991224609375
 11
75.6926
 21
33.5991224609375
 72
 1
 10
75.6926
 20
33.5991224609375
 11
74.586762109375
 21
29.4703802734375
 72
 1
 10
74.586762109375
 20
29.4703802734375
 11
73.753209375
 21
26.3545599609374
 72
 1
 10
73.753209375
 20
26.3545599609374
 11
73.150258203125
 21
24.0925208984374
 72
 1
 10
73.150258203125
 20
24.0925208984374
 11
72.736225
 21
22.5251224609375
 72
 1
 10
72.736225
 20
22.5251224609375
 11
72.469426171875
 21
21.4932240234375
 72
 1
 10
72.469426171875
 20
21.4932240234375
 11
72.308178125
 21
20.8376849609375
 72
 1
 10
72.308178125
 20
20.8376849609375
 11
72.210797265625
 21
20.3993646484375
 72
 1
 10
72.210797265625
 20
20.3993646484375
 11
72.1356
 21
20.0191224609375
 72
 1
 10
72.1356
 20
20.0191224609375
 11
71.935734765625
 21
20.9121419921876
 72
 1
 10
71.935734765625
 20
20.9121419921876
 11
71.521428125
 21
22.5957787109375
 72
 1
 10
71.521428125
 20
22.5957787109375
 11
70.966988671875
 21
24.7896498046875
 72
 1
 10
70.966988671875
 20
24.7896498046875
 11
70.346725
 21
27.2133724609375
 72
 1
 10
70.346725
 20
27.2133724609375
 11
69.734945703125
 21
29.5865638671875
 72
 1
 10
69.734945703125
 20
29.5865638671875
 11
69.205959375
 21
31.6288412109375
 72
 1
 10
69.205959375
 20
31.6288412109375
 11
68.834074609375
 21
33.0598216796874
 72
 1
 10
68.834074609375
 20
33.0598216796874
 11
68.6936
 21
33.5991224609375
 72
 1
 10
68.6936
 20
33.5991224609375
 11
63.2816
 21
33.5991224609375
 72
 1
 10
63.2816
 20
33.5991224609375
 11
61.3366
 21
12.8131224609375
 97
 1
 330
518
 75
 0
 76
 1
 98
 1
 10
 0.0
 20
 0.0
 0
HATCH
 5
519
100
AcDbEntity
 8
Layer22
100
AcDbHatch
 10
 0.0
 20
 0.0
 30
 0.0
 210
 0.0
 220
 0.0
 230
 1.0
 2
SOLID
 70
 1
 71
 1
 91
2              
 92
 0
 93
56             
 72
 1
 10
96.9094
 20
28.0074224609375
 11
97.034972265625
 21
27.5525044921875
 72
 1
 10
97.034972265625
 20
27.5525044921875
 11
97.143915625
 21
27.0611412109374
 72
 1
 10
97.143915625
 20
27.0611412109374
 11
97.236194921875
 21
26.5305435546875
 72
 1
 10
97.236194921875
 20
26.5305435546875
 11
97.311775
 21
25.9579224609374
 72
 1
 10
97.311775
 20
25.9579224609374
 11
97.370620703125
 21
25.3404888671874
 72
 1
 10
97.370620703125
 20
25.3404888671874
 11
97.412696875
 21
24.6754537109374
 72
 1
 10
97.412696875
 20
24.6754537109374
 11
97.437968359375
 21
23.9600279296875
 72
 1
 10
97.437968359375
 20
23.9600279296875
 11
97.4464
 21
23.1914224609375
 72
 1
 10
97.4464
 20
23.1914224609375
 11
97.388097265625
 21
21.3495162109375
 72
 1
 10
97.388097265625
 20
21.3495162109375
 11
97.209665625
 21
19.7860474609375
 72
 1
 10
97.209665625
 20
19.7860474609375
 11
96.905819921875
 21
18.4908912109375
 72
 1
 10
96.905819921875
 20
18.4908912109375
 11
96.471275
 21
17.4539224609375
 72
 1
 10
96.471275
 20
17.4539224609375
 11
95.900745703125
 21
16.6650162109376
 72
 1
 10
95.900745703125
 20
16.6650162109376
 11
95.188946875
 21
16.1140474609375
 72
 1
 10
95.188946875
 20
16.1140474609375
 11
94.330593359375
 21
15.7908912109375
 72
 1
 10
94.330593359375
 20
15.7908912109375
 11
93.3204
 21
15.6854224609375
 72
 1
 10
93.3204
 20
15.6854224609375
 11
92.95703671875
 21
15.6965865234375
 72
 1
 10
92.95703671875
 20
15.6965865234375
 11
92.60818125
 21
15.7301099609375
 72
 1
 10
92.60818125
 20
15.7301099609375
 11
92.27418515625
 21
15.7860396484375
 72
 1
 10
92.27418515625
 20
15.7860396484375
 11
91.9554
 21
15.8644224609375
 72
 1
 10
91.9554
 20
15.8644224609375
 11
91.65217734375
 21
15.9653052734375
 72
 1
 10
91.65217734375
 20
15.9653052734375
 11
91.36486875
 21
16.0887349609374
 72
 1
 10
91.36486875
 20
16.0887349609374
 11
91.09382578125
 21
16.2347583984375
 72
 1
 10
91.09382578125
 20
16.2347583984375
 11
90.8394
 21
16.4034224609375
 72
 1
 10
90.8394
 20
16.4034224609375
 11
90.406749609375
 21
16.8108892578125
 72
 1
 10
90.406749609375
 20
16.8108892578125
 11
90.030759375
 21
17.3402193359375
 72
 1
 10
90.030759375
 20
17.3402193359375
 11
89.711745703125
 21
17.9924322265625
 72
 1
 10
89.711745703125
 20
17.9924322265625
 11
89.450025
 21
18.7685474609375
 72
 1
 10
89.450025
 20
18.7685474609375
 11
89.245913671875
 21
19.6695845703125
 72
 1
 10
89.245913671875
 20
19.6695845703125
 11
89.099728125
 21
20.6965630859376
 72
 1
 10
89.099728125
 20
20.6965630859376
 11
89.011784765625
 21
21.8505025390625
 72
 1
 10
89.011784765625
 20
21.8505025390625
 11
88.9824
 21
23.1324224609375
 72
 1
 10
88.9824
 20
23.1324224609375
 11
88.9979390625
 21
24.0425416015626
 72
 1
 10
88.9979390625
 20
24.0425416015626
 11
89.045025
 21
24.8905630859375
 72
 1
 10
89.045025
 20
24.8905630859375
 11
89.1243609375
 21
25.6789830078125
 72
 1
 10
89.1243609375
 20
25.6789830078125
 11
89.23665
 21
26.4102974609375
 72
 1
 10
89.23665
 20
26.4102974609375
 11
89.3825953125
 21
27.0870025390625
 72
 1
 10
89.3825953125
 20
27.0870025390625
 11
89.5629
 21
27.7115943359374
 72
 1
 10
89.5629
 20
27.7115943359374
 11
89.7782671875
 21
28.2865689453125
 72
 1
 10
89.7782671875
 20
28.2865689453125
 11
90.0294
 21
28.8144224609375
 72
 1
 10
90.0294
 20
28.8144224609375
 11
90.27392734375
 21
29.2103404296876
 72
 1
 10
90.27392734375
 20
29.2103404296876
 11
90.57655625
 21
29.5660162109375
 72
 1
 10
90.57655625
 20
29.5660162109375
 11
90.93098203125
 21
29.8775826171875
 72
 1
 10
90.93098203125
 20
29.8775826171875
 11
91.3309
 21
30.1411724609375
 72
 1
 10
91.3309
 20
30.1411724609375
 11
91.77000546875
 21
30.3529185546874
 72
 1
 10
91.77000546875
 20
30.3529185546874
 11
92.24199375
 21
30.5089537109375
 72
 1
 10
92.24199375
 20
30.5089537109375
 11
92.74056015625
 21
30.6054107421875
 72
 1
 10
92.74056015625
 20
30.6054107421875
 11
93.2594
 21
30.6384224609375
 72
 1
 10
93.2594
 20
30.6384224609375
 11
94.038730078125
 21
30.5683560546875
 72
 1
 10
94.038730078125
 20
30.5683560546875
 11
94.718040625
 21
30.3747037109375
 72
 1
 10
94.718040625
 20
30.3747037109375
 11
95.301187109375
 21
30.0822857421875
 72
 1
 10
95.301187109375
 20
30.0822857421875
 11
95.792025
 21
29.7159224609376
 72
 1
 10
95.792025
 20
29.7159224609376
 11
96.194409765625
 21
29.3004341796875
 72
 1
 10
96.194409765625
 20
29.3004341796875
 11
96.512196875
 21
28.8606412109375
 72
 1
 10
96.512196875
 20
28.8606412109375
 11
96.749241796875
 21
28.4213638671876
 72
 1
 10
96.749241796875
 20
28.4213638671876
 11
96.9094
 21
28.0074224609375
 97
 1
 330
51A
 92
 0
 93
56             
 72
 1
 10
89.0134
 20
32.8524224609375
 11
87.960870703125
 21
32.1470416015625
 72
 1
 10
87.960870703125
 20
32.1470416015625
 11
87.029478125
 21
31.2713755859374
 72
 1
 10
87.029478125
 20
31.2713755859374
 11
86.225140234375
 21
30.2377642578125
 72
 1
 10
86.225140234375
 20
30.2377642578125
 11
85.553775
 21
29.0585474609375
 72
 1
 10
85.553775
 20
29.0585474609375
 11
85.021300390625
 21
27.7460650390625
 72
 1
 10
85.021300390625
 20
27.7460650390625
 11
84.633634375
 21
26.3126568359374
 72
 1
 10
84.633634375
 20
26.3126568359374
 11
84.396694921875
 21
24.7706626953125
 72
 1
 10
84.396694921875
 20
24.7706626953125
 11
84.3164
 21
23.1324224609375
 72
 1
 10
84.3164
 20
23.1324224609375
 11
84.354214453125
 21
22.0080806640625
 72
 1
 10
84.354214453125
 20
22.0080806640625
 11
84.467415625
 21
20.9253755859376
 72
 1
 10
84.467415625
 20
20.9253755859376
 11
84.655640234375
 21
19.8862876953125
 72
 1
 10
84.655640234375
 20
19.8862876953125
 11
84.918525
 21
18.8927974609376
 72
 1
 10
84.918525
 20
18.8927974609376
 11
85.255706640625
 21
17.9468853515625
 72
 1
 10
85.255706640625
 20
17.9468853515625
 11
85.666821875
 21
17.0505318359375
 72
 1
 10
85.666821875
 20
17.0505318359375
 11
86.151507421875
 21
16.2057173828125
 72
 1
 10
86.151507421875
 20
16.2057173828125
 11
86.7094
 21
15.4144224609375
 72
 1
 10
86.7094
 20
15.4144224609375
 11
87.326148046875
 21
14.6964615234375
 72
 1
 10
87.326148046875
 20
14.6964615234375
 11
87.992759375
 21
14.0865474609375
 72
 1
 10
87.992759375
 20
14.0865474609375
 11
88.716909765625
 21
13.5808833984374
 72
 1
 10
88.716909765625
 20
13.5808833984374
 11
89.506275
 21
13.1756724609374
 72
 1
 10
89.506275
 20
13.1756724609374
 11
90.368530859375
 21
12.8671177734376
 72
 1
 10
90.368530859375
 20
12.8671177734376
 11
91.311353125
 21
12.6514224609376
 72
 1
 10
91.311353125
 20
12.6514224609376
 11
92.342417578125
 21
12.5247896484376
 72
 1
 10
92.342417578125
 20
12.5247896484376
 11
93.4694
 21
12.4834224609375
 72
 1
 10
93.4694
 20
12.4834224609375
 11
94.094636328125
 21
12.4964126953125
 72
 1
 10
94.094636328125
 20
12.4964126953125
 11
94.674228125
 21
12.5365318359375
 72
 1
 10
94.674228125
 20
12.5365318359375
 11
95.215874609375
 21
12.6055025390625
 72
 1
 10
95.215874609375
 20
12.6055025390625
 11
95.727275
 21
12.7050474609375
 72
 1
 10
95.727275
 20
12.7050474609375
 11
96.216128515625
 21
12.8368892578125
 72
 1
 10
96.216128515625
 20
12.8368892578125
 11
96.690134375
 21
13.0027505859375
 72
 1
 10
96.690134375
 20
13.0027505859375
 11
97.156991796875
 21
13.2043541015626
 72
 1
 10
97.156991796875
 20
13.2043541015626
 11
97.6244
 21
13.4434224609375
 72
 1
 10
97.6244
 20
13.4434224609375
 11
98.68338046875
 21
14.1548736328125
 72
 1
 10
98.68338046875
 20
14.1548736328125
 11
99.61249375
 21
15.0302818359374
 72
 1
 10
99.61249375
 20
15.0302818359374
 11
100.40824765625
 21
16.0622291015625
 72
 1
 10
100.40824765625
 20
16.0622291015625
 11
101.06715
 21
17.2432974609375
 72
 1
 10
101.06715
 20
17.2432974609375
 11
101.58570859375
 21
18.5660689453124
 72
 1
 10
101.58570859375
 20
18.5660689453124
 11
101.96043125
 21
20.0231255859375
 72
 1
 10
101.96043125
 20
20.0231255859375
 11
102.18782578125
 21
21.6070494140625
 72
 1
 10
102.18782578125
 20
21.6070494140625
 11
102.2644
 21
23.3104224609375
 72
 1
 10
102.2644
 20
23.3104224609375
 11
102.1069859375
 21
25.6363697265625
 72
 1
 10
102.1069859375
 20
25.6363697265625
 11
101.6448375
 21
27.7113130859375
 72
 1
 10
101.6448375
 20
27.7113130859375
 11
100.8930953125
 21
29.5170298828125
 72
 1
 10
100.8930953125
 20
29.5170298828125
 11
99.8669
 21
31.0352974609375
 72
 1
 10
99.8669
 20
31.0352974609375
 11
98.5813921875
 21
32.2478931640625
 72
 1
 10
98.5813921875
 20
32.2478931640625
 11
97.0517125
 21
33.1365943359374
 72
 1
 10
97.0517125
 20
33.1365943359374
 11
95.2930015625
 21
33.6831783203124
 72
 1
 10
95.2930015625
 20
33.6831783203124
 11
93.3204
 21
33.8694224609375
 72
 1
 10
93.3204
 20
33.8694224609375
 11
92.738835546875
 21
33.8527115234374
 72
 1
 10
92.738835546875
 20
33.8527115234374
 11
92.163259375
 21
33.8030474609375
 72
 1
 10
92.163259375
 20
33.8030474609375
 11
91.596847265625
 21
33.7211333984375
 72
 1
 10
91.596847265625
 20
33.7211333984375
 11
91.042775
 21
33.6076724609375
 72
 1
 10
91.042775
 20
33.6076724609375
 11
90.504218359375
 21
33.4633677734375
 72
 1
 10
90.504218359375
 20
33.4633677734375
 11
89.984353125
 21
33.2889224609374
 72
 1
 10
89.984353125
 20
33.2889224609374
 11
89.486355078125
 21
33.0850396484375
 72
 1
 10
89.486355078125
 20
33.0850396484375
 11
89.0134
 21
32.8524224609375
 97
 1
 330
51B
 75
 0
 76
 1
 98
 1
 10
 0.0
 20
 0.0
 0
LINE
 5
51C
100
AcDbEntity
 8
Layer8
100
AcDbLine
 39
0.25
 370
106
 10
193.8897
 20
486.598922460938
 30
0.0
 11
187.9617
 21
486.598922460938
 31
0.0
 0
TEXT
 5
51D
100
AcDbEntity
 8
Layer8
100
AcDbText
 40
9.6
 41
0.61000
 72
0
 50
0
  1
cable lenght 2,5m
  7
STANDARD
 10
115.8672
 20
75.5765224609375
 30
0.0
 11
115.8672
 21
75.5765224609375
 31
0.0
100
AcDbText
 73
  1
 0
TEXT
 5
51E
100
AcDbEntity
 8
Layer8
100
AcDbText
 40
9.6
 41
0.61000
 72
0
 50
-270
  1
16
  7
STANDARD
 10
39.8203
 20
424.046222460937
 30
0.0
 11
39.8203
 21
424.046222460937
 31
0.0
100
AcDbText
 73
  1
 0
TEXT
 5
51F
100
AcDbEntity
 8
Layer8
100
AcDbText
 40
9.6
 41
0.61000
 72
0
 50
-270
  1
82
  7
STANDARD
 10
39.7734
 20
281.739622460937
 30
0.0
 11
39.7734
 21
281.739622460937
 31
0.0
100
AcDbText
 73
  1
 0
TEXT
 5
520
100
AcDbEntity
 8
Layer8
100
AcDbText
 40
9.6
 41
0.61000
 72
0
 50
0
  1
142
  7
STANDARD
 10
172.6914
 20
167.658122460938
 30
0.0
 11
172.6914
 21
167.658122460938
 31
0.0
100
AcDbText
 73
  1
 0
TEXT
 5
521
100
AcDbEntity
 8
Layer8
100
AcDbText
 40
9.6
 41
0.61000
 72
0
 50
0
  1
Ø11
  7
STANDARD
 10
201.2559
 20
508.226922460937
 30
0.0
 11
201.2559
 21
508.226922460937
 31
0.0
100
AcDbText
 73
  1
 0
TEXT
 5
522
100
AcDbEntity
 8
Layer8
100
AcDbText
 40
9.6
 41
0.61000
 72
0
 50
-270
  1
3
  7
STANDARD
 10
175.2812
 20
485.670322460937
 30
0.0
 11
175.2812
 21
485.670322460937
 31
0.0
100
AcDbText
 73
  1
  0
ENDSEC
  0
SECTION
  2
OBJECTS
  0
DICTIONARY
  5
19
100
AcDbDictionary
  3
ACAD_GROUP
350
1A
  3
ACAD_MLINESTYLE
350
1B
  0
DICTIONARY
  5
1A
102
{ACAD_REACTORS
330
19
102
}
100
AcDbDictionary
  0
DICTIONARY
  5
1B
102
{ACAD_REACTORS
330
19
102
}
100
AcDbDictionary
  3
STANDARD
350
1C
  0
MLINESTYLE
  5
1C
102
{ACAD_REACTORS
330
1B
102
}
100
AcDbMlineStyle
  2
STANDARD
 70
     0
  3

 62
     0
 51
90.0
 52
90.0
 71
     2
 49
0.5
 62
   256
  6
BYLAYER
 49
-0.5
 62
   256
  6
BYLAYER
  0
ENDSEC
  0
EOF
