 999
SCAN2CAD Date : 01/26/16
 999
SCAN2CAD ScalePixelX : 1
 999
SCAN2CAD ScalePixelY : 1
 999
SCAN2CAD TileXOffset : 0
 999
SCAN2CAD TileYOffset : 0
 999
SCAN2CAD MeasureType : 1
 999
SCAN2CAD DotsPerInch : 0
 999
SCAN2CAD GeScalePixX : 1
 999
SCAN2CAD GeScalePixY : 1
 999
SCAN2CAD GeRasTiePtX : 0
 999
SCAN2CAD GeRasTiePtY : 0
 999
SCAN2CAD ScalRasDist : 1
 999
SCAN2CAD ScalVecDist : 1
 999
SCAN2CAD ScalUnitTyp : 0
 999
SCAN2CAD ScalDistFac : 1
 999
SCAN2CAD ScalAdjustX : 1
 999
SCAN2CAD ScalAdjustY : 1
 999
SCAN2CAD MeasureMeth : 1
 999
SCAN2CAD OgDrawScale : 1
 999
SCAN2CAD OgDrawUType : 0
 999
SCAN2CAD ToDrawScale : 1
 999
SCAN2CAD ToDrawUType : 0
  0
SECTION
  2
HEADER
  9
$ACADVER
  1
AC1014
  9
$ACADMAINTVER
 70
     0
  9
$DWGCODEPAGE
  3
ANSI_1252
  9
$INSBASE
 10
0.0
 20
0.0
 30
0.0
 9
$EXTMIN
 10
25.7738999999972
 20
12.5682833984375
 30
0.0
 9
$EXTMAX
 10
254.7811
 20
525.226483398437
 30
0.0
 9
$LIMMIN
 10
0
 20
0
 9
$LIMMAX
 10
284
 20
551
  9
$ORTHOMODE
 70
     0
  9
$REGENMODE
 70
     1
  9
$FILLMODE
 70
     1
  9
$QTEXTMODE
 70
     0
  9
$MIRRTEXT
 70
     1
  9
$DRAGMODE
 70
     2
  9
$LTSCALE
 40
1.0
  9
$OSMODE
 70
     0
  9
$ATTMODE
 70
     1
  9
$TEXTSIZE
 40
0.2
  9
$TRACEWID
 40
0.05
  9
$TEXTSTYLE
  7
STANDARD
  9
$CLAYER
  8
0
  9
$CELTYPE
  6
CONTINUOUS
  9
$CECOLOR
 62
   256
  9
$CELTSCALE
 40
1.0
  9
$DELOBJ
 70
     1
  9
$DISPSILH
 70
     0
  9
$DIMSCALE
 40
1.0
  9
$DIMASZ
 40
0.18
  9
$DIMEXO
 40
0.0625
  9
$DIMDLI
 40
0.38
  9
$DIMRND
 40
0.0
  9
$DIMDLE
 40
0.0
  9
$DIMEXE
 40
0.18
  9
$DIMTP
 40
0.0
  9
$DIMTM
 40
0.0
  9
$DIMTXT
 40
0.18
  9
$DIMCEN
 40
0.09
  9
$DIMTSZ
 40
0.0
  9
$DIMTOL
 70
     0
  9
$DIMLIM
 70
     0
  9
$DIMTIH
 70
     1
  9
$DIMTOH
 70
     1
  9
$DIMSE1
 70
     0
  9
$DIMSE2
 70
     0
  9
$DIMTAD
 70
     0
  9
$DIMZIN
 70
     0
  9
$DIMBLK
  1

  9
$DIMASO
 70
     1
  9
$DIMSHO
 70
     1
  9
$DIMPOST
  1

  9
$DIMAPOST
  1

  9
$DIMALT
 70
     0
  9
$DIMALTD
 70
     2
  9
$DIMALTF
 40
25.4
  9
$DIMLFAC
 40
1.0
  9
$DIMTOFL
 70
     0
  9
$DIMTVP
 40
0.0
  9
$DIMTIX
 70
     0
  9
$DIMSOXD
 70
     0
  9
$DIMSAH
 70
     0
  9
$DIMBLK1
  1

  9
$DIMBLK2
  1

  9
$DIMSTYLE
  2
STANDARD
  9
$DIMCLRD
 70
     0
  9
$DIMCLRE
 70
     0
  9
$DIMCLRT
 70
     0
  9
$DIMTFAC
 40
1.0
  9
$DIMGAP
 40
0.09
  9
$DIMJUST
 70
     0
  9
$DIMSD1
 70
     0
  9
$DIMSD2
 70
     0
  9
$DIMTOLJ
 70
     1
  9
$DIMTZIN
 70
     0
  9
$DIMALTZ
 70
     0
  9
$DIMALTTZ
 70
     0
  9
$DIMFIT
 70
     3
  9
$DIMUPT
 70
     0
  9
$DIMUNIT
 70
     2
  9
$DIMDEC
 70
     4
  9
$DIMTDEC
 70
     4
  9
$DIMALTU
 70
     2
  9
$DIMALTTD
 70
     2
  9
$DIMTXSTY
  7
STANDARD
  9
$DIMAUNIT
 70
     0
  9
$LUNITS
 70
     2
  9
$LUPREC
 70
     4
  9
$SKETCHINC
 40
0.1
  9
$FILLETRAD
 40
0.0
  9
$AUNITS
 70
     0
  9
$AUPREC
 70
     0
  9
$MENU
  1
acad
  9
$ELEVATION
 40
0.0
  9
$PELEVATION
 40
0.0
  9
$THICKNESS
 40
0.0
  9
$LIMCHECK
 70
     0
  9
$BLIPMODE
 70
     1
  9
$CHAMFERA
 40
0.0
  9
$CHAMFERB
 40
0.0
  9
$CHAMFERC
 40
0.0
  9
$CHAMFERD
 40
0.0
  9
$SKPOLY
 70
     0
  9
$TDCREATE
 40
0.000000000
  9
$TDUPDATE
 40
0.000000000
  9
$TDINDWG
 40
0.0000000000
  9
$TDUSRTIMER
 40
0.0000000000
  9
$USRTIMER
 70
     1
  9
$ANGBASE
 50
0.0
  9
$ANGDIR
 70
     0
  9
$PDMODE
 70
     0
  9
$PDSIZE
 40
0.0
  9
$PLINEWID
 40
0.0
  9
$COORDS
 70
     0
  9
$SPLFRAME
 70
     0
  9
$SPLINETYPE
 70
     6
  9
$SPLINESEGS
 70
     8
  9
$ATTDIA
 70
     0
  9
$ATTREQ
 70
     1
  9
$HANDLING
 70
     1
  9
$HANDSEED
  5
     4E6
  9
$SURFTAB1
 70
     6
  9
$SURFTAB2
 70
     6
  9
$SURFTYPE
 70
     6
  9
$SURFU
 70
     6
  9
$SURFV
 70
     6
  9
$UCSNAME
  2

  9
$UCSORG
 10
0.0
 20
0.0
 30
0.0
  9
$UCSXDIR
 10
1.0
 20
0.0
 30
0.0
  9
$UCSYDIR
 10
0.0
 20
1.0
 30
0.0
  9
$PUCSNAME
  2

  9
$PUCSORG
 10
0.0
 20
0.0
 30
0.0
  9
$PUCSXDIR
 10
1.0
 20
0.0
 30
0.0
  9
$PUCSYDIR
 10
0.0
 20
1.0
 30
0.0
  9
$USERI1
 70
     0
  9
$USERI2
 70
     0
  9
$USERI3
 70
     0
  9
$USERI4
 70
     0
  9
$USERI5
 70
     0
  9
$USERR1
 40
0.0
  9
$USERR2
 40
0.0
  9
$USERR3
 40
0.0
  9
$USERR4
 40
0.0
  9
$USERR5
 40
0.0
  9
$WORLDVIEW
 70
     1
  9
$SHADEDGE
 70
     3
  9
$SHADEDIF
 70
    70
  9
$TILEMODE
 70
     1
  9
$MAXACTVP
 70
    16
  9
$PINSBASE
 10
0.0
 20
0.0
 30
0.0
  9
$PLIMCHECK
 70
     0
 9
$PEXTMIN
 10
25.7738999999972
 20
12.5682833984375
 30
0.0
 9
$PEXTMAX
 10
254.7811
 20
525.226483398437
 30
0.0
 9
$PLIMMIN
 10
0
 20
0
 9
$PLIMMAX
 10
284
 20
551
  9
$UNITMODE
 70
     0
  9
$VISRETAIN
 70
     0
  9
$PLINEGEN
 70
     1
  9
$PSLTSCALE
 70
     0
  9
$TREEDEPTH
 70
  3020
  9
$PICKSTYLE
 70
     1
  9
$CMLSTYLE
  2
STANDARD
  9
$CMLJUST
 70
     0
  9
$CMLSCALE
 40
1.0
  9
$PROXYGRAPHICS
 70
     0
  9
$MEASUREMENT
 70
     0
  0
ENDSEC
  0
SECTION
  2
CLASSES
  0
CLASS
  1
LWPOLYLINE
  2
AcDbPolyline
  3
"AutoCAD"
 90
        0
280
     0
281
     1
  0
CLASS
  1
IMAGE
  2
AcDbRasterImage
  3
ISM
 90
      127
280
     0
281
     1
  0
CLASS
  1
OLE2FRAME
  2
AcDbOle2Frame
  3
""
 90
        0
280
     0
281
     1
  0
CLASS
  1
HATCH
  2
AcDbHatch
  3
"ACAD_SEDONA"
 90
        0
280
     0
281
     1
  0
CLASS
  1
DICTIONARYVAR
  2
AcDbDictionaryVar
  3
"AutoCAD"
 90
        0
280
     0
281
     0
  0
CLASS
  1
RASTERVARIABLES
  2
AcDbRasterVariables
  3
ISM
 90
        0
280
     0
281
     0
  0
CLASS
  1
IMAGEDEF
  2
AcDbRasterImageDef
  3
ISM
 90
        0
280
     0
281
     0
  0
CLASS
  1
IMAGEDEF_REACTOR
  2
AcDbRasterImageDefReactor
  3
ISM
 90
        1
280
     0
281
     0
  0
CLASS
  1
IDBUFFER
  2
AcDbIdBuffer
  3
"Acad"
 90
        0
280
     0
281
     0
  0
CLASS
  1
SPATIAL_FILTER
  2
AcDbSpatialFilter
  3
"Acad"
 90
        0
280
     0
281
     0
  0
CLASS
  1
XRECORD
  2
AcDbXrecord
  3
"<Built In>"
 90
        0
280
     0
281
     0
  0
CLASS
  1
SORTENTSTABLE
  2
AcDbSortentsTable
  3
"AutoCAD"
 90
        0
280
     0
281
     0
  0
CLASS
  1
LAYER_INDEX
  2
AcDbLayerIndex
  3
"Acad"
 90
        0
280
     0
281
     0
  0
CLASS
  1
SPATIAL_INDEX
  2
AcDbSpatialIndex
  3
"Acad"
 90
        0
280
     0
281
     0
  0
CLASS
  1
OBJECT_PTR
  2
CAseDLPNTableRecord
  3
"ASE-LPNTableRecord"
 90
        1
280
     0
281
     0
  0
ENDSEC
  0
SECTION
  2
TABLES
  0
TABLE
  2
VPORT
  5
7
100
AcDbSymbolTable
 70
     1
  0
VPORT
  5
15
100
AcDbSymbolTableRecord
100
AcDbViewportTableRecord
 2
*ACTIVE
 70
     0
 10
0
 20
0
 11
1.0
 21
1.0
 12
0.0
 22
0.0
 13
0.0
 23
0.0
 14
1.0
 24
1.0
 15
0.0
 25
0.0
 16
0.0
 26
0.0
 36
1.0
 17
140.277499999999
 27
268.897383398438
 37
0.0
 40
516.6582
 41
0.450989067820859
 42
50.0
 43
0.0
 44
0.0
 50
0.0
 51
0.0
 71
     0
 72
   100
 73
     1
 74
     1
 75
     0
 76
     0
 77
     0
 78
     0
   0
ENDTAB
  0
TABLE
  2
LTYPE
  5
4
100
AcDbSymbolTable
 70
3
  0
LTYPE
  5
11
100
AcDbSymbolTableRecord
100
AcDbLinetypeTableRecord
  2
BYBLOCK
 70
     0
  3

 72
    65
 73
     0
 40
0.0
  0
LTYPE
  5
12
100
AcDbSymbolTableRecord
100
AcDbLinetypeTableRecord
  2
BYLAYER
 70
     0
  3

 72
    65
 73
     0
 40
0.0
  0
LTYPE
  5
80
330
5
100
AcDbSymbolTableRecord
100
AcDbLinetypeTableRecord
  2
CONTINUOUS
 70
     0
  3
Continuous
 72
    65
 73
     0
 40
0.0
  0
LTYPE
  5
81
330
5
100
AcDbSymbolTableRecord
100
AcDbLinetypeTableRecord
  2
DASH
 70
     0
  3
Dash
 72
    65
 73
     2
 40
48.0
 49
24.0
 74
     0
 49
-24.0
 74
     0
  0
LTYPE
  5
82
330
5
100
AcDbSymbolTableRecord
100
AcDbLinetypeTableRecord
  2
DASHDOT
 70
     0
  3
DashDot
 72
    65
 73
     4
 40
48.0
 49
24.0
 74
     0
 49
 -12.0
 74
     0
 49
0.0
 74
     0
 49
 -12.0
 74
     0	
  0
ENDTAB
  0
TABLE
  2
LAYER
  5
2
100
AcDbSymbolTable
 70
4              
  0
LAYER
  5
83
100
AcDbSymbolTableRecord
100
AcDbLayerTableRecord
  2
0
 70
     0
 62
     7
  6
CONTINUOUS
 0
LAYER
  5
84
100
AcDbSymbolTableRecord
100
AcDbLayerTableRecord
 2
Layer0
 70
 64
 62
 7
 6
CONTINUOUS
 0
LAYER
  5
85
100
AcDbSymbolTableRecord
100
AcDbLayerTableRecord
 2
Layer8
 70
 64
 62
 8
 6
CONTINUOUS
 0
LAYER
  5
86
100
AcDbSymbolTableRecord
100
AcDbLayerTableRecord
 2
Layer22
 70
 64
 62
 22
 6
CONTINUOUS
  0
ENDTAB
  0
TABLE
  2
STYLE
  5
3
100
AcDbSymbolTable
 70
1              
 0
STYLE
 5
17
100
AcDbSymbolTableRecord
100
AcDbTextStyleTableRecord
 2
STANDARD
 70
 0
 40
 0.0
 41
 1.0
 50
 0.0
 71
  0
 42
 8.0
 3
 txt
 4

  0
ENDTAB
  0
TABLE
  2
VIEW
  5
5
100
AcDbSymbolTable
 70
     0
  0
ENDTAB
  0
TABLE
  2
UCS
  5
6
100
AcDbSymbolTable
 70
     0
  0
ENDTAB
  0
TABLE
  2
APPID
  5
8
100
AcDbSymbolTable
 70
     1
  0
APPID
  5
16
100
AcDbSymbolTableRecord
100
AcDbRegAppTableRecord
  2
ACAD
 70
     0
  0
ENDTAB
  0
TABLE
  2
DIMSTYLE
  5
9
100
AcDbSymbolTable
 70
     1
  0
DIMSTYLE
105
18
100
AcDbSymbolTableRecord
100
AcDbDimStyleTableRecord
  2
STANDARD
 70
     0
  3

  4

  5

  6

  7

 40
1.0
 41
0.18
 42
0.0625
 43
0.38
 44
0.18
 45
0.0
 46
0.0
 47
0.0
 48
0.0
140
0.18
141
0.09
142
0.0
143
25.4
144
1.0
145
0.0
146
1.0
147
0.09
 71
     0
 72
     0
 73
     1
 74
     1
 75
     0
 76
     0
 77
     0
 78
     0
170
     0
171
     2
172
     0
173
     0
174
     0
175
     0
176
     0
177
     0
178
     0
270
     2
271
     4
272
     4
273
     2
274
     2
340
17
275
     0
280
     0
281
     0
282
     0
283
     1
284
     0
285
     0
286
     0
287
     0
288
     0
  0
ENDTAB
  0
TABLE
  2
BLOCK_RECORD
  5
1
100
AcDbSymbolTable
 70
     0
  0
BLOCK_RECORD
  5
A
100
AcDbSymbolTableRecord
100
AcDbBlockTableRecord
  2
*MODEL_SPACE
  0
BLOCK_RECORD
  5
B
100
AcDbSymbolTableRecord
100
AcDbBlockTableRecord
  2
*PAPER_SPACE
  0
ENDTAB
  0
ENDSEC
  0
SECTION
  2
BLOCKS
  0
BLOCK
  5
D
100
AcDbEntity
  8
0
100
AcDbBlockBegin
  2
*MODEL_SPACE
 70
     0
 10
0.0
 20
0.0
 30
0.0
  3
*MODEL_SPACE
  1

  0
ENDBLK
  5
E
100
AcDbEntity
  8
0
100
AcDbBlockEnd
  0
BLOCK
  5
F
100
AcDbEntity
 67
     1
  8
0
100
AcDbBlockBegin
  2
*PAPER_SPACE
 70
     0
 10
0.0
 20
0.0
 30
0.0
  3
*PAPER_SPACE
  1

  0
ENDBLK
  5
10
100
AcDbEntity
 67
     1
  8
0
100
AcDbBlockEnd
 0
ENDSEC
 0
SECTION
 2
ENTITIES
 0
LINE
 5
87
100
AcDbEntity
 8
Layer8
100
AcDbLine
 39
0.25
 370
106
 10
163.6078
 20
489.924583398438
 30
0.0
 11
178.9708
 21
489.924583398438
 31
0.0
 0
LINE
 5
88
100
AcDbEntity
 8
Layer8
100
AcDbLine
 39
0.25
 370
106
 10
163.7021
 20
489.924583398438
 30
0.0
 11
178.8771
 21
489.924583398438
 31
0.0
 0
LINE
 5
89
100
AcDbEntity
 8
Layer8
100
AcDbLine
 39
0.25
 370
106
 10
163.6078
 20
493.272783398438
 30
0.0
 11
178.9708
 21
493.272783398438
 31
0.0
 0
LINE
 5
8A
100
AcDbEntity
 8
Layer8
100
AcDbLine
 39
0.25
 370
106
 10
163.7021
 20
493.272783398438
 30
0.0
 11
178.8771
 21
493.272783398438
 31
0.0
 0
LINE
 5
8B
100
AcDbEntity
 8
Layer8
100
AcDbLine
 39
0.25
 370
106
 10
163.8855
 20
489.650283398438
 30
0.0
 11
178.6975
 21
489.650283398438
 31
0.0
 0
LINE
 5
8C
100
AcDbEntity
 8
Layer8
100
AcDbLine
 39
0.25
 370
106
 10
163.9798
 20
489.650283398438
 30
0.0
 11
178.6038
 21
489.650283398438
 31
0.0
 0
LINE
 5
8D
100
AcDbEntity
 8
Layer8
100
AcDbLine
 39
0.25
 370
106
 10
170.2343
 20
489.026483398438
 30
0.0
 11
170.2343
 21
489.658483398438
 31
0.0
 0
LINE
 5
8E
100
AcDbEntity
 8
Layer8
100
AcDbLine
 39
0.25
 370
106
 10
170.2343
 20
489.120583398437
 30
0.0
 11
170.2343
 21
489.562583398437
 31
0.0
 0
LINE
 5
8F
100
AcDbEntity
 8
Layer8
100
AcDbLine
 39
0.25
 370
106
 10
172.3335
 20
489.026483398438
 30
0.0
 11
172.3335
 21
489.658483398438
 31
0.0
 0
LINE
 5
90
100
AcDbEntity
 8
Layer8
100
AcDbLine
 39
0.25
 370
106
 10
172.3335
 20
489.120583398437
 30
0.0
 11
172.3335
 21
489.562583398437
 31
0.0
 0
LINE
 5
91
100
AcDbEntity
 8
Layer8
100
AcDbLine
 39
0.25
 370
106
 10
170.2433
 20
489.026483398438
 30
0.0
 11
170.2433
 21
489.658483398438
 31
0.0
 0
LINE
 5
92
100
AcDbEntity
 8
Layer8
100
AcDbLine
 39
0.25
 370
106
 10
170.2433
 20
489.120583398437
 30
0.0
 11
170.2433
 21
489.562583398437
 31
0.0
 0
LINE
 5
93
100
AcDbEntity
 8
Layer8
100
AcDbLine
 39
0.25
 370
106
 10
172.3215
 20
489.026483398438
 30
0.0
 11
172.3215
 21
489.658483398438
 31
0.0
 0
LINE
 5
94
100
AcDbEntity
 8
Layer8
100
AcDbLine
 39
0.25
 370
106
 10
172.3215
 20
489.120583398437
 30
0.0
 11
172.3215
 21
489.562583398437
 31
0.0
 0
LINE
 5
95
100
AcDbEntity
 8
Layer8
100
AcDbLine
 39
0.25
 370
106
 10
170.2527
 20
489.026483398438
 30
0.0
 11
170.2527
 21
489.658483398438
 31
0.0
 0
LINE
 5
96
100
AcDbEntity
 8
Layer8
100
AcDbLine
 39
0.25
 370
106
 10
170.2527
 20
489.120583398437
 30
0.0
 11
170.2527
 21
489.562583398437
 31
0.0
 0
LINE
 5
97
100
AcDbEntity
 8
Layer8
100
AcDbLine
 39
0.25
 370
106
 10
172.3121
 20
489.026483398438
 30
0.0
 11
172.3121
 21
489.658483398438
 31
0.0
 0
LINE
 5
98
100
AcDbEntity
 8
Layer8
100
AcDbLine
 39
0.25
 370
106
 10
172.3121
 20
489.120583398437
 30
0.0
 11
172.3121
 21
489.562583398437
 31
0.0
 0
LINE
 5
99
100
AcDbEntity
 8
Layer8
100
AcDbLine
 39
0.25
 370
106
 10
170.2652
 20
489.026483398438
 30
0.0
 11
170.2652
 21
489.658483398438
 31
0.0
 0
LINE
 5
9A
100
AcDbEntity
 8
Layer8
100
AcDbLine
 39
0.25
 370
106
 10
170.2652
 20
489.120583398437
 30
0.0
 11
170.2652
 21
489.562583398437
 31
0.0
 0
LINE
 5
9B
100
AcDbEntity
 8
Layer8
100
AcDbLine
 39
0.25
 370
106
 10
172.3031
 20
489.026483398438
 30
0.0
 11
172.3031
 21
489.658483398438
 31
0.0
 0
LINE
 5
9C
100
AcDbEntity
 8
Layer8
100
AcDbLine
 39
0.25
 370
106
 10
172.3031
 20
489.120583398437
 30
0.0
 11
172.3031
 21
489.562583398437
 31
0.0
 0
LINE
 5
9D
100
AcDbEntity
 8
Layer8
100
AcDbLine
 39
0.25
 370
106
 10
170.2742
 20
489.026483398438
 30
0.0
 11
170.2742
 21
489.658483398438
 31
0.0
 0
LINE
 5
9E
100
AcDbEntity
 8
Layer8
100
AcDbLine
 39
0.25
 370
106
 10
170.2742
 20
489.120583398437
 30
0.0
 11
170.2742
 21
489.562583398437
 31
0.0
 0
LINE
 5
9F
100
AcDbEntity
 8
Layer8
100
AcDbLine
 39
0.25
 370
106
 10
172.2847
 20
489.026483398438
 30
0.0
 11
172.2847
 21
489.658483398438
 31
0.0
 0
LINE
 5
A0
100
AcDbEntity
 8
Layer8
100
AcDbLine
 39
0.25
 370
106
 10
172.2847
 20
489.120583398437
 30
0.0
 11
172.2847
 21
489.562583398437
 31
0.0
 0
LINE
 5
A1
100
AcDbEntity
 8
Layer8
100
AcDbLine
 39
0.25
 370
106
 10
170.292
 20
489.026483398438
 30
0.0
 11
170.292
 21
489.658483398438
 31
0.0
 0
LINE
 5
A2
100
AcDbEntity
 8
Layer8
100
AcDbLine
 39
0.25
 370
106
 10
170.292
 20
489.120583398437
 30
0.0
 11
170.292
 21
489.562583398437
 31
0.0
 0
LINE
 5
A3
100
AcDbEntity
 8
Layer8
100
AcDbLine
 39
0.25
 370
106
 10
172.2728
 20
489.026483398438
 30
0.0
 11
172.2728
 21
489.658483398438
 31
0.0
 0
LINE
 5
A4
100
AcDbEntity
 8
Layer8
100
AcDbLine
 39
0.25
 370
106
 10
172.2728
 20
489.120583398437
 30
0.0
 11
172.2728
 21
489.562583398437
 31
0.0
 0
LINE
 5
A5
100
AcDbEntity
 8
Layer8
100
AcDbLine
 39
0.25
 370
106
 10
170.3229
 20
489.026483398438
 30
0.0
 11
170.3229
 21
489.658483398438
 31
0.0
 0
LINE
 5
A6
100
AcDbEntity
 8
Layer8
100
AcDbLine
 39
0.25
 370
106
 10
170.3229
 20
489.120583398437
 30
0.0
 11
170.3229
 21
489.562583398437
 31
0.0
 0
LINE
 5
A7
100
AcDbEntity
 8
Layer8
100
AcDbLine
 39
0.25
 370
106
 10
172.2452
 20
489.026483398438
 30
0.0
 11
172.2452
 21
489.658483398438
 31
0.0
 0
LINE
 5
A8
100
AcDbEntity
 8
Layer8
100
AcDbLine
 39
0.25
 370
106
 10
172.2452
 20
489.120583398437
 30
0.0
 11
172.2452
 21
489.562583398437
 31
0.0
 0
LINE
 5
A9
100
AcDbEntity
 8
Layer8
100
AcDbLine
 39
0.25
 370
106
 10
170.3443
 20
489.026483398438
 30
0.0
 11
170.3443
 21
489.658483398438
 31
0.0
 0
LINE
 5
AA
100
AcDbEntity
 8
Layer8
100
AcDbLine
 39
0.25
 370
106
 10
170.3443
 20
489.120583398437
 30
0.0
 11
170.3443
 21
489.562583398437
 31
0.0
 0
LINE
 5
AB
100
AcDbEntity
 8
Layer8
100
AcDbLine
 39
0.25
 370
106
 10
172.2148
 20
489.026483398438
 30
0.0
 11
172.2148
 21
489.658483398438
 31
0.0
 0
LINE
 5
AC
100
AcDbEntity
 8
Layer8
100
AcDbLine
 39
0.25
 370
106
 10
172.2148
 20
489.120583398437
 30
0.0
 11
172.2148
 21
489.562583398437
 31
0.0
 0
LINE
 5
AD
100
AcDbEntity
 8
Layer8
100
AcDbLine
 39
0.25
 370
106
 10
170.3809
 20
489.026483398438
 30
0.0
 11
170.3809
 21
489.658483398438
 31
0.0
 0
LINE
 5
AE
100
AcDbEntity
 8
Layer8
100
AcDbLine
 39
0.25
 370
106
 10
170.3809
 20
489.120583398437
 30
0.0
 11
170.3809
 21
489.562583398437
 31
0.0
 0
LINE
 5
AF
100
AcDbEntity
 8
Layer8
100
AcDbLine
 39
0.25
 370
106
 10
172.1839
 20
489.026483398438
 30
0.0
 11
172.1839
 21
489.658483398438
 31
0.0
 0
LINE
 5
B0
100
AcDbEntity
 8
Layer8
100
AcDbLine
 39
0.25
 370
106
 10
172.1839
 20
489.120583398437
 30
0.0
 11
172.1839
 21
489.562583398437
 31
0.0
 0
LINE
 5
B1
100
AcDbEntity
 8
Layer8
100
AcDbLine
 39
0.25
 370
106
 10
170.4118
 20
489.026483398438
 30
0.0
 11
170.4118
 21
489.658483398438
 31
0.0
 0
LINE
 5
B2
100
AcDbEntity
 8
Layer8
100
AcDbLine
 39
0.25
 370
106
 10
170.4118
 20
489.120583398437
 30
0.0
 11
170.4118
 21
489.562583398437
 31
0.0
 0
LINE
 5
B3
100
AcDbEntity
 8
Layer8
100
AcDbLine
 39
0.25
 370
106
 10
172.1566
 20
489.026483398438
 30
0.0
 11
172.1566
 21
489.658483398438
 31
0.0
 0
LINE
 5
B4
100
AcDbEntity
 8
Layer8
100
AcDbLine
 39
0.25
 370
106
 10
172.1566
 20
489.120583398437
 30
0.0
 11
172.1566
 21
489.562583398437
 31
0.0
 0
LINE
 5
B5
100
AcDbEntity
 8
Layer8
100
AcDbLine
 39
0.25
 370
106
 10
170.4605
 20
489.026483398438
 30
0.0
 11
170.4605
 21
489.658483398438
 31
0.0
 0
LINE
 5
B6
100
AcDbEntity
 8
Layer8
100
AcDbLine
 39
0.25
 370
106
 10
170.4605
 20
489.120583398437
 30
0.0
 11
170.4605
 21
489.562583398437
 31
0.0
 0
LINE
 5
B7
100
AcDbEntity
 8
Layer8
100
AcDbLine
 39
0.25
 370
106
 10
172.1048
 20
489.026483398438
 30
0.0
 11
172.1048
 21
489.658483398438
 31
0.0
 0
LINE
 5
B8
100
AcDbEntity
 8
Layer8
100
AcDbLine
 39
0.25
 370
106
 10
172.1048
 20
489.120583398437
 30
0.0
 11
172.1048
 21
489.562583398437
 31
0.0
 0
LINE
 5
B9
100
AcDbEntity
 8
Layer8
100
AcDbLine
 39
0.25
 370
106
 10
170.4906
 20
489.026483398438
 30
0.0
 11
170.4906
 21
489.658483398438
 31
0.0
 0
LINE
 5
BA
100
AcDbEntity
 8
Layer8
100
AcDbLine
 39
0.25
 370
106
 10
170.4906
 20
489.120583398437
 30
0.0
 11
170.4906
 21
489.562583398437
 31
0.0
 0
LINE
 5
BB
100
AcDbEntity
 8
Layer8
100
AcDbLine
 39
0.25
 370
106
 10
172.0683
 20
489.026483398438
 30
0.0
 11
172.0683
 21
489.658483398438
 31
0.0
 0
LINE
 5
BC
100
AcDbEntity
 8
Layer8
100
AcDbLine
 39
0.25
 370
106
 10
172.0683
 20
489.120583398437
 30
0.0
 11
172.0683
 21
489.562583398437
 31
0.0
 0
LINE
 5
BD
100
AcDbEntity
 8
Layer8
100
AcDbLine
 39
0.25
 370
106
 10
170.5483
 20
489.026483398438
 30
0.0
 11
170.5483
 21
489.658483398438
 31
0.0
 0
LINE
 5
BE
100
AcDbEntity
 8
Layer8
100
AcDbLine
 39
0.25
 370
106
 10
170.5483
 20
489.120583398437
 30
0.0
 11
170.5483
 21
489.562583398437
 31
0.0
 0
LINE
 5
BF
100
AcDbEntity
 8
Layer8
100
AcDbLine
 39
0.25
 370
106
 10
172.0195
 20
489.026483398438
 30
0.0
 11
172.0195
 21
489.658483398438
 31
0.0
 0
LINE
 5
C0
100
AcDbEntity
 8
Layer8
100
AcDbLine
 39
0.25
 370
106
 10
172.0195
 20
489.120583398437
 30
0.0
 11
172.0195
 21
489.562583398437
 31
0.0
 0
LINE
 5
C1
100
AcDbEntity
 8
Layer8
100
AcDbLine
 39
0.25
 370
106
 10
170.5881
 20
489.026483398438
 30
0.0
 11
170.5881
 21
489.658483398438
 31
0.0
 0
LINE
 5
C2
100
AcDbEntity
 8
Layer8
100
AcDbLine
 39
0.25
 370
106
 10
170.5881
 20
489.120583398437
 30
0.0
 11
170.5881
 21
489.562583398437
 31
0.0
 0
LINE
 5
C3
100
AcDbEntity
 8
Layer8
100
AcDbLine
 39
0.25
 370
106
 10
171.9796
 20
489.026483398438
 30
0.0
 11
171.9796
 21
489.658483398438
 31
0.0
 0
LINE
 5
C4
100
AcDbEntity
 8
Layer8
100
AcDbLine
 39
0.25
 370
106
 10
171.9796
 20
489.120583398437
 30
0.0
 11
171.9796
 21
489.562583398437
 31
0.0
 0
LINE
 5
C5
100
AcDbEntity
 8
Layer8
100
AcDbLine
 39
0.25
 370
106
 10
170.6496
 20
489.026483398438
 30
0.0
 11
170.6496
 21
489.658483398438
 31
0.0
 0
LINE
 5
C6
100
AcDbEntity
 8
Layer8
100
AcDbLine
 39
0.25
 370
106
 10
170.6496
 20
489.120583398437
 30
0.0
 11
170.6496
 21
489.562583398437
 31
0.0
 0
LINE
 5
C7
100
AcDbEntity
 8
Layer8
100
AcDbLine
 39
0.25
 370
106
 10
171.9187
 20
489.026483398438
 30
0.0
 11
171.9187
 21
489.658483398438
 31
0.0
 0
LINE
 5
C8
100
AcDbEntity
 8
Layer8
100
AcDbLine
 39
0.25
 370
106
 10
171.9187
 20
489.120583398437
 30
0.0
 11
171.9187
 21
489.562583398437
 31
0.0
 0
LINE
 5
C9
100
AcDbEntity
 8
Layer8
100
AcDbLine
 39
0.25
 370
106
 10
170.6889
 20
489.026483398438
 30
0.0
 11
170.6889
 21
489.658483398438
 31
0.0
 0
LINE
 5
CA
100
AcDbEntity
 8
Layer8
100
AcDbLine
 39
0.25
 370
106
 10
170.6889
 20
489.120583398437
 30
0.0
 11
170.6889
 21
489.562583398437
 31
0.0
 0
LINE
 5
CB
100
AcDbEntity
 8
Layer8
100
AcDbLine
 39
0.25
 370
106
 10
171.8789
 20
489.026483398438
 30
0.0
 11
171.8789
 21
489.658483398438
 31
0.0
 0
LINE
 5
CC
100
AcDbEntity
 8
Layer8
100
AcDbLine
 39
0.25
 370
106
 10
171.8789
 20
489.120583398437
 30
0.0
 11
171.8789
 21
489.562583398437
 31
0.0
 0
LINE
 5
CD
100
AcDbEntity
 8
Layer8
100
AcDbLine
 39
0.25
 370
106
 10
170.7561
 20
489.026483398438
 30
0.0
 11
170.7561
 21
489.658483398438
 31
0.0
 0
LINE
 5
CE
100
AcDbEntity
 8
Layer8
100
AcDbLine
 39
0.25
 370
106
 10
170.7561
 20
489.120583398437
 30
0.0
 11
170.7561
 21
489.562583398437
 31
0.0
 0
LINE
 5
CF
100
AcDbEntity
 8
Layer8
100
AcDbLine
 39
0.25
 370
106
 10
171.8117
 20
489.026483398438
 30
0.0
 11
171.8117
 21
489.658483398438
 31
0.0
 0
LINE
 5
D0
100
AcDbEntity
 8
Layer8
100
AcDbLine
 39
0.25
 370
106
 10
171.8117
 20
489.120583398437
 30
0.0
 11
171.8117
 21
489.562583398437
 31
0.0
 0
LINE
 5
D1
100
AcDbEntity
 8
Layer8
100
AcDbLine
 39
0.25
 370
106
 10
170.8051
 20
489.026483398438
 30
0.0
 11
170.8051
 21
489.658483398438
 31
0.0
 0
LINE
 5
D2
100
AcDbEntity
 8
Layer8
100
AcDbLine
 39
0.25
 370
106
 10
170.8051
 20
489.120583398437
 30
0.0
 11
170.8051
 21
489.562583398437
 31
0.0
 0
LINE
 5
D3
100
AcDbEntity
 8
Layer8
100
AcDbLine
 39
0.25
 370
106
 10
171.7597
 20
489.026483398438
 30
0.0
 11
171.7597
 21
489.658483398438
 31
0.0
 0
LINE
 5
D4
100
AcDbEntity
 8
Layer8
100
AcDbLine
 39
0.25
 370
106
 10
171.7597
 20
489.120583398437
 30
0.0
 11
171.7597
 21
489.562583398437
 31
0.0
 0
LINE
 5
D5
100
AcDbEntity
 8
Layer8
100
AcDbLine
 39
0.25
 370
106
 10
170.8749
 20
489.026483398438
 30
0.0
 11
170.8749
 21
489.658483398438
 31
0.0
 0
LINE
 5
D6
100
AcDbEntity
 8
Layer8
100
AcDbLine
 39
0.25
 370
106
 10
170.8749
 20
489.120583398437
 30
0.0
 11
170.8749
 21
489.562583398437
 31
0.0
 0
LINE
 5
D7
100
AcDbEntity
 8
Layer8
100
AcDbLine
 39
0.25
 370
106
 10
171.6929
 20
489.026483398438
 30
0.0
 11
171.6929
 21
489.658483398438
 31
0.0
 0
LINE
 5
D8
100
AcDbEntity
 8
Layer8
100
AcDbLine
 39
0.25
 370
106
 10
171.6929
 20
489.120583398437
 30
0.0
 11
171.6929
 21
489.562583398437
 31
0.0
 0
LINE
 5
D9
100
AcDbEntity
 8
Layer8
100
AcDbLine
 39
0.25
 370
106
 10
170.9237
 20
489.026483398438
 30
0.0
 11
170.9237
 21
489.658483398438
 31
0.0
 0
LINE
 5
DA
100
AcDbEntity
 8
Layer8
100
AcDbLine
 39
0.25
 370
106
 10
170.9237
 20
489.120583398437
 30
0.0
 11
170.9237
 21
489.562583398437
 31
0.0
 0
LINE
 5
DB
100
AcDbEntity
 8
Layer8
100
AcDbLine
 39
0.25
 370
106
 10
171.6441
 20
489.026483398438
 30
0.0
 11
171.6441
 21
489.658483398438
 31
0.0
 0
LINE
 5
DC
100
AcDbEntity
 8
Layer8
100
AcDbLine
 39
0.25
 370
106
 10
171.6441
 20
489.120583398437
 30
0.0
 11
171.6441
 21
489.562583398437
 31
0.0
 0
LINE
 5
DD
100
AcDbEntity
 8
Layer8
100
AcDbLine
 39
0.25
 370
106
 10
170.991
 20
489.026483398438
 30
0.0
 11
170.991
 21
489.658483398438
 31
0.0
 0
LINE
 5
DE
100
AcDbEntity
 8
Layer8
100
AcDbLine
 39
0.25
 370
106
 10
170.991
 20
489.120583398437
 30
0.0
 11
170.991
 21
489.562583398437
 31
0.0
 0
LINE
 5
DF
100
AcDbEntity
 8
Layer8
100
AcDbLine
 39
0.25
 370
106
 10
171.5739
 20
489.026483398438
 30
0.0
 11
171.5739
 21
489.658483398438
 31
0.0
 0
LINE
 5
E0
100
AcDbEntity
 8
Layer8
100
AcDbLine
 39
0.25
 370
106
 10
171.5739
 20
489.120583398437
 30
0.0
 11
171.5739
 21
489.562583398437
 31
0.0
 0
LINE
 5
E1
100
AcDbEntity
 8
Layer8
100
AcDbLine
 39
0.25
 370
106
 10
171.0522
 20
489.026483398438
 30
0.0
 11
171.0522
 21
489.658483398438
 31
0.0
 0
LINE
 5
E2
100
AcDbEntity
 8
Layer8
100
AcDbLine
 39
0.25
 370
106
 10
171.0522
 20
489.120583398437
 30
0.0
 11
171.0522
 21
489.562583398437
 31
0.0
 0
LINE
 5
E3
100
AcDbEntity
 8
Layer8
100
AcDbLine
 39
0.25
 370
106
 10
171.5159
 20
489.026483398438
 30
0.0
 11
171.5159
 21
489.658483398438
 31
0.0
 0
LINE
 5
E4
100
AcDbEntity
 8
Layer8
100
AcDbLine
 39
0.25
 370
106
 10
171.5159
 20
489.120583398437
 30
0.0
 11
171.5159
 21
489.562583398437
 31
0.0
 0
LINE
 5
E5
100
AcDbEntity
 8
Layer8
100
AcDbLine
 39
0.25
 370
106
 10
171.1221
 20
489.026483398438
 30
0.0
 11
171.1221
 21
489.658483398438
 31
0.0
 0
LINE
 5
E6
100
AcDbEntity
 8
Layer8
100
AcDbLine
 39
0.25
 370
106
 10
171.1221
 20
489.120583398437
 30
0.0
 11
171.1221
 21
489.562583398437
 31
0.0
 0
LINE
 5
E7
100
AcDbEntity
 8
Layer8
100
AcDbLine
 39
0.25
 370
106
 10
171.4461
 20
489.026483398438
 30
0.0
 11
171.4461
 21
489.658483398438
 31
0.0
 0
LINE
 5
E8
100
AcDbEntity
 8
Layer8
100
AcDbLine
 39
0.25
 370
106
 10
171.4461
 20
489.120583398437
 30
0.0
 11
171.4461
 21
489.562583398437
 31
0.0
 0
LINE
 5
E9
100
AcDbEntity
 8
Layer8
100
AcDbLine
 39
0.25
 370
106
 10
171.18
 20
489.026483398438
 30
0.0
 11
171.18
 21
489.658483398438
 31
0.0
 0
LINE
 5
EA
100
AcDbEntity
 8
Layer8
100
AcDbLine
 39
0.25
 370
106
 10
171.18
 20
489.120583398437
 30
0.0
 11
171.18
 21
489.562583398437
 31
0.0
 0
LINE
 5
EB
100
AcDbEntity
 8
Layer8
100
AcDbLine
 39
0.25
 370
106
 10
171.3878
 20
489.026483398438
 30
0.0
 11
171.3878
 21
489.658483398438
 31
0.0
 0
LINE
 5
EC
100
AcDbEntity
 8
Layer8
100
AcDbLine
 39
0.25
 370
106
 10
171.3878
 20
489.120583398437
 30
0.0
 11
171.3878
 21
489.562583398437
 31
0.0
 0
LINE
 5
ED
100
AcDbEntity
 8
Layer8
100
AcDbLine
 39
0.25
 370
106
 10
171.2597
 20
489.026483398438
 30
0.0
 11
171.2597
 21
489.658483398438
 31
0.0
 0
LINE
 5
EE
100
AcDbEntity
 8
Layer8
100
AcDbLine
 39
0.25
 370
106
 10
171.2597
 20
489.120583398437
 30
0.0
 11
171.2597
 21
489.562583398437
 31
0.0
 0
LINE
 5
EF
100
AcDbEntity
 8
Layer8
100
AcDbLine
 39
0.25
 370
106
 10
171.3085
 20
489.026483398438
 30
0.0
 11
171.3085
 21
489.658483398438
 31
0.0
 0
LINE
 5
F0
100
AcDbEntity
 8
Layer8
100
AcDbLine
 39
0.25
 370
106
 10
171.3085
 20
489.120583398437
 30
0.0
 11
171.3085
 21
489.562583398437
 31
0.0
 0
LINE
 5
F1
100
AcDbEntity
 8
Layer8
100
AcDbLine
 39
0.25
 370
106
 10
172.3195
 20
489.050283398438
 30
0.0
 11
172.3195
 21
489.001283398438
 31
0.0
 0
LINE
 5
F2
100
AcDbEntity
 8
Layer8
100
AcDbLine
 39
0.25
 370
106
 10
172.3195
 20
489.001283398438
 30
0.0
 11
172.2865
 21
488.946283398438
 31
0.0
 0
LINE
 5
F3
100
AcDbEntity
 8
Layer8
100
AcDbLine
 39
0.25
 370
106
 10
172.2865
 20
488.946283398438
 30
0.0
 11
172.3425
 21
489.034283398437
 31
0.0
 0
LINE
 5
F4
100
AcDbEntity
 8
Layer8
100
AcDbLine
 39
0.25
 370
106
 10
172.3425
 20
489.034283398437
 30
0.0
 11
172.3425
 21
489.050283398438
 31
0.0
 0
LINE
 5
F5
100
AcDbEntity
 8
Layer8
100
AcDbLine
 39
0.25
 370
106
 10
172.3224
 20
489.039583398438
 30
0.0
 11
172.3224
 21
488.990583398438
 31
0.0
 0
LINE
 5
F6
100
AcDbEntity
 8
Layer8
100
AcDbLine
 39
0.25
 370
106
 10
172.3224
 20
488.990583398438
 30
0.0
 11
172.2894
 21
488.935583398438
 31
0.0
 0
LINE
 5
F7
100
AcDbEntity
 8
Layer8
100
AcDbLine
 39
0.25
 370
106
 10
172.2894
 20
488.935583398438
 30
0.0
 11
172.3454
 21
489.023583398437
 31
0.0
 0
LINE
 5
F8
100
AcDbEntity
 8
Layer8
100
AcDbLine
 39
0.25
 370
106
 10
172.3454
 20
489.023583398437
 30
0.0
 11
172.3454
 21
489.039583398438
 31
0.0
 0
LINE
 5
F9
100
AcDbEntity
 8
Layer8
100
AcDbLine
 39
0.25
 370
106
 10
172.3121
 20
489.018883398437
 30
0.0
 11
172.3301
 21
489.018883398437
 31
0.0
 0
LINE
 5
FA
100
AcDbEntity
 8
Layer8
100
AcDbLine
 39
0.25
 370
106
 10
172.3082
 20
489.018883398437
 30
0.0
 11
172.3262
 21
489.018883398437
 31
0.0
 0
LINE
 5
FB
100
AcDbEntity
 8
Layer8
100
AcDbLine
 39
0.25
 370
106
 10
172.3554
 20
489.063883398438
 30
0.0
 11
172.3554
 21
489.014883398438
 31
0.0
 0
LINE
 5
FC
100
AcDbEntity
 8
Layer8
100
AcDbLine
 39
0.25
 370
106
 10
172.3554
 20
489.014883398438
 30
0.0
 11
172.3224
 21
488.959883398438
 31
0.0
 0
LINE
 5
FD
100
AcDbEntity
 8
Layer8
100
AcDbLine
 39
0.25
 370
106
 10
172.3224
 20
488.959883398438
 30
0.0
 11
172.3394
 21
488.959883398438
 31
0.0
 0
LINE
 5
FE
100
AcDbEntity
 8
Layer8
100
AcDbLine
 39
0.25
 370
106
 10
172.3394
 20
488.959883398438
 30
0.0
 11
172.3394
 21
488.979883398437
 31
0.0
 0
LINE
 5
FF
100
AcDbEntity
 8
Layer8
100
AcDbLine
 39
0.25
 370
106
 10
172.3394
 20
488.979883398437
 30
0.0
 11
172.3734
 21
489.014883398438
 31
0.0
 0
LINE
 5
100
100
AcDbEntity
 8
Layer8
100
AcDbLine
 39
0.25
 370
106
 10
172.3734
 20
489.014883398438
 30
0.0
 11
172.3734
 21
489.063883398438
 31
0.0
 0
LINE
 5
101
100
AcDbEntity
 8
Layer8
100
AcDbLine
 39
0.25
 370
106
 10
172.3058
 20
489.039583398438
 30
0.0
 11
172.3058
 21
488.990583398438
 31
0.0
 0
LINE
 5
102
100
AcDbEntity
 8
Layer8
100
AcDbLine
 39
0.25
 370
106
 10
172.3058
 20
488.990583398438
 30
0.0
 11
172.2728
 21
488.935583398438
 31
0.0
 0
LINE
 5
103
100
AcDbEntity
 8
Layer8
100
AcDbLine
 39
0.25
 370
106
 10
172.2728
 20
488.935583398438
 30
0.0
 11
172.2898
 21
488.935583398438
 31
0.0
 0
LINE
 5
104
100
AcDbEntity
 8
Layer8
100
AcDbLine
 39
0.25
 370
106
 10
172.2898
 20
488.935583398438
 30
0.0
 11
172.2898
 21
488.955583398438
 31
0.0
 0
LINE
 5
105
100
AcDbEntity
 8
Layer8
100
AcDbLine
 39
0.25
 370
106
 10
172.2898
 20
488.955583398438
 30
0.0
 11
172.3238
 21
488.990583398438
 31
0.0
 0
LINE
 5
106
100
AcDbEntity
 8
Layer8
100
AcDbLine
 39
0.25
 370
106
 10
172.3238
 20
488.990583398438
 30
0.0
 11
172.3238
 21
489.039583398438
 31
0.0
 0
LINE
 5
107
100
AcDbEntity
 8
Layer8
100
AcDbLine
 39
0.25
 370
106
 10
172.2924
 20
489.018883398437
 30
0.0
 11
172.3114
 21
489.018883398437
 31
0.0
 0
LINE
 5
108
100
AcDbEntity
 8
Layer8
100
AcDbLine
 39
0.25
 370
106
 10
172.277
 20
489.018883398437
 30
0.0
 11
172.31
 21
489.018883398437
 31
0.0
 0
LINE
 5
109
100
AcDbEntity
 8
Layer8
100
AcDbLine
 39
0.25
 370
106
 10
172.274
 20
489.063483398437
 30
0.0
 11
172.256
 21
488.995483398438
 31
0.0
 0
LINE
 5
10A
100
AcDbEntity
 8
Layer8
100
AcDbLine
 39
0.25
 370
106
 10
172.256
 20
488.995483398438
 30
0.0
 11
172.241
 21
488.979483398437
 31
0.0
 0
LINE
 5
10B
100
AcDbEntity
 8
Layer8
100
AcDbLine
 39
0.25
 370
106
 10
172.241
 20
488.979483398437
 30
0.0
 11
172.241
 21
488.959483398438
 31
0.0
 0
LINE
 5
10C
100
AcDbEntity
 8
Layer8
100
AcDbLine
 39
0.25
 370
106
 10
172.241
 20
488.959483398438
 30
0.0
 11
172.256
 21
488.959483398438
 31
0.0
 0
LINE
 5
10D
100
AcDbEntity
 8
Layer8
100
AcDbLine
 39
0.25
 370
106
 10
172.256
 20
488.959483398438
 30
0.0
 11
172.256
 21
488.979483398437
 31
0.0
 0
LINE
 5
10E
100
AcDbEntity
 8
Layer8
100
AcDbLine
 39
0.25
 370
106
 10
172.256
 20
488.979483398437
 30
0.0
 11
172.295
 21
489.014483398438
 31
0.0
 0
LINE
 5
10F
100
AcDbEntity
 8
Layer8
100
AcDbLine
 39
0.25
 370
106
 10
172.295
 20
489.014483398438
 30
0.0
 11
172.295
 21
489.063483398437
 31
0.0
 0
LINE
 5
110
100
AcDbEntity
 8
Layer8
100
AcDbLine
 39
0.25
 370
106
 10
172.274
 20
489.039583398438
 30
0.0
 11
172.256
 21
488.971583398438
 31
0.0
 0
LINE
 5
111
100
AcDbEntity
 8
Layer8
100
AcDbLine
 39
0.25
 370
106
 10
172.256
 20
488.971583398438
 30
0.0
 11
172.241
 21
488.955583398438
 31
0.0
 0
LINE
 5
112
100
AcDbEntity
 8
Layer8
100
AcDbLine
 39
0.25
 370
106
 10
172.241
 20
488.955583398438
 30
0.0
 11
172.241
 21
488.935583398438
 31
0.0
 0
LINE
 5
113
100
AcDbEntity
 8
Layer8
100
AcDbLine
 39
0.25
 370
106
 10
172.241
 20
488.935583398438
 30
0.0
 11
172.256
 21
488.935583398438
 31
0.0
 0
LINE
 5
114
100
AcDbEntity
 8
Layer8
100
AcDbLine
 39
0.25
 370
106
 10
172.256
 20
488.935583398438
 30
0.0
 11
172.256
 21
488.955583398438
 31
0.0
 0
LINE
 5
115
100
AcDbEntity
 8
Layer8
100
AcDbLine
 39
0.25
 370
106
 10
172.256
 20
488.955583398438
 30
0.0
 11
172.295
 21
488.990583398438
 31
0.0
 0
LINE
 5
116
100
AcDbEntity
 8
Layer8
100
AcDbLine
 39
0.25
 370
106
 10
172.295
 20
488.990583398438
 30
0.0
 11
172.295
 21
489.039583398438
 31
0.0
 0
LINE
 5
117
100
AcDbEntity
 8
Layer8
100
AcDbLine
 39
0.25
 370
106
 10
172.2452
 20
489.018883398437
 30
0.0
 11
172.2942
 21
489.018883398437
 31
0.0
 0
LINE
 5
118
100
AcDbEntity
 8
Layer8
100
AcDbLine
 39
0.25
 370
106
 10
172.2336
 20
489.018883398437
 30
0.0
 11
172.2826
 21
489.018883398437
 31
0.0
 0
LINE
 5
119
100
AcDbEntity
 8
Layer8
100
AcDbLine
 39
0.25
 370
106
 10
172.2059
 20
489.063883398438
 30
0.0
 11
172.2059
 21
489.014883398438
 31
0.0
 0
LINE
 5
11A
100
AcDbEntity
 8
Layer8
100
AcDbLine
 39
0.25
 370
106
 10
172.2059
 20
489.014883398438
 30
0.0
 11
172.1879
 21
488.995883398438
 31
0.0
 0
LINE
 5
11B
100
AcDbEntity
 8
Layer8
100
AcDbLine
 39
0.25
 370
106
 10
172.1879
 20
488.995883398438
 30
0.0
 11
172.1879
 21
488.959883398438
 31
0.0
 0
LINE
 5
11C
100
AcDbEntity
 8
Layer8
100
AcDbLine
 39
0.25
 370
106
 10
172.1879
 20
488.959883398438
 30
0.0
 11
172.2059
 21
488.959883398438
 31
0.0
 0
LINE
 5
11D
100
AcDbEntity
 8
Layer8
100
AcDbLine
 39
0.25
 370
106
 10
172.2059
 20
488.959883398438
 30
0.0
 11
172.2589
 21
489.047883398437
 31
0.0
 0
LINE
 5
11E
100
AcDbEntity
 8
Layer8
100
AcDbLine
 39
0.25
 370
106
 10
172.2589
 20
489.047883398437
 30
0.0
 11
172.2589
 21
489.063883398438
 31
0.0
 0
LINE
 5
11F
100
AcDbEntity
 8
Layer8
100
AcDbLine
 39
0.25
 370
106
 10
172.2059
 20
489.039583398438
 30
0.0
 11
172.2059
 21
488.990583398438
 31
0.0
 0
LINE
 5
120
100
AcDbEntity
 8
Layer8
100
AcDbLine
 39
0.25
 370
106
 10
172.2059
 20
488.990583398438
 30
0.0
 11
172.1879
 21
488.971583398438
 31
0.0
 0
LINE
 5
121
100
AcDbEntity
 8
Layer8
100
AcDbLine
 39
0.25
 370
106
 10
172.1879
 20
488.971583398438
 30
0.0
 11
172.1879
 21
488.935583398438
 31
0.0
 0
LINE
 5
122
100
AcDbEntity
 8
Layer8
100
AcDbLine
 39
0.25
 370
106
 10
172.1879
 20
488.935583398438
 30
0.0
 11
172.2059
 21
488.935583398438
 31
0.0
 0
LINE
 5
123
100
AcDbEntity
 8
Layer8
100
AcDbLine
 39
0.25
 370
106
 10
172.2059
 20
488.935583398438
 30
0.0
 11
172.2589
 21
489.023583398437
 31
0.0
 0
LINE
 5
124
100
AcDbEntity
 8
Layer8
100
AcDbLine
 39
0.25
 370
106
 10
172.2589
 20
489.023583398437
 30
0.0
 11
172.2589
 21
489.039583398438
 31
0.0
 0
LINE
 5
125
100
AcDbEntity
 8
Layer8
100
AcDbLine
 39
0.25
 370
106
 10
172.1839
 20
489.018883398437
 30
0.0
 11
172.2379
 21
489.018883398437
 31
0.0
 0
LINE
 5
126
100
AcDbEntity
 8
Layer8
100
AcDbLine
 39
0.25
 370
106
 10
172.1711
 20
489.018883398437
 30
0.0
 11
172.2251
 21
489.018883398437
 31
0.0
 0
LINE
 5
127
100
AcDbEntity
 8
Layer8
100
AcDbLine
 39
0.25
 370
106
 10
172.1524
 20
489.063883398438
 30
0.0
 11
172.1314
 21
489.014883398438
 31
0.0
 0
LINE
 5
128
100
AcDbEntity
 8
Layer8
100
AcDbLine
 39
0.25
 370
106
 10
172.1314
 20
489.014883398438
 30
0.0
 11
172.1314
 21
488.995883398438
 31
0.0
 0
LINE
 5
129
100
AcDbEntity
 8
Layer8
100
AcDbLine
 39
0.25
 370
106
 10
172.1314
 20
488.995883398438
 30
0.0
 11
172.1134
 21
488.979883398437
 31
0.0
 0
LINE
 5
12A
100
AcDbEntity
 8
Layer8
100
AcDbLine
 39
0.25
 370
106
 10
172.1134
 20
488.979883398437
 30
0.0
 11
172.1134
 21
488.959883398438
 31
0.0
 0
LINE
 5
12B
100
AcDbEntity
 8
Layer8
100
AcDbLine
 39
0.25
 370
106
 10
172.1134
 20
488.959883398438
 30
0.0
 11
172.1524
 21
488.959883398438
 31
0.0
 0
LINE
 5
12C
100
AcDbEntity
 8
Layer8
100
AcDbLine
 39
0.25
 370
106
 10
172.1524
 20
488.959883398438
 30
0.0
 11
172.2014
 21
489.047883398437
 31
0.0
 0
LINE
 5
12D
100
AcDbEntity
 8
Layer8
100
AcDbLine
 39
0.25
 370
106
 10
172.2014
 20
489.047883398437
 30
0.0
 11
172.2014
 21
489.063883398438
 31
0.0
 0
LINE
 5
12E
100
AcDbEntity
 8
Layer8
100
AcDbLine
 39
0.25
 370
106
 10
172.1524
 20
489.039583398438
 30
0.0
 11
172.1314
 21
488.990583398438
 31
0.0
 0
LINE
 5
12F
100
AcDbEntity
 8
Layer8
100
AcDbLine
 39
0.25
 370
106
 10
172.1314
 20
488.990583398438
 30
0.0
 11
172.1314
 21
488.971583398438
 31
0.0
 0
LINE
 5
130
100
AcDbEntity
 8
Layer8
100
AcDbLine
 39
0.25
 370
106
 10
172.1314
 20
488.971583398438
 30
0.0
 11
172.1134
 21
488.955583398438
 31
0.0
 0
LINE
 5
131
100
AcDbEntity
 8
Layer8
100
AcDbLine
 39
0.25
 370
106
 10
172.1134
 20
488.955583398438
 30
0.0
 11
172.1134
 21
488.935583398438
 31
0.0
 0
LINE
 5
132
100
AcDbEntity
 8
Layer8
100
AcDbLine
 39
0.25
 370
106
 10
172.1134
 20
488.935583398438
 30
0.0
 11
172.1524
 21
488.935583398438
 31
0.0
 0
LINE
 5
133
100
AcDbEntity
 8
Layer8
100
AcDbLine
 39
0.25
 370
106
 10
172.1524
 20
488.935583398438
 30
0.0
 11
172.2014
 21
489.023583398437
 31
0.0
 0
LINE
 5
134
100
AcDbEntity
 8
Layer8
100
AcDbLine
 39
0.25
 370
106
 10
172.2014
 20
489.023583398437
 30
0.0
 11
172.2014
 21
489.039583398438
 31
0.0
 0
LINE
 5
135
100
AcDbEntity
 8
Layer8
100
AcDbLine
 39
0.25
 370
106
 10
172.112
 20
489.018883398437
 30
0.0
 11
172.165
 21
489.018883398437
 31
0.0
 0
LINE
 5
136
100
AcDbEntity
 8
Layer8
100
AcDbLine
 39
0.25
 370
106
 10
172.0837
 20
489.018883398437
 30
0.0
 11
172.1747
 21
489.018883398437
 31
0.0
 0
LINE
 5
137
100
AcDbEntity
 8
Layer8
100
AcDbLine
 39
0.25
 370
106
 10
172.0537
 20
489.063883398438
 30
0.0
 11
172.0537
 21
488.959883398438
 31
0.0
 0
LINE
 5
138
100
AcDbEntity
 8
Layer8
100
AcDbLine
 39
0.25
 370
106
 10
172.0537
 20
488.959883398438
 30
0.0
 11
172.0717
 21
488.959883398438
 31
0.0
 0
LINE
 5
139
100
AcDbEntity
 8
Layer8
100
AcDbLine
 39
0.25
 370
106
 10
172.0717
 20
488.959883398438
 30
0.0
 11
172.1167
 21
489.014883398438
 31
0.0
 0
LINE
 5
13A
100
AcDbEntity
 8
Layer8
100
AcDbLine
 39
0.25
 370
106
 10
172.1167
 20
489.014883398438
 30
0.0
 11
172.1167
 21
489.063883398438
 31
0.0
 0
LINE
 5
13B
100
AcDbEntity
 8
Layer8
100
AcDbLine
 39
0.25
 370
106
 10
172.0537
 20
489.039583398438
 30
0.0
 11
172.0537
 21
488.935583398438
 31
0.0
 0
LINE
 5
13C
100
AcDbEntity
 8
Layer8
100
AcDbLine
 39
0.25
 370
106
 10
172.0537
 20
488.935583398438
 30
0.0
 11
172.0717
 21
488.935583398438
 31
0.0
 0
LINE
 5
13D
100
AcDbEntity
 8
Layer8
100
AcDbLine
 39
0.25
 370
106
 10
172.0717
 20
488.935583398438
 30
0.0
 11
172.1167
 21
488.990583398438
 31
0.0
 0
LINE
 5
13E
100
AcDbEntity
 8
Layer8
100
AcDbLine
 39
0.25
 370
106
 10
172.1167
 20
488.990583398438
 30
0.0
 11
172.1167
 21
489.039583398438
 31
0.0
 0
LINE
 5
13F
100
AcDbEntity
 8
Layer8
100
AcDbLine
 39
0.25
 370
106
 10
172.0272
 20
489.018883398437
 30
0.0
 11
172.0762
 21
489.018883398437
 31
0.0
 0
LINE
 5
140
100
AcDbEntity
 8
Layer8
100
AcDbLine
 39
0.25
 370
106
 10
171.9996
 20
489.018883398437
 30
0.0
 11
172.0836
 21
489.018883398437
 31
0.0
 0
LINE
 5
141
100
AcDbEntity
 8
Layer8
100
AcDbLine
 39
0.25
 370
106
 10
171.9681
 20
489.063483398437
 30
0.0
 11
171.9681
 21
488.995483398438
 31
0.0
 0
LINE
 5
142
100
AcDbEntity
 8
Layer8
100
AcDbLine
 39
0.25
 370
106
 10
171.9681
 20
488.995483398438
 30
0.0
 11
171.9471
 21
488.979483398437
 31
0.0
 0
LINE
 5
143
100
AcDbEntity
 8
Layer8
100
AcDbLine
 39
0.25
 370
106
 10
171.9471
 20
488.979483398437
 30
0.0
 11
171.9471
 21
488.959483398438
 31
0.0
 0
LINE
 5
144
100
AcDbEntity
 8
Layer8
100
AcDbLine
 39
0.25
 370
106
 10
171.9471
 20
488.959483398438
 30
0.0
 11
171.9841
 21
488.959483398438
 31
0.0
 0
LINE
 5
145
100
AcDbEntity
 8
Layer8
100
AcDbLine
 39
0.25
 370
106
 10
171.9841
 20
488.959483398438
 30
0.0
 11
172.0011
 21
488.959483398438
 31
0.0
 0
LINE
 5
146
100
AcDbEntity
 8
Layer8
100
AcDbLine
 39
0.25
 370
106
 10
172.0011
 20
488.959483398438
 30
0.0
 11
172.0011
 21
488.979483398437
 31
0.0
 0
LINE
 5
147
100
AcDbEntity
 8
Layer8
100
AcDbLine
 39
0.25
 370
106
 10
172.0011
 20
488.979483398437
 30
0.0
 11
172.0361
 21
489.014483398438
 31
0.0
 0
LINE
 5
148
100
AcDbEntity
 8
Layer8
100
AcDbLine
 39
0.25
 370
106
 10
172.0361
 20
489.014483398438
 30
0.0
 11
172.0361
 21
489.063483398437
 31
0.0
 0
LINE
 5
149
100
AcDbEntity
 8
Layer8
100
AcDbLine
 39
0.25
 370
106
 10
171.9681
 20
489.039583398438
 30
0.0
 11
171.9681
 21
488.971583398438
 31
0.0
 0
LINE
 5
14A
100
AcDbEntity
 8
Layer8
100
AcDbLine
 39
0.25
 370
106
 10
171.9681
 20
488.971583398438
 30
0.0
 11
171.9471
 21
488.955583398438
 31
0.0
 0
LINE
 5
14B
100
AcDbEntity
 8
Layer8
100
AcDbLine
 39
0.25
 370
106
 10
171.9471
 20
488.955583398438
 30
0.0
 11
171.9471
 21
488.935583398438
 31
0.0
 0
LINE
 5
14C
100
AcDbEntity
 8
Layer8
100
AcDbLine
 39
0.25
 370
106
 10
171.9471
 20
488.935583398438
 30
0.0
 11
171.9841
 21
488.935583398438
 31
0.0
 0
LINE
 5
14D
100
AcDbEntity
 8
Layer8
100
AcDbLine
 39
0.25
 370
106
 10
171.9841
 20
488.935583398438
 30
0.0
 11
172.0011
 21
488.935583398438
 31
0.0
 0
LINE
 5
14E
100
AcDbEntity
 8
Layer8
100
AcDbLine
 39
0.25
 370
106
 10
172.0011
 20
488.935583398438
 30
0.0
 11
172.0011
 21
488.955583398438
 31
0.0
 0
LINE
 5
14F
100
AcDbEntity
 8
Layer8
100
AcDbLine
 39
0.25
 370
106
 10
172.0011
 20
488.955583398438
 30
0.0
 11
172.0361
 21
488.990583398438
 31
0.0
 0
LINE
 5
150
100
AcDbEntity
 8
Layer8
100
AcDbLine
 39
0.25
 370
106
 10
172.0361
 20
488.990583398438
 30
0.0
 11
172.0361
 21
489.039583398438
 31
0.0
 0
LINE
 5
151
100
AcDbEntity
 8
Layer8
100
AcDbLine
 39
0.25
 370
106
 10
171.9265
 20
489.018883398437
 30
0.0
 11
171.9875
 21
489.018883398437
 31
0.0
 0
LINE
 5
152
100
AcDbEntity
 8
Layer8
100
AcDbLine
 39
0.25
 370
106
 10
171.8938
 20
489.018883398437
 30
0.0
 11
172.0008
 21
489.018883398437
 31
0.0
 0
LINE
 5
153
100
AcDbEntity
 8
Layer8
100
AcDbLine
 39
0.25
 370
106
 10
171.8664
 20
489.063883398438
 30
0.0
 11
171.8484
 21
489.014883398438
 31
0.0
 0
LINE
 5
154
100
AcDbEntity
 8
Layer8
100
AcDbLine
 39
0.25
 370
106
 10
171.8484
 20
489.014883398438
 30
0.0
 11
171.8484
 21
488.959883398438
 31
0.0
 0
LINE
 5
155
100
AcDbEntity
 8
Layer8
100
AcDbLine
 39
0.25
 370
106
 10
171.8484
 20
488.959883398438
 30
0.0
 11
171.9054
 21
488.959883398438
 31
0.0
 0
LINE
 5
156
100
AcDbEntity
 8
Layer8
100
AcDbLine
 39
0.25
 370
106
 10
171.9054
 20
488.959883398438
 30
0.0
 11
171.9054
 21
488.979883398437
 31
0.0
 0
LINE
 5
157
100
AcDbEntity
 8
Layer8
100
AcDbLine
 39
0.25
 370
106
 10
171.9054
 20
488.979883398437
 30
0.0
 11
171.9344
 21
489.014883398438
 31
0.0
 0
LINE
 5
158
100
AcDbEntity
 8
Layer8
100
AcDbLine
 39
0.25
 370
106
 10
171.9344
 20
489.014883398438
 30
0.0
 11
171.9344
 21
489.063883398438
 31
0.0
 0
LINE
 5
159
100
AcDbEntity
 8
Layer8
100
AcDbLine
 39
0.25
 370
106
 10
171.8664
 20
489.039583398438
 30
0.0
 11
171.8484
 21
488.990583398438
 31
0.0
 0
LINE
 5
15A
100
AcDbEntity
 8
Layer8
100
AcDbLine
 39
0.25
 370
106
 10
171.8484
 20
488.990583398438
 30
0.0
 11
171.8484
 21
488.935583398438
 31
0.0
 0
LINE
 5
15B
100
AcDbEntity
 8
Layer8
100
AcDbLine
 39
0.25
 370
106
 10
171.8484
 20
488.935583398438
 30
0.0
 11
171.9054
 21
488.935583398438
 31
0.0
 0
LINE
 5
15C
100
AcDbEntity
 8
Layer8
100
AcDbLine
 39
0.25
 370
106
 10
171.9054
 20
488.935583398438
 30
0.0
 11
171.9054
 21
488.955583398438
 31
0.0
 0
LINE
 5
15D
100
AcDbEntity
 8
Layer8
100
AcDbLine
 39
0.25
 370
106
 10
171.9054
 20
488.955583398438
 30
0.0
 11
171.9344
 21
488.990583398438
 31
0.0
 0
LINE
 5
15E
100
AcDbEntity
 8
Layer8
100
AcDbLine
 39
0.25
 370
106
 10
171.9344
 20
488.990583398438
 30
0.0
 11
171.9344
 21
489.039583398438
 31
0.0
 0
LINE
 5
15F
100
AcDbEntity
 8
Layer8
100
AcDbLine
 39
0.25
 370
106
 10
171.8194
 20
489.018883398437
 30
0.0
 11
171.8864
 21
489.018883398437
 31
0.0
 0
LINE
 5
160
100
AcDbEntity
 8
Layer8
100
AcDbLine
 39
0.25
 370
106
 10
171.7847
 20
489.018883398437
 30
0.0
 11
171.9027
 21
489.018883398437
 31
0.0
 0
LINE
 5
161
100
AcDbEntity
 8
Layer8
100
AcDbLine
 39
0.25
 370
106
 10
171.7388
 20
489.063483398437
 30
0.0
 11
171.7388
 21
488.959483398438
 31
0.0
 0
LINE
 5
162
100
AcDbEntity
 8
Layer8
100
AcDbLine
 39
0.25
 370
106
 10
171.7388
 20
488.959483398438
 30
0.0
 11
171.7928
 21
488.959483398438
 31
0.0
 0
LINE
 5
163
100
AcDbEntity
 8
Layer8
100
AcDbLine
 39
0.25
 370
106
 10
171.7928
 20
488.959483398438
 30
0.0
 11
171.7928
 21
488.979483398437
 31
0.0
 0
LINE
 5
164
100
AcDbEntity
 8
Layer8
100
AcDbLine
 39
0.25
 370
106
 10
171.7928
 20
488.979483398437
 30
0.0
 11
171.8298
 21
489.014483398438
 31
0.0
 0
LINE
 5
165
100
AcDbEntity
 8
Layer8
100
AcDbLine
 39
0.25
 370
106
 10
171.8298
 20
489.014483398438
 30
0.0
 11
171.8298
 21
489.063483398437
 31
0.0
 0
LINE
 5
166
100
AcDbEntity
 8
Layer8
100
AcDbLine
 39
0.25
 370
106
 10
171.7388
 20
489.039583398438
 30
0.0
 11
171.7388
 21
488.935583398438
 31
0.0
 0
LINE
 5
167
100
AcDbEntity
 8
Layer8
100
AcDbLine
 39
0.25
 370
106
 10
171.7388
 20
488.935583398438
 30
0.0
 11
171.7928
 21
488.935583398438
 31
0.0
 0
LINE
 5
168
100
AcDbEntity
 8
Layer8
100
AcDbLine
 39
0.25
 370
106
 10
171.7928
 20
488.935583398438
 30
0.0
 11
171.7928
 21
488.955583398438
 31
0.0
 0
LINE
 5
169
100
AcDbEntity
 8
Layer8
100
AcDbLine
 39
0.25
 370
106
 10
171.7928
 20
488.955583398438
 30
0.0
 11
171.8298
 21
488.990583398438
 31
0.0
 0
LINE
 5
16A
100
AcDbEntity
 8
Layer8
100
AcDbLine
 39
0.25
 370
106
 10
171.8298
 20
488.990583398438
 30
0.0
 11
171.8298
 21
489.039583398438
 31
0.0
 0
LINE
 5
16B
100
AcDbEntity
 8
Layer8
100
AcDbLine
 39
0.25
 370
106
 10
171.7002
 20
489.018883398437
 30
0.0
 11
171.7672
 21
489.018883398437
 31
0.0
 0
LINE
 5
16C
100
AcDbEntity
 8
Layer8
100
AcDbLine
 39
0.25
 370
106
 10
171.6655
 20
489.018883398437
 30
0.0
 11
171.7835
 21
489.018883398437
 31
0.0
 0
LINE
 5
16D
100
AcDbEntity
 8
Layer8
100
AcDbLine
 39
0.25
 370
106
 10
171.6244
 20
489.063883398438
 30
0.0
 11
171.6244
 21
488.959883398438
 31
0.0
 0
LINE
 5
16E
100
AcDbEntity
 8
Layer8
100
AcDbLine
 39
0.25
 370
106
 10
171.6244
 20
488.959883398438
 30
0.0
 11
171.6734
 21
488.959883398438
 31
0.0
 0
LINE
 5
16F
100
AcDbEntity
 8
Layer8
100
AcDbLine
 39
0.25
 370
106
 10
171.6734
 20
488.959883398438
 30
0.0
 11
171.6924
 21
488.979883398437
 31
0.0
 0
LINE
 5
170
100
AcDbEntity
 8
Layer8
100
AcDbLine
 39
0.25
 370
106
 10
171.6924
 20
488.979883398437
 30
0.0
 11
171.6924
 21
488.995883398438
 31
0.0
 0
LINE
 5
171
100
AcDbEntity
 8
Layer8
100
AcDbLine
 39
0.25
 370
106
 10
171.6924
 20
488.995883398438
 30
0.0
 11
171.7084
 21
489.014883398438
 31
0.0
 0
LINE
 5
172
100
AcDbEntity
 8
Layer8
100
AcDbLine
 39
0.25
 370
106
 10
171.7084
 20
489.014883398438
 30
0.0
 11
171.7084
 21
489.063883398438
 31
0.0
 0
LINE
 5
173
100
AcDbEntity
 8
Layer8
100
AcDbLine
 39
0.25
 370
106
 10
171.6244
 20
489.039583398438
 30
0.0
 11
171.6244
 21
488.935583398438
 31
0.0
 0
LINE
 5
174
100
AcDbEntity
 8
Layer8
100
AcDbLine
 39
0.25
 370
106
 10
171.6244
 20
488.935583398438
 30
0.0
 11
171.6734
 21
488.935583398438
 31
0.0
 0
LINE
 5
175
100
AcDbEntity
 8
Layer8
100
AcDbLine
 39
0.25
 370
106
 10
171.6734
 20
488.935583398438
 30
0.0
 11
171.6924
 21
488.955583398438
 31
0.0
 0
LINE
 5
176
100
AcDbEntity
 8
Layer8
100
AcDbLine
 39
0.25
 370
106
 10
171.6924
 20
488.955583398438
 30
0.0
 11
171.6924
 21
488.971583398438
 31
0.0
 0
LINE
 5
177
100
AcDbEntity
 8
Layer8
100
AcDbLine
 39
0.25
 370
106
 10
171.6924
 20
488.971583398438
 30
0.0
 11
171.7084
 21
488.990583398438
 31
0.0
 0
LINE
 5
178
100
AcDbEntity
 8
Layer8
100
AcDbLine
 39
0.25
 370
106
 10
171.7084
 20
488.990583398438
 30
0.0
 11
171.7084
 21
489.039583398438
 31
0.0
 0
LINE
 5
179
100
AcDbEntity
 8
Layer8
100
AcDbLine
 39
0.25
 370
106
 10
171.5811
 20
489.018883398437
 30
0.0
 11
171.6511
 21
489.018883398437
 31
0.0
 0
LINE
 5
17A
100
AcDbEntity
 8
Layer8
100
AcDbLine
 39
0.25
 370
106
 10
171.5451
 20
489.018883398437
 30
0.0
 11
171.6681
 21
489.018883398437
 31
0.0
 0
LINE
 5
17B
100
AcDbEntity
 8
Layer8
100
AcDbLine
 39
0.25
 370
106
 10
171.4924
 20
489.063883398438
 30
0.0
 11
171.4924
 21
488.979883398437
 31
0.0
 0
LINE
 5
17C
100
AcDbEntity
 8
Layer8
100
AcDbLine
 39
0.25
 370
106
 10
171.4924
 20
488.979883398437
 30
0.0
 11
171.5604
 21
488.959883398438
 31
0.0
 0
LINE
 5
17D
100
AcDbEntity
 8
Layer8
100
AcDbLine
 39
0.25
 370
106
 10
171.5604
 20
488.959883398438
 30
0.0
 11
171.5944
 21
489.063883398438
 31
0.0
 0
LINE
 5
17E
100
AcDbEntity
 8
Layer8
100
AcDbLine
 39
0.25
 370
106
 10
171.4924
 20
489.039583398438
 30
0.0
 11
171.4924
 21
488.955583398438
 31
0.0
 0
LINE
 5
17F
100
AcDbEntity
 8
Layer8
100
AcDbLine
 39
0.25
 370
106
 10
171.4924
 20
488.955583398438
 30
0.0
 11
171.5604
 21
488.935583398438
 31
0.0
 0
LINE
 5
180
100
AcDbEntity
 8
Layer8
100
AcDbLine
 39
0.25
 370
106
 10
171.5604
 20
488.935583398438
 30
0.0
 11
171.5944
 21
489.039583398438
 31
0.0
 0
LINE
 5
181
100
AcDbEntity
 8
Layer8
100
AcDbLine
 39
0.25
 370
106
 10
171.4534
 20
489.018883398437
 30
0.0
 11
171.5234
 21
489.018883398437
 31
0.0
 0
LINE
 5
182
100
AcDbEntity
 8
Layer8
100
AcDbLine
 39
0.25
 370
106
 10
171.4175
 20
489.018883398437
 30
0.0
 11
171.5405
 21
489.018883398437
 31
0.0
 0
LINE
 5
183
100
AcDbEntity
 8
Layer8
100
AcDbLine
 39
0.25
 370
106
 10
171.3643
 20
489.063883398438
 30
0.0
 11
171.3643
 21
488.979883398437
 31
0.0
 0
LINE
 5
184
100
AcDbEntity
 8
Layer8
100
AcDbLine
 39
0.25
 370
106
 10
171.3643
 20
488.979883398437
 30
0.0
 11
171.4323
 21
488.959883398438
 31
0.0
 0
LINE
 5
185
100
AcDbEntity
 8
Layer8
100
AcDbLine
 39
0.25
 370
106
 10
171.4323
 20
488.959883398438
 30
0.0
 11
171.4663
 21
489.063883398438
 31
0.0
 0
LINE
 5
186
100
AcDbEntity
 8
Layer8
100
AcDbLine
 39
0.25
 370
106
 10
171.3643
 20
489.039583398438
 30
0.0
 11
171.3643
 21
488.955583398438
 31
0.0
 0
LINE
 5
187
100
AcDbEntity
 8
Layer8
100
AcDbLine
 39
0.25
 370
106
 10
171.3643
 20
488.955583398438
 30
0.0
 11
171.4323
 21
488.935583398438
 31
0.0
 0
LINE
 5
188
100
AcDbEntity
 8
Layer8
100
AcDbLine
 39
0.25
 370
106
 10
171.4323
 20
488.935583398438
 30
0.0
 11
171.4663
 21
489.039583398438
 31
0.0
 0
LINE
 5
189
100
AcDbEntity
 8
Layer8
100
AcDbLine
 39
0.25
 370
106
 10
171.3155
 20
489.018883398437
 30
0.0
 11
171.3945
 21
489.018883398437
 31
0.0
 0
LINE
 5
18A
100
AcDbEntity
 8
Layer8
100
AcDbLine
 39
0.25
 370
106
 10
171.3415
 20
489.018883398437
 30
0.0
 11
171.3465
 21
489.018883398437
 31
0.0
 0
LINE
 5
18B
100
AcDbEntity
 8
Layer8
100
AcDbLine
 39
0.25
 370
106
 10
171.2395
 20
489.063883398438
 30
0.0
 11
171.2395
 21
488.979883398437
 31
0.0
 0
LINE
 5
18C
100
AcDbEntity
 8
Layer8
100
AcDbLine
 39
0.25
 370
106
 10
171.2395
 20
488.979883398437
 30
0.0
 11
171.2575
 21
488.959883398438
 31
0.0
 0
LINE
 5
18D
100
AcDbEntity
 8
Layer8
100
AcDbLine
 39
0.25
 370
106
 10
171.2575
 20
488.959883398438
 30
0.0
 11
171.3075
 21
488.959883398438
 31
0.0
 0
LINE
 5
18E
100
AcDbEntity
 8
Layer8
100
AcDbLine
 39
0.25
 370
106
 10
171.3075
 20
488.959883398438
 30
0.0
 11
171.3075
 21
488.979883398437
 31
0.0
 0
LINE
 5
18F
100
AcDbEntity
 8
Layer8
100
AcDbLine
 39
0.25
 370
106
 10
171.3075
 20
488.979883398437
 30
0.0
 11
171.3255
 21
488.995883398438
 31
0.0
 0
LINE
 5
190
100
AcDbEntity
 8
Layer8
100
AcDbLine
 39
0.25
 370
106
 10
171.3255
 20
488.995883398438
 30
0.0
 11
171.3255
 21
489.063883398438
 31
0.0
 0
LINE
 5
191
100
AcDbEntity
 8
Layer8
100
AcDbLine
 39
0.25
 370
106
 10
171.2395
 20
489.039583398438
 30
0.0
 11
171.2395
 21
488.955583398438
 31
0.0
 0
LINE
 5
192
100
AcDbEntity
 8
Layer8
100
AcDbLine
 39
0.25
 370
106
 10
171.2395
 20
488.955583398438
 30
0.0
 11
171.2575
 21
488.935583398438
 31
0.0
 0
LINE
 5
193
100
AcDbEntity
 8
Layer8
100
AcDbLine
 39
0.25
 370
106
 10
171.2575
 20
488.935583398438
 30
0.0
 11
171.3075
 21
488.935583398438
 31
0.0
 0
LINE
 5
194
100
AcDbEntity
 8
Layer8
100
AcDbLine
 39
0.25
 370
106
 10
171.3075
 20
488.935583398438
 30
0.0
 11
171.3075
 21
488.955583398438
 31
0.0
 0
LINE
 5
195
100
AcDbEntity
 8
Layer8
100
AcDbLine
 39
0.25
 370
106
 10
171.3075
 20
488.955583398438
 30
0.0
 11
171.3255
 21
488.971583398438
 31
0.0
 0
LINE
 5
196
100
AcDbEntity
 8
Layer8
100
AcDbLine
 39
0.25
 370
106
 10
171.3255
 20
488.971583398438
 30
0.0
 11
171.3255
 21
489.039583398438
 31
0.0
 0
LINE
 5
197
100
AcDbEntity
 8
Layer8
100
AcDbLine
 39
0.25
 370
106
 10
171.1874
 20
489.018883398437
 30
0.0
 11
171.2664
 21
489.018883398437
 31
0.0
 0
LINE
 5
198
100
AcDbEntity
 8
Layer8
100
AcDbLine
 39
0.25
 370
106
 10
171.213
 20
489.018883398437
 30
0.0
 11
171.218
 21
489.018883398437
 31
0.0
 0
LINE
 5
199
100
AcDbEntity
 8
Layer8
100
AcDbLine
 39
0.25
 370
106
 10
171.0986
 20
489.063883398438
 30
0.0
 11
171.1146
 21
488.979883398437
 31
0.0
 0
LINE
 5
19A
100
AcDbEntity
 8
Layer8
100
AcDbLine
 39
0.25
 370
106
 10
171.1146
 20
488.979883398437
 30
0.0
 11
171.1476
 21
488.959883398438
 31
0.0
 0
LINE
 5
19B
100
AcDbEntity
 8
Layer8
100
AcDbLine
 39
0.25
 370
106
 10
171.1476
 20
488.959883398438
 30
0.0
 11
171.1826
 21
488.959883398438
 31
0.0
 0
LINE
 5
19C
100
AcDbEntity
 8
Layer8
100
AcDbLine
 39
0.25
 370
106
 10
171.1826
 20
488.959883398438
 30
0.0
 11
171.2006
 21
489.063883398438
 31
0.0
 0
LINE
 5
19D
100
AcDbEntity
 8
Layer8
100
AcDbLine
 39
0.25
 370
106
 10
171.0986
 20
489.039583398438
 30
0.0
 11
171.1146
 21
488.955583398438
 31
0.0
 0
LINE
 5
19E
100
AcDbEntity
 8
Layer8
100
AcDbLine
 39
0.25
 370
106
 10
171.1146
 20
488.955583398438
 30
0.0
 11
171.1476
 21
488.935583398438
 31
0.0
 0
LINE
 5
19F
100
AcDbEntity
 8
Layer8
100
AcDbLine
 39
0.25
 370
106
 10
171.1476
 20
488.935583398438
 30
0.0
 11
171.1826
 21
488.935583398438
 31
0.0
 0
LINE
 5
1A0
100
AcDbEntity
 8
Layer8
100
AcDbLine
 39
0.25
 370
106
 10
171.1826
 20
488.935583398438
 30
0.0
 11
171.2006
 21
489.039583398438
 31
0.0
 0
LINE
 5
1A1
100
AcDbEntity
 8
Layer8
100
AcDbLine
 39
0.25
 370
106
 10
171.0592
 20
489.018883398437
 30
0.0
 11
171.1292
 21
489.018883398437
 31
0.0
 0
LINE
 5
1A2
100
AcDbEntity
 8
Layer8
100
AcDbLine
 39
0.25
 370
106
 10
171.024
 20
489.018883398437
 30
0.0
 11
171.147
 21
489.018883398437
 31
0.0
 0
LINE
 5
1A3
100
AcDbEntity
 8
Layer8
100
AcDbLine
 39
0.25
 370
106
 10
170.9666
 20
489.063483398437
 30
0.0
 11
170.9876
 21
488.979483398437
 31
0.0
 0
LINE
 5
1A4
100
AcDbEntity
 8
Layer8
100
AcDbLine
 39
0.25
 370
106
 10
170.9876
 20
488.979483398437
 30
0.0
 11
171.0576
 21
488.959483398438
 31
0.0
 0
LINE
 5
1A5
100
AcDbEntity
 8
Layer8
100
AcDbLine
 39
0.25
 370
106
 10
171.0576
 20
488.959483398438
 30
0.0
 11
171.0736
 21
489.063483398437
 31
0.0
 0
LINE
 5
1A6
100
AcDbEntity
 8
Layer8
100
AcDbLine
 39
0.25
 370
106
 10
170.9666
 20
489.039583398438
 30
0.0
 11
170.9876
 21
488.955583398438
 31
0.0
 0
LINE
 5
1A7
100
AcDbEntity
 8
Layer8
100
AcDbLine
 39
0.25
 370
106
 10
170.9876
 20
488.955583398438
 30
0.0
 11
171.0576
 21
488.935583398438
 31
0.0
 0
LINE
 5
1A8
100
AcDbEntity
 8
Layer8
100
AcDbLine
 39
0.25
 370
106
 10
171.0576
 20
488.935583398438
 30
0.0
 11
171.0736
 21
489.039583398438
 31
0.0
 0
LINE
 5
1A9
100
AcDbEntity
 8
Layer8
100
AcDbLine
 39
0.25
 370
106
 10
170.9311
 20
489.018883398437
 30
0.0
 11
170.9981
 21
489.018883398437
 31
0.0
 0
LINE
 5
1AA
100
AcDbEntity
 8
Layer8
100
AcDbLine
 39
0.25
 370
106
 10
170.8967
 20
489.018883398437
 30
0.0
 11
171.0147
 21
489.018883398437
 31
0.0
 0
LINE
 5
1AB
100
AcDbEntity
 8
Layer8
100
AcDbLine
 39
0.25
 370
106
 10
170.8556
 20
489.063883398438
 30
0.0
 11
170.8556
 21
488.995883398438
 31
0.0
 0
LINE
 5
1AC
100
AcDbEntity
 8
Layer8
100
AcDbLine
 39
0.25
 370
106
 10
170.8556
 20
488.995883398438
 30
0.0
 11
170.8886
 21
488.959883398438
 31
0.0
 0
LINE
 5
1AD
100
AcDbEntity
 8
Layer8
100
AcDbLine
 39
0.25
 370
106
 10
170.8886
 20
488.959883398438
 30
0.0
 11
170.9236
 21
488.959883398438
 31
0.0
 0
LINE
 5
1AE
100
AcDbEntity
 8
Layer8
100
AcDbLine
 39
0.25
 370
106
 10
170.9236
 20
488.959883398438
 30
0.0
 11
170.9396
 21
488.959883398438
 31
0.0
 0
LINE
 5
1AF
100
AcDbEntity
 8
Layer8
100
AcDbLine
 39
0.25
 370
106
 10
170.9396
 20
488.959883398438
 30
0.0
 11
170.9396
 21
489.063883398438
 31
0.0
 0
LINE
 5
1B0
100
AcDbEntity
 8
Layer8
100
AcDbLine
 39
0.25
 370
106
 10
170.8556
 20
489.039583398438
 30
0.0
 11
170.8556
 21
488.971583398438
 31
0.0
 0
LINE
 5
1B1
100
AcDbEntity
 8
Layer8
100
AcDbLine
 39
0.25
 370
106
 10
170.8556
 20
488.971583398438
 30
0.0
 11
170.8886
 21
488.935583398438
 31
0.0
 0
LINE
 5
1B2
100
AcDbEntity
 8
Layer8
100
AcDbLine
 39
0.25
 370
106
 10
170.8886
 20
488.935583398438
 30
0.0
 11
170.9236
 21
488.935583398438
 31
0.0
 0
LINE
 5
1B3
100
AcDbEntity
 8
Layer8
100
AcDbLine
 39
0.25
 370
106
 10
170.9236
 20
488.935583398438
 30
0.0
 11
170.9396
 21
488.935583398438
 31
0.0
 0
LINE
 5
1B4
100
AcDbEntity
 8
Layer8
100
AcDbLine
 39
0.25
 370
106
 10
170.9396
 20
488.935583398438
 30
0.0
 11
170.9396
 21
489.039583398438
 31
0.0
 0
LINE
 5
1B5
100
AcDbEntity
 8
Layer8
100
AcDbLine
 39
0.25
 370
106
 10
170.8119
 20
489.018883398437
 30
0.0
 11
170.8819
 21
489.018883398437
 31
0.0
 0
LINE
 5
1B6
100
AcDbEntity
 8
Layer8
100
AcDbLine
 39
0.25
 370
106
 10
170.7763
 20
489.018883398437
 30
0.0
 11
170.8993
 21
489.018883398437
 31
0.0
 0
LINE
 5
1B7
100
AcDbEntity
 8
Layer8
100
AcDbLine
 39
0.25
 370
106
 10
170.737
 20
489.063483398437
 30
0.0
 11
170.737
 21
489.014483398438
 31
0.0
 0
LINE
 5
1B8
100
AcDbEntity
 8
Layer8
100
AcDbLine
 39
0.25
 370
106
 10
170.737
 20
489.014483398438
 30
0.0
 11
170.758
 21
488.995483398438
 31
0.0
 0
LINE
 5
1B9
100
AcDbEntity
 8
Layer8
100
AcDbLine
 39
0.25
 370
106
 10
170.758
 20
488.995483398438
 30
0.0
 11
170.758
 21
488.979483398437
 31
0.0
 0
LINE
 5
1BA
100
AcDbEntity
 8
Layer8
100
AcDbLine
 39
0.25
 370
106
 10
170.758
 20
488.979483398437
 30
0.0
 11
170.776
 21
488.959483398438
 31
0.0
 0
LINE
 5
1BB
100
AcDbEntity
 8
Layer8
100
AcDbLine
 39
0.25
 370
106
 10
170.776
 20
488.959483398438
 30
0.0
 11
170.805
 21
488.959483398438
 31
0.0
 0
LINE
 5
1BC
100
AcDbEntity
 8
Layer8
100
AcDbLine
 39
0.25
 370
106
 10
170.805
 20
488.959483398438
 30
0.0
 11
170.821
 21
488.959483398438
 31
0.0
 0
LINE
 5
1BD
100
AcDbEntity
 8
Layer8
100
AcDbLine
 39
0.25
 370
106
 10
170.821
 20
488.959483398438
 30
0.0
 11
170.821
 21
489.063483398437
 31
0.0
 0
LINE
 5
1BE
100
AcDbEntity
 8
Layer8
100
AcDbLine
 39
0.25
 370
106
 10
170.737
 20
489.039583398438
 30
0.0
 11
170.737
 21
488.990583398438
 31
0.0
 0
LINE
 5
1BF
100
AcDbEntity
 8
Layer8
100
AcDbLine
 39
0.25
 370
106
 10
170.737
 20
488.990583398438
 30
0.0
 11
170.758
 21
488.971583398438
 31
0.0
 0
LINE
 5
1C0
100
AcDbEntity
 8
Layer8
100
AcDbLine
 39
0.25
 370
106
 10
170.758
 20
488.971583398438
 30
0.0
 11
170.758
 21
488.955583398438
 31
0.0
 0
LINE
 5
1C1
100
AcDbEntity
 8
Layer8
100
AcDbLine
 39
0.25
 370
106
 10
170.758
 20
488.955583398438
 30
0.0
 11
170.776
 21
488.935583398438
 31
0.0
 0
LINE
 5
1C2
100
AcDbEntity
 8
Layer8
100
AcDbLine
 39
0.25
 370
106
 10
170.776
 20
488.935583398438
 30
0.0
 11
170.805
 21
488.935583398438
 31
0.0
 0
LINE
 5
1C3
100
AcDbEntity
 8
Layer8
100
AcDbLine
 39
0.25
 370
106
 10
170.805
 20
488.935583398438
 30
0.0
 11
170.821
 21
488.935583398438
 31
0.0
 0
LINE
 5
1C4
100
AcDbEntity
 8
Layer8
100
AcDbLine
 39
0.25
 370
106
 10
170.821
 20
488.935583398438
 30
0.0
 11
170.821
 21
489.039583398438
 31
0.0
 0
LINE
 5
1C5
100
AcDbEntity
 8
Layer8
100
AcDbLine
 39
0.25
 370
106
 10
170.6957
 20
489.018883398437
 30
0.0
 11
170.7627
 21
489.018883398437
 31
0.0
 0
LINE
 5
1C6
100
AcDbEntity
 8
Layer8
100
AcDbLine
 39
0.25
 370
106
 10
170.6619
 20
489.018883398437
 30
0.0
 11
170.7799
 21
489.018883398437
 31
0.0
 0
LINE
 5
1C7
100
AcDbEntity
 8
Layer8
100
AcDbLine
 39
0.25
 370
106
 10
170.6297
 20
489.063883398438
 30
0.0
 11
170.6297
 21
489.014883398438
 31
0.0
 0
LINE
 5
1C8
100
AcDbEntity
 8
Layer8
100
AcDbLine
 39
0.25
 370
106
 10
170.6297
 20
489.014883398438
 30
0.0
 11
170.6457
 21
488.995883398438
 31
0.0
 0
LINE
 5
1C9
100
AcDbEntity
 8
Layer8
100
AcDbLine
 39
0.25
 370
106
 10
170.6457
 20
488.995883398438
 30
0.0
 11
170.6457
 21
488.979883398437
 31
0.0
 0
LINE
 5
1CA
100
AcDbEntity
 8
Layer8
100
AcDbLine
 39
0.25
 370
106
 10
170.6457
 20
488.979883398437
 30
0.0
 11
170.6627
 21
488.959883398438
 31
0.0
 0
LINE
 5
1CB
100
AcDbEntity
 8
Layer8
100
AcDbLine
 39
0.25
 370
106
 10
170.6627
 20
488.959883398438
 30
0.0
 11
170.6977
 21
488.959883398438
 31
0.0
 0
LINE
 5
1CC
100
AcDbEntity
 8
Layer8
100
AcDbLine
 39
0.25
 370
106
 10
170.6977
 20
488.959883398438
 30
0.0
 11
170.7137
 21
488.959883398438
 31
0.0
 0
LINE
 5
1CD
100
AcDbEntity
 8
Layer8
100
AcDbLine
 39
0.25
 370
106
 10
170.7137
 20
488.959883398438
 30
0.0
 11
170.7137
 21
489.014883398438
 31
0.0
 0
LINE
 5
1CE
100
AcDbEntity
 8
Layer8
100
AcDbLine
 39
0.25
 370
106
 10
170.7137
 20
489.014883398438
 30
0.0
 11
170.6977
 21
489.063883398438
 31
0.0
 0
LINE
 5
1CF
100
AcDbEntity
 8
Layer8
100
AcDbLine
 39
0.25
 370
106
 10
170.6297
 20
489.039583398438
 30
0.0
 11
170.6297
 21
488.990583398438
 31
0.0
 0
LINE
 5
1D0
100
AcDbEntity
 8
Layer8
100
AcDbLine
 39
0.25
 370
106
 10
170.6297
 20
488.990583398438
 30
0.0
 11
170.6457
 21
488.971583398438
 31
0.0
 0
LINE
 5
1D1
100
AcDbEntity
 8
Layer8
100
AcDbLine
 39
0.25
 370
106
 10
170.6457
 20
488.971583398438
 30
0.0
 11
170.6457
 21
488.955583398438
 31
0.0
 0
LINE
 5
1D2
100
AcDbEntity
 8
Layer8
100
AcDbLine
 39
0.25
 370
106
 10
170.6457
 20
488.955583398438
 30
0.0
 11
170.6627
 21
488.935583398438
 31
0.0
 0
LINE
 5
1D3
100
AcDbEntity
 8
Layer8
100
AcDbLine
 39
0.25
 370
106
 10
170.6627
 20
488.935583398438
 30
0.0
 11
170.6977
 21
488.935583398438
 31
0.0
 0
LINE
 5
1D4
100
AcDbEntity
 8
Layer8
100
AcDbLine
 39
0.25
 370
106
 10
170.6977
 20
488.935583398438
 30
0.0
 11
170.7137
 21
488.935583398438
 31
0.0
 0
LINE
 5
1D5
100
AcDbEntity
 8
Layer8
100
AcDbLine
 39
0.25
 370
106
 10
170.7137
 20
488.935583398438
 30
0.0
 11
170.7137
 21
488.990583398438
 31
0.0
 0
LINE
 5
1D6
100
AcDbEntity
 8
Layer8
100
AcDbLine
 39
0.25
 370
106
 10
170.7137
 20
488.990583398438
 30
0.0
 11
170.6977
 21
489.039583398438
 31
0.0
 0
LINE
 5
1D7
100
AcDbEntity
 8
Layer8
100
AcDbLine
 39
0.25
 370
106
 10
170.5881
 20
489.018883398437
 30
0.0
 11
170.6951
 21
489.018883398437
 31
0.0
 0
LINE
 5
1D8
100
AcDbEntity
 8
Layer8
100
AcDbLine
 39
0.25
 370
106
 10
170.5634
 20
489.018883398437
 30
0.0
 11
170.6704
 21
489.018883398437
 31
0.0
 0
LINE
 5
1D9
100
AcDbEntity
 8
Layer8
100
AcDbLine
 39
0.25
 370
106
 10
170.5329
 20
489.063483398437
 30
0.0
 11
170.5329
 21
489.014483398438
 31
0.0
 0
LINE
 5
1DA
100
AcDbEntity
 8
Layer8
100
AcDbLine
 39
0.25
 370
106
 10
170.5329
 20
489.014483398438
 30
0.0
 11
170.5539
 21
488.995483398438
 31
0.0
 0
LINE
 5
1DB
100
AcDbEntity
 8
Layer8
100
AcDbLine
 39
0.25
 370
106
 10
170.5539
 20
488.995483398438
 30
0.0
 11
170.5539
 21
488.979483398437
 31
0.0
 0
LINE
 5
1DC
100
AcDbEntity
 8
Layer8
100
AcDbLine
 39
0.25
 370
106
 10
170.5539
 20
488.979483398437
 30
0.0
 11
170.5719
 21
488.959483398438
 31
0.0
 0
LINE
 5
1DD
100
AcDbEntity
 8
Layer8
100
AcDbLine
 39
0.25
 370
106
 10
170.5719
 20
488.959483398438
 30
0.0
 11
170.6009
 21
488.959483398438
 31
0.0
 0
LINE
 5
1DE
100
AcDbEntity
 8
Layer8
100
AcDbLine
 39
0.25
 370
106
 10
170.6009
 20
488.959483398438
 30
0.0
 11
170.6009
 21
489.063483398437
 31
0.0
 0
LINE
 5
1DF
100
AcDbEntity
 8
Layer8
100
AcDbLine
 39
0.25
 370
106
 10
170.5329
 20
489.039583398438
 30
0.0
 11
170.5329
 21
488.990583398438
 31
0.0
 0
LINE
 5
1E0
100
AcDbEntity
 8
Layer8
100
AcDbLine
 39
0.25
 370
106
 10
170.5329
 20
488.990583398438
 30
0.0
 11
170.5539
 21
488.971583398438
 31
0.0
 0
LINE
 5
1E1
100
AcDbEntity
 8
Layer8
100
AcDbLine
 39
0.25
 370
106
 10
170.5539
 20
488.971583398438
 30
0.0
 11
170.5539
 21
488.955583398438
 31
0.0
 0
LINE
 5
1E2
100
AcDbEntity
 8
Layer8
100
AcDbLine
 39
0.25
 370
106
 10
170.5539
 20
488.955583398438
 30
0.0
 11
170.5719
 21
488.935583398438
 31
0.0
 0
LINE
 5
1E3
100
AcDbEntity
 8
Layer8
100
AcDbLine
 39
0.25
 370
106
 10
170.5719
 20
488.935583398438
 30
0.0
 11
170.6009
 21
488.935583398438
 31
0.0
 0
LINE
 5
1E4
100
AcDbEntity
 8
Layer8
100
AcDbLine
 39
0.25
 370
106
 10
170.6009
 20
488.935583398438
 30
0.0
 11
170.6009
 21
489.039583398438
 31
0.0
 0
LINE
 5
1E5
100
AcDbEntity
 8
Layer8
100
AcDbLine
 39
0.25
 370
106
 10
170.4974
 20
489.018883398437
 30
0.0
 11
170.5554
 21
489.018883398437
 31
0.0
 0
LINE
 5
1E6
100
AcDbEntity
 8
Layer8
100
AcDbLine
 39
0.25
 370
106
 10
170.4674
 20
489.018883398437
 30
0.0
 11
170.5694
 21
489.018883398437
 31
0.0
 0
LINE
 5
1E7
100
AcDbEntity
 8
Layer8
100
AcDbLine
 39
0.25
 370
106
 10
170.4447
 20
489.063483398437
 30
0.0
 11
170.4447
 21
489.014483398438
 31
0.0
 0
LINE
 5
1E8
100
AcDbEntity
 8
Layer8
100
AcDbLine
 39
0.25
 370
106
 10
170.4447
 20
489.014483398438
 30
0.0
 11
170.4837
 21
488.979483398437
 31
0.0
 0
LINE
 5
1E9
100
AcDbEntity
 8
Layer8
100
AcDbLine
 39
0.25
 370
106
 10
170.4837
 20
488.979483398437
 30
0.0
 11
170.4837
 21
488.959483398438
 31
0.0
 0
LINE
 5
1EA
100
AcDbEntity
 8
Layer8
100
AcDbLine
 39
0.25
 370
106
 10
170.4837
 20
488.959483398438
 30
0.0
 11
170.5127
 21
488.959483398438
 31
0.0
 0
LINE
 5
1EB
100
AcDbEntity
 8
Layer8
100
AcDbLine
 39
0.25
 370
106
 10
170.5127
 20
488.959483398438
 30
0.0
 11
170.5127
 21
489.014483398438
 31
0.0
 0
LINE
 5
1EC
100
AcDbEntity
 8
Layer8
100
AcDbLine
 39
0.25
 370
106
 10
170.5127
 20
489.014483398438
 30
0.0
 11
170.4977
 21
489.063483398437
 31
0.0
 0
LINE
 5
1ED
100
AcDbEntity
 8
Layer8
100
AcDbLine
 39
0.25
 370
106
 10
170.4447
 20
489.039583398438
 30
0.0
 11
170.4447
 21
488.990583398438
 31
0.0
 0
LINE
 5
1EE
100
AcDbEntity
 8
Layer8
100
AcDbLine
 39
0.25
 370
106
 10
170.4447
 20
488.990583398438
 30
0.0
 11
170.4837
 21
488.955583398438
 31
0.0
 0
LINE
 5
1EF
100
AcDbEntity
 8
Layer8
100
AcDbLine
 39
0.25
 370
106
 10
170.4837
 20
488.955583398438
 30
0.0
 11
170.4837
 21
488.935583398438
 31
0.0
 0
LINE
 5
1F0
100
AcDbEntity
 8
Layer8
100
AcDbLine
 39
0.25
 370
106
 10
170.4837
 20
488.935583398438
 30
0.0
 11
170.5127
 21
488.935583398438
 31
0.0
 0
LINE
 5
1F1
100
AcDbEntity
 8
Layer8
100
AcDbLine
 39
0.25
 370
106
 10
170.5127
 20
488.935583398438
 30
0.0
 11
170.5127
 21
488.990583398438
 31
0.0
 0
LINE
 5
1F2
100
AcDbEntity
 8
Layer8
100
AcDbLine
 39
0.25
 370
106
 10
170.5127
 20
488.990583398438
 30
0.0
 11
170.4977
 21
489.039583398438
 31
0.0
 0
LINE
 5
1F3
100
AcDbEntity
 8
Layer8
100
AcDbLine
 39
0.25
 370
106
 10
170.4181
 20
489.018883398437
 30
0.0
 11
170.4671
 21
489.018883398437
 31
0.0
 0
LINE
 5
1F4
100
AcDbEntity
 8
Layer8
100
AcDbLine
 39
0.25
 370
106
 10
170.3919
 20
489.018883398437
 30
0.0
 11
170.4759
 21
489.018883398437
 31
0.0
 0
LINE
 5
1F5
100
AcDbEntity
 8
Layer8
100
AcDbLine
 39
0.25
 370
106
 10
170.2733
 20
489.063883398438
 30
0.0
 11
170.2943
 21
489.014883398438
 31
0.0
 0
LINE
 5
1F6
100
AcDbEntity
 8
Layer8
100
AcDbLine
 39
0.25
 370
106
 10
170.2943
 20
489.014883398438
 30
0.0
 11
170.2943
 21
488.995883398438
 31
0.0
 0
LINE
 5
1F7
100
AcDbEntity
 8
Layer8
100
AcDbLine
 39
0.25
 370
106
 10
170.2943
 20
488.995883398438
 30
0.0
 11
170.3273
 21
488.959883398438
 31
0.0
 0
LINE
 5
1F8
100
AcDbEntity
 8
Layer8
100
AcDbLine
 39
0.25
 370
106
 10
170.3273
 20
488.959883398438
 30
0.0
 11
170.3413
 21
488.959883398438
 31
0.0
 0
LINE
 5
1F9
100
AcDbEntity
 8
Layer8
100
AcDbLine
 39
0.25
 370
106
 10
170.3413
 20
488.959883398438
 30
0.0
 11
170.3643
 21
488.959883398438
 31
0.0
 0
LINE
 5
1FA
100
AcDbEntity
 8
Layer8
100
AcDbLine
 39
0.25
 370
106
 10
170.3643
 20
488.959883398438
 30
0.0
 11
170.3413
 21
488.979883398437
 31
0.0
 0
LINE
 5
1FB
100
AcDbEntity
 8
Layer8
100
AcDbLine
 39
0.25
 370
106
 10
170.3413
 20
488.979883398437
 30
0.0
 11
170.3413
 21
489.014883398438
 31
0.0
 0
LINE
 5
1FC
100
AcDbEntity
 8
Layer8
100
AcDbLine
 39
0.25
 370
106
 10
170.3413
 20
489.014883398438
 30
0.0
 11
170.3273
 21
489.063883398438
 31
0.0
 0
LINE
 5
1FD
100
AcDbEntity
 8
Layer8
100
AcDbLine
 39
0.25
 370
106
 10
170.3603
 20
489.039583398438
 30
0.0
 11
170.3813
 21
488.990583398438
 31
0.0
 0
LINE
 5
1FE
100
AcDbEntity
 8
Layer8
100
AcDbLine
 39
0.25
 370
106
 10
170.3813
 20
488.990583398438
 30
0.0
 11
170.3813
 21
488.971583398438
 31
0.0
 0
LINE
 5
1FF
100
AcDbEntity
 8
Layer8
100
AcDbLine
 39
0.25
 370
106
 10
170.3813
 20
488.971583398438
 30
0.0
 11
170.4143
 21
488.935583398438
 31
0.0
 0
LINE
 5
200
100
AcDbEntity
 8
Layer8
100
AcDbLine
 39
0.25
 370
106
 10
170.4143
 20
488.935583398438
 30
0.0
 11
170.4283
 21
488.935583398438
 31
0.0
 0
LINE
 5
201
100
AcDbEntity
 8
Layer8
100
AcDbLine
 39
0.25
 370
106
 10
170.4283
 20
488.935583398438
 30
0.0
 11
170.4513
 21
488.935583398438
 31
0.0
 0
LINE
 5
202
100
AcDbEntity
 8
Layer8
100
AcDbLine
 39
0.25
 370
106
 10
170.4513
 20
488.935583398438
 30
0.0
 11
170.4283
 21
488.955583398438
 31
0.0
 0
LINE
 5
203
100
AcDbEntity
 8
Layer8
100
AcDbLine
 39
0.25
 370
106
 10
170.4283
 20
488.955583398438
 30
0.0
 11
170.4283
 21
488.990583398438
 31
0.0
 0
LINE
 5
204
100
AcDbEntity
 8
Layer8
100
AcDbLine
 39
0.25
 370
106
 10
170.4283
 20
488.990583398438
 30
0.0
 11
170.4143
 21
489.039583398438
 31
0.0
 0
LINE
 5
205
100
AcDbEntity
 8
Layer8
100
AcDbLine
 39
0.25
 370
106
 10
170.3508
 20
489.018883398437
 30
0.0
 11
170.3878
 21
489.018883398437
 31
0.0
 0
LINE
 5
206
100
AcDbEntity
 8
Layer8
100
AcDbLine
 39
0.25
 370
106
 10
170.3298
 20
489.018883398437
 30
0.0
 11
170.3928
 21
489.018883398437
 31
0.0
 0
LINE
 5
207
100
AcDbEntity
 8
Layer8
100
AcDbLine
 39
0.25
 370
106
 10
170.3071
 20
489.057683398438
 30
0.0
 11
170.3071
 21
489.008683398438
 31
0.0
 0
LINE
 5
208
100
AcDbEntity
 8
Layer8
100
AcDbLine
 39
0.25
 370
106
 10
170.3071
 20
489.008683398438
 30
0.0
 11
170.3601
 21
488.953683398438
 31
0.0
 0
LINE
 5
209
100
AcDbEntity
 8
Layer8
100
AcDbLine
 39
0.25
 370
106
 10
170.3601
 20
488.953683398438
 30
0.0
 11
170.3751
 21
488.953683398438
 31
0.0
 0
LINE
 5
20A
100
AcDbEntity
 8
Layer8
100
AcDbLine
 39
0.25
 370
106
 10
170.3751
 20
488.953683398438
 30
0.0
 11
170.3751
 21
488.989683398438
 31
0.0
 0
LINE
 5
20B
100
AcDbEntity
 8
Layer8
100
AcDbLine
 39
0.25
 370
106
 10
170.3751
 20
488.989683398438
 30
0.0
 11
170.3601
 21
489.008683398438
 31
0.0
 0
LINE
 5
20C
100
AcDbEntity
 8
Layer8
100
AcDbLine
 39
0.25
 370
106
 10
170.3601
 20
489.008683398438
 30
0.0
 11
170.3601
 21
489.041683398438
 31
0.0
 0
LINE
 5
20D
100
AcDbEntity
 8
Layer8
100
AcDbLine
 39
0.25
 370
106
 10
170.3601
 20
489.041683398438
 30
0.0
 11
170.3461
 21
489.057683398438
 31
0.0
 0
LINE
 5
20E
100
AcDbEntity
 8
Layer8
100
AcDbLine
 39
0.25
 370
106
 10
170.3071
 20
489.039583398438
 30
0.0
 11
170.3071
 21
488.990583398438
 31
0.0
 0
LINE
 5
20F
100
AcDbEntity
 8
Layer8
100
AcDbLine
 39
0.25
 370
106
 10
170.3071
 20
488.990583398438
 30
0.0
 11
170.3601
 21
488.935583398438
 31
0.0
 0
LINE
 5
210
100
AcDbEntity
 8
Layer8
100
AcDbLine
 39
0.25
 370
106
 10
170.3601
 20
488.935583398438
 30
0.0
 11
170.3751
 21
488.935583398438
 31
0.0
 0
LINE
 5
211
100
AcDbEntity
 8
Layer8
100
AcDbLine
 39
0.25
 370
106
 10
170.3751
 20
488.935583398438
 30
0.0
 11
170.3751
 21
488.971583398438
 31
0.0
 0
LINE
 5
212
100
AcDbEntity
 8
Layer8
100
AcDbLine
 39
0.25
 370
106
 10
170.3751
 20
488.971583398438
 30
0.0
 11
170.3601
 21
488.990583398438
 31
0.0
 0
LINE
 5
213
100
AcDbEntity
 8
Layer8
100
AcDbLine
 39
0.25
 370
106
 10
170.3601
 20
488.990583398438
 30
0.0
 11
170.3601
 21
489.023583398437
 31
0.0
 0
LINE
 5
214
100
AcDbEntity
 8
Layer8
100
AcDbLine
 39
0.25
 370
106
 10
170.3601
 20
489.023583398437
 30
0.0
 11
170.3461
 21
489.039583398438
 31
0.0
 0
LINE
 5
215
100
AcDbEntity
 8
Layer8
100
AcDbLine
 39
0.25
 370
106
 10
170.2989
 20
489.018883398437
 30
0.0
 11
170.3309
 21
489.018883398437
 31
0.0
 0
LINE
 5
216
100
AcDbEntity
 8
Layer8
100
AcDbLine
 39
0.25
 370
106
 10
170.2798
 20
489.018883398437
 30
0.0
 11
170.3338
 21
489.018883398437
 31
0.0
 0
LINE
 5
217
100
AcDbEntity
 8
Layer8
100
AcDbLine
 39
0.25
 370
106
 10
170.2561
 20
489.063883398438
 30
0.0
 11
170.2741
 21
489.014883398438
 31
0.0
 0
LINE
 5
218
100
AcDbEntity
 8
Layer8
100
AcDbLine
 39
0.25
 370
106
 10
170.2741
 20
489.014883398438
 30
0.0
 11
170.2891
 21
488.995883398438
 31
0.0
 0
LINE
 5
219
100
AcDbEntity
 8
Layer8
100
AcDbLine
 39
0.25
 370
106
 10
170.2891
 20
488.995883398438
 30
0.0
 11
170.2891
 21
488.979883398437
 31
0.0
 0
LINE
 5
21A
100
AcDbEntity
 8
Layer8
100
AcDbLine
 39
0.25
 370
106
 10
170.2891
 20
488.979883398437
 30
0.0
 11
170.3091
 21
488.959883398438
 31
0.0
 0
LINE
 5
21B
100
AcDbEntity
 8
Layer8
100
AcDbLine
 39
0.25
 370
106
 10
170.3091
 20
488.959883398438
 30
0.0
 11
170.3241
 21
488.959883398438
 31
0.0
 0
LINE
 5
21C
100
AcDbEntity
 8
Layer8
100
AcDbLine
 39
0.25
 370
106
 10
170.3241
 20
488.959883398438
 30
0.0
 11
170.3241
 21
488.979883398437
 31
0.0
 0
LINE
 5
21D
100
AcDbEntity
 8
Layer8
100
AcDbLine
 39
0.25
 370
106
 10
170.3241
 20
488.979883398437
 30
0.0
 11
170.3091
 21
488.995883398438
 31
0.0
 0
LINE
 5
21E
100
AcDbEntity
 8
Layer8
100
AcDbLine
 39
0.25
 370
106
 10
170.3091
 20
488.995883398438
 30
0.0
 11
170.3091
 21
489.014883398438
 31
0.0
 0
LINE
 5
21F
100
AcDbEntity
 8
Layer8
100
AcDbLine
 39
0.25
 370
106
 10
170.3091
 20
489.014883398438
 30
0.0
 11
170.2891
 21
489.047883398437
 31
0.0
 0
LINE
 5
220
100
AcDbEntity
 8
Layer8
100
AcDbLine
 39
0.25
 370
106
 10
170.2891
 20
489.047883398437
 30
0.0
 11
170.2891
 21
489.063883398438
 31
0.0
 0
LINE
 5
221
100
AcDbEntity
 8
Layer8
100
AcDbLine
 39
0.25
 370
106
 10
170.2583
 20
489.039583398438
 30
0.0
 11
170.2763
 21
488.990583398438
 31
0.0
 0
LINE
 5
222
100
AcDbEntity
 8
Layer8
100
AcDbLine
 39
0.25
 370
106
 10
170.2763
 20
488.990583398438
 30
0.0
 11
170.2913
 21
488.971583398438
 31
0.0
 0
LINE
 5
223
100
AcDbEntity
 8
Layer8
100
AcDbLine
 39
0.25
 370
106
 10
170.2913
 20
488.971583398438
 30
0.0
 11
170.2913
 21
488.955583398438
 31
0.0
 0
LINE
 5
224
100
AcDbEntity
 8
Layer8
100
AcDbLine
 39
0.25
 370
106
 10
170.2913
 20
488.955583398438
 30
0.0
 11
170.3113
 21
488.935583398438
 31
0.0
 0
LINE
 5
225
100
AcDbEntity
 8
Layer8
100
AcDbLine
 39
0.25
 370
106
 10
170.3113
 20
488.935583398438
 30
0.0
 11
170.3263
 21
488.935583398438
 31
0.0
 0
LINE
 5
226
100
AcDbEntity
 8
Layer8
100
AcDbLine
 39
0.25
 370
106
 10
170.3263
 20
488.935583398438
 30
0.0
 11
170.3263
 21
488.955583398438
 31
0.0
 0
LINE
 5
227
100
AcDbEntity
 8
Layer8
100
AcDbLine
 39
0.25
 370
106
 10
170.3263
 20
488.955583398438
 30
0.0
 11
170.3113
 21
488.971583398438
 31
0.0
 0
LINE
 5
228
100
AcDbEntity
 8
Layer8
100
AcDbLine
 39
0.25
 370
106
 10
170.3113
 20
488.971583398438
 30
0.0
 11
170.3113
 21
488.990583398438
 31
0.0
 0
LINE
 5
229
100
AcDbEntity
 8
Layer8
100
AcDbLine
 39
0.25
 370
106
 10
170.3113
 20
488.990583398438
 30
0.0
 11
170.2913
 21
489.023583398437
 31
0.0
 0
LINE
 5
22A
100
AcDbEntity
 8
Layer8
100
AcDbLine
 39
0.25
 370
106
 10
170.2913
 20
489.023583398437
 30
0.0
 11
170.2913
 21
489.039583398438
 31
0.0
 0
LINE
 5
22B
100
AcDbEntity
 8
Layer8
100
AcDbLine
 39
0.25
 370
106
 10
170.2652
 20
489.018883398437
 30
0.0
 11
170.2812
 21
489.018883398437
 31
0.0
 0
LINE
 5
22C
100
AcDbEntity
 8
Layer8
100
AcDbLine
 39
0.25
 370
106
 10
170.2613
 20
489.018883398437
 30
0.0
 11
170.2773
 21
489.018883398437
 31
0.0
 0
LINE
 5
22D
100
AcDbEntity
 8
Layer8
100
AcDbLine
 39
0.25
 370
106
 10
170.1802
 20
489.063483398437
 30
0.0
 11
170.1802
 21
489.014483398438
 31
0.0
 0
LINE
 5
22E
100
AcDbEntity
 8
Layer8
100
AcDbLine
 39
0.25
 370
106
 10
170.1802
 20
489.014483398438
 30
0.0
 11
170.2012
 21
488.995483398438
 31
0.0
 0
LINE
 5
22F
100
AcDbEntity
 8
Layer8
100
AcDbLine
 39
0.25
 370
106
 10
170.2012
 20
488.995483398438
 30
0.0
 11
170.2012
 21
488.979483398437
 31
0.0
 0
LINE
 5
230
100
AcDbEntity
 8
Layer8
100
AcDbLine
 39
0.25
 370
106
 10
170.2012
 20
488.979483398437
 30
0.0
 11
170.2192
 21
488.959483398438
 31
0.0
 0
LINE
 5
231
100
AcDbEntity
 8
Layer8
100
AcDbLine
 39
0.25
 370
106
 10
170.2192
 20
488.959483398438
 30
0.0
 11
170.2342
 21
488.959483398438
 31
0.0
 0
LINE
 5
232
100
AcDbEntity
 8
Layer8
100
AcDbLine
 39
0.25
 370
106
 10
170.2342
 20
488.959483398438
 30
0.0
 11
170.2192
 21
488.979483398437
 31
0.0
 0
LINE
 5
233
100
AcDbEntity
 8
Layer8
100
AcDbLine
 39
0.25
 370
106
 10
170.2192
 20
488.979483398437
 30
0.0
 11
170.2192
 21
488.995483398438
 31
0.0
 0
LINE
 5
234
100
AcDbEntity
 8
Layer8
100
AcDbLine
 39
0.25
 370
106
 10
170.2192
 20
488.995483398438
 30
0.0
 11
170.2012
 21
489.014483398438
 31
0.0
 0
LINE
 5
235
100
AcDbEntity
 8
Layer8
100
AcDbLine
 39
0.25
 370
106
 10
170.2012
 20
489.014483398438
 30
0.0
 11
170.2012
 21
489.063483398437
 31
0.0
 0
LINE
 5
236
100
AcDbEntity
 8
Layer8
100
AcDbLine
 39
0.25
 370
106
 10
170.2403
 20
489.039583398438
 30
0.0
 11
170.2403
 21
488.990583398438
 31
0.0
 0
LINE
 5
237
100
AcDbEntity
 8
Layer8
100
AcDbLine
 39
0.25
 370
106
 10
170.2403
 20
488.990583398438
 30
0.0
 11
170.2613
 21
488.971583398438
 31
0.0
 0
LINE
 5
238
100
AcDbEntity
 8
Layer8
100
AcDbLine
 39
0.25
 370
106
 10
170.2613
 20
488.971583398438
 30
0.0
 11
170.2613
 21
488.955583398438
 31
0.0
 0
LINE
 5
239
100
AcDbEntity
 8
Layer8
100
AcDbLine
 39
0.25
 370
106
 10
170.2613
 20
488.955583398438
 30
0.0
 11
170.2793
 21
488.935583398438
 31
0.0
 0
LINE
 5
23A
100
AcDbEntity
 8
Layer8
100
AcDbLine
 39
0.25
 370
106
 10
170.2793
 20
488.935583398438
 30
0.0
 11
170.2943
 21
488.935583398438
 31
0.0
 0
LINE
 5
23B
100
AcDbEntity
 8
Layer8
100
AcDbLine
 39
0.25
 370
106
 10
170.2943
 20
488.935583398438
 30
0.0
 11
170.2793
 21
488.955583398438
 31
0.0
 0
LINE
 5
23C
100
AcDbEntity
 8
Layer8
100
AcDbLine
 39
0.25
 370
106
 10
170.2793
 20
488.955583398438
 30
0.0
 11
170.2793
 21
488.971583398438
 31
0.0
 0
LINE
 5
23D
100
AcDbEntity
 8
Layer8
100
AcDbLine
 39
0.25
 370
106
 10
170.2793
 20
488.971583398438
 30
0.0
 11
170.2613
 21
488.990583398438
 31
0.0
 0
LINE
 5
23E
100
AcDbEntity
 8
Layer8
100
AcDbLine
 39
0.25
 370
106
 10
170.2613
 20
488.990583398438
 30
0.0
 11
170.2613
 21
489.039583398438
 31
0.0
 0
LINE
 5
23F
100
AcDbEntity
 8
Layer8
100
AcDbLine
 39
0.25
 370
106
 10
170.2433
 20
489.018883398437
 30
0.0
 11
170.2613
 21
489.018883398437
 31
0.0
 0
LINE
 5
240
100
AcDbEntity
 8
Layer8
100
AcDbLine
 39
0.25
 370
106
 10
170.2394
 20
489.018883398437
 30
0.0
 11
170.2574
 21
489.018883398437
 31
0.0
 0
LINE
 5
241
100
AcDbEntity
 8
Layer8
100
AcDbLine
 39
0.25
 370
106
 10
170.2245
 20
489.058083398437
 30
0.0
 11
170.2425
 21
488.990083398437
 31
0.0
 0
LINE
 5
242
100
AcDbEntity
 8
Layer8
100
AcDbLine
 39
0.25
 370
106
 10
170.2425
 20
488.990083398437
 30
0.0
 11
170.2785
 21
488.954083398437
 31
0.0
 0
LINE
 5
243
100
AcDbEntity
 8
Layer8
100
AcDbLine
 39
0.25
 370
106
 10
170.2785
 20
488.954083398437
 30
0.0
 11
170.2575
 21
488.974083398437
 31
0.0
 0
LINE
 5
244
100
AcDbEntity
 8
Layer8
100
AcDbLine
 39
0.25
 370
106
 10
170.2575
 20
488.974083398437
 30
0.0
 11
170.2575
 21
488.990083398437
 31
0.0
 0
LINE
 5
245
100
AcDbEntity
 8
Layer8
100
AcDbLine
 39
0.25
 370
106
 10
170.2575
 20
488.990083398437
 30
0.0
 11
170.2425
 21
489.009083398438
 31
0.0
 0
LINE
 5
246
100
AcDbEntity
 8
Layer8
100
AcDbLine
 39
0.25
 370
106
 10
170.2425
 20
489.009083398438
 30
0.0
 11
170.2425
 21
489.058083398437
 31
0.0
 0
LINE
 5
247
100
AcDbEntity
 8
Layer8
100
AcDbLine
 39
0.25
 370
106
 10
170.2218
 20
489.039583398438
 30
0.0
 11
170.2398
 21
488.971583398438
 31
0.0
 0
LINE
 5
248
100
AcDbEntity
 8
Layer8
100
AcDbLine
 39
0.25
 370
106
 10
170.2398
 20
488.971583398438
 30
0.0
 11
170.2758
 21
488.935583398438
 31
0.0
 0
LINE
 5
249
100
AcDbEntity
 8
Layer8
100
AcDbLine
 39
0.25
 370
106
 10
170.2758
 20
488.935583398438
 30
0.0
 11
170.2548
 21
488.955583398438
 31
0.0
 0
LINE
 5
24A
100
AcDbEntity
 8
Layer8
100
AcDbLine
 39
0.25
 370
106
 10
170.2548
 20
488.955583398438
 30
0.0
 11
170.2548
 21
488.971583398438
 31
0.0
 0
LINE
 5
24B
100
AcDbEntity
 8
Layer8
100
AcDbLine
 39
0.25
 370
106
 10
170.2548
 20
488.971583398438
 30
0.0
 11
170.2398
 21
488.990583398438
 31
0.0
 0
LINE
 5
24C
100
AcDbEntity
 8
Layer8
100
AcDbLine
 39
0.25
 370
106
 10
170.2398
 20
488.990583398438
 30
0.0
 11
170.2398
 21
489.039583398438
 31
0.0
 0
LINE
 5
24D
100
AcDbEntity
 8
Layer8
100
AcDbLine
 39
0.25
 370
106
 10
172.271
 20
488.950483398437
 30
0.0
 11
170.31
 21
488.950483398437
 31
0.0
 0
LINE
 5
24E
100
AcDbEntity
 8
Layer8
100
AcDbLine
 39
0.25
 370
106
 10
172.1768
 20
488.950483398437
 30
0.0
 11
170.4058
 21
488.950483398437
 31
0.0
 0
LINE
 5
24F
100
AcDbEntity
 8
Layer8
100
AcDbLine
 39
0.25
 370
106
 10
178.9605
 20
489.932983398438
 30
0.0
 11
178.9605
 21
493.284983398437
 31
0.0
 0
LINE
 5
250
100
AcDbEntity
 8
Layer8
100
AcDbLine
 39
0.25
 370
106
 10
178.9605
 20
490.027283398437
 30
0.0
 11
178.9605
 21
493.192283398438
 31
0.0
 0
LINE
 5
251
100
AcDbEntity
 8
Layer8
100
AcDbLine
 39
0.25
 370
106
 10
163.6043
 20
493.284883398438
 30
0.0
 11
163.6043
 21
489.932883398438
 31
0.0
 0
LINE
 5
252
100
AcDbEntity
 8
Layer8
100
AcDbLine
 39
0.25
 370
106
 10
163.6043
 20
493.190583398438
 30
0.0
 11
163.6043
 21
490.025583398438
 31
0.0
 0
ARC
 5
253
100
AcDbEntity
 8
Layer8
100
AcDbCircle
 39
0.25
 370
106
 10
178.607373420788
 20
490.017563651035
 30
0.0
 40
0.326344336588036
100
AcDbArc
 50
-52.8398667830307
 51
2.09319753875189
 0
LINE
 5
254
100
AcDbEntity
 8
Layer8
100
AcDbLine
 39
0.25
 370
106
 10
178.6505
 20
489.713483398438
 30
0.0
 11
178.8045
 21
489.757483398438
 31
0.0
 0
LINE
 5
255
100
AcDbEntity
 8
Layer8
100
AcDbLine
 39
0.25
 370
106
 10
178.7902
 20
489.752583398437
 30
0.0
 11
178.8222
 21
489.757583398437
 31
0.0
 0
LINE
 5
256
100
AcDbEntity
 8
Layer8
100
AcDbLine
 39
0.25
 370
106
 10
178.8222
 20
489.757583398437
 30
0.0
 11
178.8532
 21
489.777583398437
 31
0.0
 0
LINE
 5
257
100
AcDbEntity
 8
Layer8
100
AcDbLine
 39
0.25
 370
106
 10
178.8532
 20
489.777583398437
 30
0.0
 11
178.8712
 21
489.805583398437
 31
0.0
 0
LINE
 5
258
100
AcDbEntity
 8
Layer8
100
AcDbLine
 39
0.25
 370
106
 10
178.8712
 20
489.805583398437
 30
0.0
 11
178.8782
 21
489.838583398437
 31
0.0
 0
LINE
 5
259
100
AcDbEntity
 8
Layer8
100
AcDbLine
 39
0.25
 370
106
 10
163.6194
 20
489.991383398438
 30
0.0
 11
163.6194
 21
489.933383398438
 31
0.0
 0
LINE
 5
25A
100
AcDbEntity
 8
Layer8
100
AcDbLine
 39
0.25
 370
106
 10
163.6194
 20
489.933383398438
 30
0.0
 11
163.7124
 21
489.793383398438
 31
0.0
 0
LINE
 5
25B
100
AcDbEntity
 8
Layer8
100
AcDbLine
 39
0.25
 370
106
 10
163.7124
 20
489.793383398438
 30
0.0
 11
163.8164
 21
489.733383398438
 31
0.0
 0
LINE
 5
25C
100
AcDbEntity
 8
Layer8
100
AcDbLine
 39
0.25
 370
106
 10
163.8164
 20
489.733383398438
 30
0.0
 11
163.9444
 21
489.714383398438
 31
0.0
 0
LINE
 5
25D
100
AcDbEntity
 8
Layer8
100
AcDbLine
 39
0.25
 370
106
 10
163.7021
 20
489.838783398438
 30
0.0
 11
163.7091
 21
489.805783398437
 31
0.0
 0
LINE
 5
25E
100
AcDbEntity
 8
Layer8
100
AcDbLine
 39
0.25
 370
106
 10
163.7091
 20
489.805783398437
 30
0.0
 11
163.7411
 21
489.764783398437
 31
0.0
 0
LINE
 5
25F
100
AcDbEntity
 8
Layer8
100
AcDbLine
 39
0.25
 370
106
 10
163.7411
 20
489.764783398437
 30
0.0
 11
163.7921
 21
489.752783398437
 31
0.0
 0
LINE
 5
260
100
AcDbEntity
 8
Layer8
100
AcDbLine
 39
0.25
 370
106
 10
170.2343
 20
489.658283398438
 30
0.0
 11
170.2343
 21
489.026283398438
 31
0.0
 0
LINE
 5
261
100
AcDbEntity
 8
Layer8
100
AcDbLine
 39
0.25
 370
106
 10
170.2343
 20
489.564083398438
 30
0.0
 11
170.2343
 21
489.122083398438
 31
0.0
 0
LINE
 5
262
100
AcDbEntity
 8
Layer8
100
AcDbLine
 39
0.25
 370
106
 10
172.3335
 20
489.026483398438
 30
0.0
 11
172.3335
 21
489.658483398438
 31
0.0
 0
LINE
 5
263
100
AcDbEntity
 8
Layer8
100
AcDbLine
 39
0.25
 370
106
 10
172.3335
 20
489.120583398437
 30
0.0
 11
172.3335
 21
489.562583398437
 31
0.0
 0
LINE
 5
264
100
AcDbEntity
 8
Layer8
100
AcDbLine
 39
0.25
 370
106
 10
172.244
 20
488.950483398437
 30
0.0
 11
172.283
 21
488.950483398437
 31
0.0
 0
LINE
 5
265
100
AcDbEntity
 8
Layer8
100
AcDbLine
 39
0.25
 370
106
 10
172.283
 20
488.950483398437
 30
0.0
 11
172.312
 21
488.966483398438
 31
0.0
 0
LINE
 5
266
100
AcDbEntity
 8
Layer8
100
AcDbLine
 39
0.25
 370
106
 10
172.2475
 20
488.946583398438
 30
0.0
 11
172.2865
 21
488.946583398438
 31
0.0
 0
LINE
 5
267
100
AcDbEntity
 8
Layer8
100
AcDbLine
 39
0.25
 370
106
 10
172.2865
 20
488.946583398438
 30
0.0
 11
172.3155
 21
488.962583398438
 31
0.0
 0
LINE
 5
268
100
AcDbEntity
 8
Layer8
100
AcDbLine
 39
0.25
 370
106
 10
170.2304
 20
489.065083398437
 30
0.0
 11
170.2634
 21
488.981083398437
 31
0.0
 0
LINE
 5
269
100
AcDbEntity
 8
Layer8
100
AcDbLine
 39
0.25
 370
106
 10
170.2634
 20
488.981083398437
 30
0.0
 11
170.3534
 21
488.944083398438
 31
0.0
 0
LINE
 5
26A
100
AcDbEntity
 8
Layer8
100
AcDbLine
 39
0.25
 370
106
 10
170.206
 20
489.042783398438
 30
0.0
 11
170.239
 21
488.958783398438
 31
0.0
 0
LINE
 5
26B
100
AcDbEntity
 8
Layer8
100
AcDbLine
 39
0.25
 370
106
 10
170.239
 20
488.958783398438
 30
0.0
 11
170.329
 21
488.921783398438
 31
0.0
 0
LINE
 5
26C
100
AcDbEntity
 8
Layer8
100
AcDbLine
 39
0.25
 370
106
 10
169.2612
 20
232.658783398437
 30
0.0
 11
169.2982
 21
222.483783398437
 31
0.0
 0
LINE
 5
26D
100
AcDbEntity
 8
Layer8
100
AcDbLine
 39
0.25
 370
106
 10
172.366
 20
222.483983398437
 30
0.0
 11
171.878
 21
232.652983398438
 31
0.0
 0
LINE
 5
26E
100
AcDbEntity
 8
Layer8
100
AcDbLine
 39
0.25
 370
106
 10
171.8804
 20
232.916783398437
 30
0.0
 11
171.8784
 21
232.653783398438
 31
0.0
 0
LINE
 5
26F
100
AcDbEntity
 8
Layer8
100
AcDbLine
 39
0.25
 370
106
 10
171.8804
 20
232.916783398437
 30
0.0
 11
169.2984
 21
232.916783398437
 31
0.0
 0
LINE
 5
270
100
AcDbEntity
 8
Layer8
100
AcDbLine
 39
0.25
 370
106
 10
169.2984
 20
232.916783398437
 30
0.0
 11
169.2984
 21
232.658783398437
 31
0.0
 0
LINE
 5
271
100
AcDbEntity
 8
Layer8
100
AcDbLine
 39
0.25
 370
106
 10
164.3936
 20
304.613283398437
 30
0.0
 11
157.9176
 21
301.268283398437
 31
0.0
 0
ARC
 5
272
100
AcDbEntity
 8
Layer8
100
AcDbCircle
 39
0.25
 370
106
 10
162.001932371269
 20
243.021672980922
 30
0.0
 40
7.35047298219437
100
AcDbArc
 50
1.0376314640085
 51
58.0081764556875
 0
LINE
 5
273
100
AcDbEntity
 8
Layer8
100
AcDbLine
 39
0.25
 370
106
 10
169.2612
 20
232.658783398437
 30
0.0
 11
169.3512
 21
243.154783398438
 31
0.0
 0
ARC
 5
274
100
AcDbEntity
 8
Layer8
100
AcDbCircle
 39
0.25
 370
106
 10
161.87965067353
 20
222.789408638953
 30
0.0
 40
7.42473400109065
100
AcDbArc
 50
-58.6895401522264
 51
-2.35759508967312
 0
LINE
 5
275
100
AcDbEntity
 8
Layer8
100
AcDbLine
 39
0.25
 370
106
 10
165.8962
 20
249.255783398438
 30
0.0
 11
156.8682
 21
254.466783398437
 31
0.0
 0
LINE
 5
276
100
AcDbEntity
 8
Layer8
100
AcDbLine
 39
0.25
 370
106
 10
156.8682
 20
254.466783398437
 30
0.0
 11
157.9172
 21
256.827783398437
 31
0.0
 0
LINE
 5
277
100
AcDbEntity
 8
Layer8
100
AcDbLine
 39
0.25
 370
106
 10
165.7381
 20
216.445983398437
 30
0.0
 11
156.6071
 21
211.285983398437
 31
0.0
 0
LINE
 5
278
100
AcDbEntity
 8
Layer8
100
AcDbLine
 39
0.25
 370
106
 10
169.2612
 20
232.658783398437
 30
0.0
 11
169.2982
 21
232.658783398437
 31
0.0
 0
LINE
 5
279
100
AcDbEntity
 8
Layer8
100
AcDbLine
 39
0.25
 370
106
 10
179.0777
 20
306.436783398438
 30
0.0
 11
184.7697
 21
303.079783398437
 31
0.0
 0
LINE
 5
27A
100
AcDbEntity
 8
Layer8
100
AcDbLine
 39
0.25
 370
106
 10
177.7864
 20
304.148583398437
 30
0.0
 11
183.4584
 21
300.806583398438
 31
0.0
 0
LINE
 5
27B
100
AcDbEntity
 8
Layer8
100
AcDbLine
 39
0.25
 370
106
 10
169.2612
 20
325.437183398438
 30
0.0
 11
171.8782
 21
325.437183398438
 31
0.0
 0
LINE
 5
27C
100
AcDbEntity
 8
Layer8
100
AcDbLine
 39
0.25
 370
106
 10
171.8804
 20
232.916783398437
 30
0.0
 11
172.3664
 21
222.483783398437
 31
0.0
 0
LINE
 5
27D
100
AcDbEntity
 8
Layer8
100
AcDbLine
 39
0.25
 370
106
 10
169.2981
 20
222.483983398437
 30
0.0
 11
169.2981
 21
232.658983398438
 31
0.0
 0
ARC
 5
27E
100
AcDbEntity
 8
Layer8
100
AcDbCircle
 39
0.25
 370
106
 10
179.652701065921
 20
243.078736142264
 30
0.0
 40
7.68826026959836
100
AcDbArc
 50
122.432886140262
 51
177.561986365105
 0
LINE
 5
27F
100
AcDbEntity
 8
Layer8
100
AcDbLine
 39
0.25
 370
106
 10
171.8804
 20
232.916783398437
 30
0.0
 11
171.9714
 21
243.405783398438
 31
0.0
 0
LINE
 5
280
100
AcDbEntity
 8
Layer8
100
AcDbLine
 39
0.25
 370
106
 10
175.5294
 20
249.567783398438
 30
0.0
 11
184.7684
 21
255.015783398438
 31
0.0
 0
CIRCLE
 5
281
100
AcDbEntity
 8
Layer8
100
AcDbCircle
 39
0.25
 370
106
 10
143.75585625
 20
356.788603710938
 30
0.0
 40
2.73679296875
 370
106
 0
LINE
 5
282
100
AcDbEntity
 8
Layer8
100
AcDbLine
 39
0.25
 370
106
 10
169.2981
 20
232.658683398437
 30
0.0
 11
171.8781
 21
232.653683398437
 31
0.0
 0
ARC
 5
283
100
AcDbEntity
 8
Layer8
100
AcDbCircle
 39
0.25
 370
106
 10
127.479910212974
 20
315.566505742421
 30
0.0
 40
8.3435039244172
100
AcDbArc
 50
-178.227161971114
 51
-144.30304201974
 0
ARC
 5
284
100
AcDbEntity
 8
Layer8
100
AcDbCircle
 39
0.25
 370
106
 10
125.350622473263
 20
313.928823047669
 30
0.0
 40
5.65937097248768
100
AcDbArc
 50
-145.189443777791
 51
-121.324542525761
 0
LINE
 5
285
100
AcDbEntity
 8
Layer8
100
AcDbLine
 39
0.25
 370
106
 10
119.2354
 20
325.772383398438
 30
0.0
 11
119.1404
 21
315.308383398438
 31
0.0
 0
LINE
 5
286
100
AcDbEntity
 8
Layer8
100
AcDbLine
 39
0.25
 370
106
 10
122.4084
 20
309.094383398438
 30
0.0
 11
130.7894
 21
303.557383398438
 31
0.0
 0
ARC
 5
287
100
AcDbEntity
 8
Layer8
100
AcDbCircle
 39
0.25
 370
106
 10
117.608851121487
 20
300.122558690623
 30
0.0
 40
7.29272072470065
100
AcDbArc
 50
61.8270249183162
 51
119.236249539033
 0
LINE
 5
288
100
AcDbEntity
 8
Layer8
100
AcDbLine
 39
0.25
 370
106
 10
105.013
 20
301.165283398438
 30
0.0
 11
114.047
 21
306.486283398438
 31
0.0
 0
LINE
 5
289
100
AcDbEntity
 8
Layer8
100
AcDbLine
 39
0.25
 370
106
 10
121.052
 20
306.551283398438
 30
0.0
 11
129.482
 21
301.280283398438
 31
0.0
 0
LINE
 5
28A
100
AcDbEntity
 8
Layer8
100
AcDbLine
 39
0.25
 370
106
 10
119.7324
 20
338.734383398438
 30
0.0
 11
119.724844444444
 21
338.730272287326
 31
0.0
 0
LINE
 5
28B
100
AcDbEntity
 8
Layer8
100
AcDbLine
 39
0.25
 370
106
 10
119.724844444444
 20
338.730272287326
 30
0.0
 11
119.713288888889
 21
338.726827842882
 31
0.0
 0
LINE
 5
28C
100
AcDbEntity
 8
Layer8
100
AcDbLine
 39
0.25
 370
106
 10
119.713288888889
 20
338.726827842882
 30
0.0
 11
119.7024
 21
338.725383398437
 31
0.0
 0
ARC
 5
28D
100
AcDbEntity
 8
Layer8
100
AcDbCircle
 39
0.25
 370
106
 10
128.859916085606
 20
335.842953921491
 30
0.0
 40
9.57454512304071
100
AcDbArc
 50
162.422754522902
 51
174.693851153048
 0
LINE
 5
28E
100
AcDbEntity
 8
Layer8
100
AcDbLine
 39
0.25
 370
106
 10
116.1414
 20
339.124383398437
 30
0.0
 11
116.137066666667
 21
339.126642657697
 31
0.0
 0
LINE
 5
28F
100
AcDbEntity
 8
Layer8
100
AcDbLine
 39
0.25
 370
106
 10
116.137066666667
 20
339.126642657697
 30
0.0
 11
116.134733333333
 21
339.128457472512
 31
0.0
 0
LINE
 5
290
100
AcDbEntity
 8
Layer8
100
AcDbLine
 39
0.25
 370
106
 10
116.134733333333
 20
339.128457472512
 30
0.0
 11
116.1324
 21
339.131383398437
 31
0.0
 0
ARC
 5
291
100
AcDbEntity
 8
Layer8
100
AcDbCircle
 39
0.25
 370
106
 10
118.211130683887
 20
341.506212885446
 30
0.0
 40
3.15545508746237
100
AcDbArc
 50
-61.7967734655414
 51
-130.989556334011
 0
ARC
 5
292
100
AcDbEntity
 8
Layer8
100
AcDbCircle
 39
0.25
 370
106
 10
109.564344427955
 20
336.327057686822
 30
0.0
 40
7.14168024307376
100
AcDbArc
 50
1.2221608878664
 51
23.1207555292785
 0
LINE
 5
293
100
AcDbEntity
 8
Layer8
100
AcDbLine
 39
0.25
 370
106
 10
119.2354
 20
325.772383398438
 30
0.0
 11
119.3264
 21
336.728383398438
 31
0.0
 0
LINE
 5
294
100
AcDbEntity
 8
Layer8
100
AcDbLine
 39
0.25
 370
106
 10
116.7044
 20
336.479383398438
 30
0.0
 11
116.6114
 21
325.777383398438
 31
0.0
 0
ARC
 5
295
100
AcDbEntity
 8
Layer8
100
AcDbCircle
 39
0.25
 370
106
 10
108.846726580835
 20
315.369813532385
 30
0.0
 40
7.67635575617383
100
AcDbArc
 50
-57.6399808859612
 51
-2.39086899708271
 0
LINE
 5
296
100
AcDbEntity
 8
Layer8
100
AcDbLine
 39
0.25
 370
106
 10
116.6114
 20
325.777583398438
 30
0.0
 11
116.5164
 21
315.049583398438
 31
0.0
 0
LINE
 5
297
100
AcDbEntity
 8
Layer8
100
AcDbLine
 39
0.25
 370
106
 10
112.9554
 20
308.885583398438
 30
0.0
 11
103.7044
 21
303.411583398438
 31
0.0
 0
LINE
 5
298
100
AcDbEntity
 8
Layer8
100
AcDbLine
 39
0.25
 370
106
 10
105.013
 20
301.165283398438
 30
0.0
 11
103.704
 21
303.412283398438
 31
0.0
 0
CIRCLE
 5
299
100
AcDbEntity
 8
Layer8
100
AcDbCircle
 39
0.25
 370
106
 10
143.7568703125
 20
356.790427148438
 30
0.0
 40
2.30461328125
 370
106
 0
LINE
 5
29A
100
AcDbEntity
 8
Layer8
100
AcDbLine
 39
0.25
 370
106
 10
171.8782
 20
325.437183398438
 30
0.0
 11
171.9452
 21
317.660183398438
 31
0.0
 0
ARC
 5
29B
100
AcDbEntity
 8
Layer8
100
AcDbCircle
 39
0.25
 370
106
 10
134.803071392285
 20
289.794395696373
 30
0.0
 40
7.37994201711771
100
AcDbArc
 50
2.23486887058957
 51
58.8787575091978
 0
LINE
 5
29C
100
AcDbEntity
 8
Layer8
100
AcDbLine
 39
0.25
 370
106
 10
145.2434
 20
279.648183398437
 30
0.0
 11
142.1774
 21
279.650183398437
 31
0.0
 0
LINE
 5
29D
100
AcDbEntity
 8
Layer8
100
AcDbLine
 39
0.25
 370
106
 10
142.1774
 20
279.650183398437
 30
0.0
 11
142.1774
 21
290.082183398438
 31
0.0
 0
LINE
 5
29E
100
AcDbEntity
 8
Layer8
100
AcDbLine
 39
0.25
 370
106
 10
138.6174
 20
296.112183398437
 30
0.0
 11
129.4824
 21
301.280183398437
 31
0.0
 0
LINE
 5
29F
100
AcDbEntity
 8
Layer8
100
AcDbLine
 39
0.25
 370
106
 10
119.2354
 20
325.772383398438
 30
0.0
 11
116.6114
 21
325.777383398438
 31
0.0
 0
LINE
 5
2A0
100
AcDbEntity
 8
Layer8
100
AcDbLine
 39
0.25
 370
106
 10
105.013
 20
301.165283398438
 30
0.0
 11
103.704
 21
303.412283398438
 31
0.0
 0
LINE
 5
2A1
100
AcDbEntity
 8
Layer8
100
AcDbLine
 39
0.25
 370
106
 10
130.7896
 20
303.557083398438
 30
0.0
 11
129.4816
 21
301.281083398437
 31
0.0
 0
LINE
 5
2A2
100
AcDbEntity
 8
Layer8
100
AcDbLine
 39
0.25
 370
106
 10
157.9175
 20
301.268383398437
 30
0.0
 11
156.6025
 21
303.537383398438
 31
0.0
 0
LINE
 5
2A3
100
AcDbEntity
 8
Layer8
100
AcDbLine
 39
0.25
 370
106
 10
163.1824
 20
307.293083398437
 30
0.0
 11
156.6024
 21
303.538083398437
 31
0.0
 0
ARC
 5
2A4
100
AcDbEntity
 8
Layer8
100
AcDbCircle
 39
0.25
 370
106
 10
152.553273890323
 20
268.258454634515
 30
0.0
 40
7.31377771105576
100
AcDbArc
 50
-178.104063103718
 51
-120.834719851084
 0
LINE
 5
2A5
100
AcDbEntity
 8
Layer8
100
AcDbLine
 39
0.25
 370
106
 10
157.9175
 20
256.827483398437
 30
0.0
 11
148.8045
 21
261.978483398438
 31
0.0
 0
CIRCLE
 5
2A6
100
AcDbEntity
 8
Layer8
100
AcDbCircle
 39
0.25
 370
106
 10
118.2255171875
 20
341.540183398437
 30
0.0
 40
2.73504296874999
 370
106
 0
CIRCLE
 5
2A7
100
AcDbEntity
 8
Layer8
100
AcDbCircle
 39
0.25
 370
106
 10
118.22095625
 20
341.539036523438
 30
0.0
 40
2.3039296875
 370
106
 0
CIRCLE
 5
2A8
100
AcDbEntity
 8
Layer8
100
AcDbCircle
 39
0.25
 370
106
 10
223.938215625
 20
341.409280273438
 30
0.0
 40
2.302328125
 370
106
 0
CIRCLE
 5
2A9
100
AcDbEntity
 8
Layer8
100
AcDbCircle
 39
0.25
 370
106
 10
143.755634375
 20
202.026355273438
 30
0.0
 40
2.73690625
 370
106
 0
LINE
 5
2AA
100
AcDbEntity
 8
Layer8
100
AcDbLine
 39
0.25
 370
106
 10
145.2435
 20
268.016483398438
 30
0.0
 11
145.2435
 21
279.648483398438
 31
0.0
 0
LINE
 5
2AB
100
AcDbEntity
 8
Layer8
100
AcDbLine
 39
0.25
 370
106
 10
210.6184
 20
254.844083398438
 30
0.0
 11
210.6844
 21
254.963083398438
 31
0.0
 0
LINE
 5
2AC
100
AcDbEntity
 8
Layer8
100
AcDbLine
 39
0.25
 370
106
 10
202.7761
 20
262.452783398437
 30
0.0
 11
211.8851
 21
257.299783398437
 31
0.0
 0
LINE
 5
2AD
100
AcDbEntity
 8
Layer8
100
AcDbLine
 39
0.25
 370
106
 10
183.7239
 20
209.020183398438
 30
0.0
 11
185.0329
 21
211.293183398437
 31
0.0
 0
LINE
 5
2AE
100
AcDbEntity
 8
Layer8
100
AcDbLine
 39
0.25
 370
106
 10
211.8108
 20
257.169583398438
 30
0.0
 11
211.8858
 21
257.299583398438
 31
0.0
 0
LINE
 5
2AF
100
AcDbEntity
 8
Layer8
100
AcDbLine
 39
0.25
 370
106
 10
238.4505
 20
303.282383398438
 30
0.0
 11
237.1475
 21
301.032383398438
 31
0.0
 0
CIRCLE
 5
2B0
100
AcDbEntity
 8
Layer8
100
AcDbCircle
 39
0.25
 370
106
 10
251.5922
 20
294.532183398438
 30
0.0
 40
2.75624999999999
 370
106
 0
CIRCLE
 5
2B1
100
AcDbEntity
 8
Layer8
100
AcDbCircle
 39
0.25
 370
106
 10
251.5956
 20
294.535483398438
 30
0.0
 40
2.31925000000001
 370
106
 0
CIRCLE
 5
2B2
100
AcDbEntity
 8
Layer8
100
AcDbCircle
 39
0.25
 370
106
 10
90.787053125
 20
264.539852148437
 30
0.0
 40
2.304328125
 370
106
 0
CIRCLE
 5
2B3
100
AcDbEntity
 8
Layer8
100
AcDbCircle
 39
0.25
 370
106
 10
143.7568703125
 20
202.024070898438
 30
0.0
 40
2.30469140624999
 370
106
 0
CIRCLE
 5
2B4
100
AcDbEntity
 8
Layer8
100
AcDbCircle
 39
0.25
 370
106
 10
90.5662
 20
294.662983398438
 30
0.0
 40
2.32000000000001
 370
106
 0
CIRCLE
 5
2B5
100
AcDbEntity
 8
Layer8
100
AcDbCircle
 39
0.25
 370
106
 10
90.5661
 20
294.660983398438
 30
0.0
 40
2.75525
 370
106
 0
CIRCLE
 5
2B6
100
AcDbEntity
 8
Layer8
100
AcDbCircle
 39
0.25
 370
106
 10
117.5589625
 20
217.147059960938
 30
0.0
 40
2.73503515625001
 370
106
 0
CIRCLE
 5
2B7
100
AcDbEntity
 8
Layer8
100
AcDbCircle
 39
0.25
 370
106
 10
117.5575234375
 20
217.149608398438
 30
0.0
 40
2.30390234375
 370
106
 0
CIRCLE
 5
2B8
100
AcDbEntity
 8
Layer8
100
AcDbCircle
 39
0.25
 370
106
 10
90.789203125
 20
264.541441210938
 30
0.0
 40
2.73632421875001
 370
106
 0
LINE
 5
2B9
100
AcDbEntity
 8
Layer8
100
AcDbLine
 39
0.25
 370
106
 10
238.4505
 20
303.282383398438
 30
0.0
 11
237.1475
 21
301.032383398438
 31
0.0
 0
LINE
 5
2BA
100
AcDbEntity
 8
Layer8
100
AcDbLine
 39
0.25
 370
106
 10
196.1504
 20
279.172483398438
 30
0.0
 11
199.2274
 21
279.172483398438
 31
0.0
 0
LINE
 5
2BB
100
AcDbEntity
 8
Layer8
100
AcDbLine
 39
0.25
 370
106
 10
199.2273
 20
278.921483398437
 30
0.0
 11
196.1613
 21
278.926483398437
 31
0.0
 0
LINE
 5
2BC
100
AcDbEntity
 8
Layer8
100
AcDbLine
 39
0.25
 370
106
 10
196.1613
 20
278.926483398437
 30
0.0
 11
196.1613
 21
278.918483398438
 31
0.0
 0
LINE
 5
2BD
100
AcDbEntity
 8
Layer8
100
AcDbLine
 39
0.25
 370
106
 10
184.7698
 20
303.079683398438
 30
0.0
 11
183.4588
 21
300.806683398437
 31
0.0
 0
LINE
 5
2BE
100
AcDbEntity
 8
Layer8
100
AcDbLine
 39
0.25
 370
106
 10
199.2273
 20
278.921483398437
 30
0.0
 11
196.1613
 21
278.918483398438
 31
0.0
 0
LINE
 5
2BF
100
AcDbEntity
 8
Layer8
100
AcDbLine
 39
0.25
 370
106
 10
196.1504
 20
279.172483398438
 30
0.0
 11
196.1504
 21
279.163483398438
 31
0.0
 0
LINE
 5
2C0
100
AcDbEntity
 8
Layer8
100
AcDbLine
 39
0.25
 370
106
 10
196.1504
 20
279.163483398438
 30
0.0
 11
199.2274
 21
279.163483398438
 31
0.0
 0
LINE
 5
2C1
100
AcDbEntity
 8
Layer8
100
AcDbLine
 39
0.25
 370
106
 10
199.2274
 20
279.163483398438
 30
0.0
 11
199.2274
 21
279.172483398438
 31
0.0
 0
LINE
 5
2C2
100
AcDbEntity
 8
Layer8
100
AcDbLine
 39
0.25
 370
106
 10
184.7683
 20
255.015283398438
 30
0.0
 11
183.4583
 21
257.284283398437
 31
0.0
 0
ARC
 5
2C3
100
AcDbEntity
 8
Layer8
100
AcDbCircle
 39
0.25
 370
106
 10
188.788596675926
 20
289.338655441778
 30
0.0
 40
7.36463862843929
100
AcDbArc
 50
2.07633575283699
 51
58.8207206065414
 0
LINE
 5
2C4
100
AcDbEntity
 8
Layer8
100
AcDbLine
 39
0.25
 370
106
 10
196.1504
 20
279.172483398438
 30
0.0
 11
196.1484
 21
289.605483398438
 31
0.0
 0
LINE
 5
2C5
100
AcDbEntity
 8
Layer8
100
AcDbLine
 39
0.25
 370
106
 10
192.6014
 20
295.639483398438
 30
0.0
 11
183.4584
 21
300.806483398438
 31
0.0
 0
ARC
 5
2C6
100
AcDbEntity
 8
Layer8
100
AcDbCircle
 39
0.25
 370
106
 10
188.776720214592
 20
268.761096188174
 30
0.0
 40
7.37719633371456
100
AcDbArc
 50
-58.7673718904702
 51
-2.1130952413295
 0
LINE
 5
2C7
100
AcDbEntity
 8
Layer8
100
AcDbLine
 39
0.25
 370
106
 10
196.1609
 20
278.918083398437
 30
0.0
 11
196.1489
 21
268.489083398438
 31
0.0
 0
LINE
 5
2C8
100
AcDbEntity
 8
Layer8
100
AcDbLine
 39
0.25
 370
106
 10
192.6019
 20
262.453083398438
 30
0.0
 11
183.4589
 21
257.284083398437
 31
0.0
 0
LINE
 5
2C9
100
AcDbEntity
 8
Layer8
100
AcDbLine
 39
0.25
 370
106
 10
157.9046
 20
349.787183398437
 30
0.0
 11
156.6086
 21
347.529183398438
 31
0.0
 0
LINE
 5
2CA
100
AcDbEntity
 8
Layer8
100
AcDbLine
 39
0.25
 370
106
 10
222.929
 20
325.644183398438
 30
0.0
 11
225.55
 21
325.648183398438
 31
0.0
 0
ARC
 5
2CB
100
AcDbEntity
 8
Layer8
100
AcDbCircle
 39
0.25
 370
106
 10
232.680482261125
 20
336.205084019303
 30
0.0
 40
7.22001288489331
100
AcDbArc
 50
157.239318395117
 51
178.942117429073
 0
LINE
 5
2CC
100
AcDbEntity
 8
Layer8
100
AcDbLine
 39
0.25
 370
106
 10
225.4617
 20
336.338383398437
 30
0.0
 11
225.5497
 21
325.647383398438
 31
0.0
 0
LINE
 5
2CD
100
AcDbEntity
 8
Layer8
100
AcDbLine
 39
0.25
 370
106
 10
184.7683
 20
255.015283398438
 30
0.0
 11
183.4583
 21
257.284283398437
 31
0.0
 0
CIRCLE
 5
2CE
100
AcDbEntity
 8
Layer8
100
AcDbCircle
 39
0.25
 370
106
 10
198.1841
 20
356.279183398438
 30
0.0
 40
2.32175000000001
 370
106
 0
CIRCLE
 5
2CF
100
AcDbEntity
 8
Layer8
100
AcDbCircle
 39
0.25
 370
106
 10
198.1876
 20
356.275183398438
 30
0.0
 40
2.75449999999998
 370
106
 0
ARC
 5
2D0
100
AcDbEntity
 8
Layer8
100
AcDbCircle
 39
0.25
 370
106
 10
179.784449326462
 20
222.789408638948
 30
0.0
 40
7.42473400108244
100
AcDbArc
 50
-177.64240491037
 51
-121.310459847749
 0
LINE
 5
2D1
100
AcDbEntity
 8
Layer8
100
AcDbLine
 39
0.25
 370
106
 10
169.2612
 20
325.437183398438
 30
0.0
 11
169.3292
 21
317.460183398438
 31
0.0
 0
LINE
 5
2D2
100
AcDbEntity
 8
Layer8
100
AcDbLine
 39
0.25
 370
106
 10
175.926
 20
216.445983398437
 30
0.0
 11
185.033
 21
211.292983398438
 31
0.0
 0
LINE
 5
2D3
100
AcDbEntity
 8
Layer8
100
AcDbLine
 39
0.25
 370
106
 10
210.5779
 20
255.026683398438
 30
0.0
 11
210.6849
 21
254.963683398438
 31
0.0
 0
LINE
 5
2D4
100
AcDbEntity
 8
Layer8
100
AcDbLine
 39
0.25
 370
106
 10
211.8855
 20
257.125883398438
 30
0.0
 11
210.6845
 21
254.962883398438
 31
0.0
 0
LINE
 5
2D5
100
AcDbEntity
 8
Layer8
100
AcDbLine
 39
0.25
 370
106
 10
210.5779
 20
255.026683398438
 30
0.0
 11
211.8109
 21
257.169683398437
 31
0.0
 0
LINE
 5
2D6
100
AcDbEntity
 8
Layer8
100
AcDbLine
 39
0.25
 370
106
 10
201.2405
 20
260.306283398437
 30
0.0
 11
210.6185
 21
254.844283398437
 31
0.0
 0
LINE
 5
2D7
100
AcDbEntity
 8
Layer8
100
AcDbLine
 39
0.25
 370
106
 10
211.8108
 20
257.169583398438
 30
0.0
 11
211.8858
 21
257.125583398438
 31
0.0
 0
LINE
 5
2D8
100
AcDbEntity
 8
Layer8
100
AcDbLine
 39
0.25
 370
106
 10
146.9426
 20
356.718183398437
 30
0.0
 11
146.940785185185
 21
356.697220435474
 31
0.0
 0
LINE
 5
2D9
100
AcDbEntity
 8
Layer8
100
AcDbLine
 39
0.25
 370
106
 10
146.940785185185
 20
356.697220435474
 30
0.0
 11
146.937414814815
 21
356.675813028067
 31
0.0
 0
LINE
 5
2DA
100
AcDbEntity
 8
Layer8
100
AcDbLine
 39
0.25
 370
106
 10
146.937414814815
 20
356.675813028067
 30
0.0
 11
146.9356
 21
356.656183398438
 31
0.0
 0
ARC
 5
2DB
100
AcDbEntity
 8
Layer8
100
AcDbCircle
 39
0.25
 370
106
 10
154.427281405027
 20
363.50414183185
 30
0.0
 40
10.1029543993211
100
AcDbArc
 50
-137.80309310474
 51
-126.072332724529
 0
LINE
 5
2DC
100
AcDbEntity
 8
Layer8
100
AcDbLine
 39
0.25
 370
106
 10
145.0536
 20
353.897183398438
 30
0.0
 11
145.025007407407
 21
353.874220435475
 31
0.0
 0
LINE
 5
2DD
100
AcDbEntity
 8
Layer8
100
AcDbLine
 39
0.25
 370
106
 10
145.025007407407
 20
353.874220435475
 30
0.0
 11
144.996859259259
 21
353.8561463614
 31
0.0
 0
LINE
 5
2DE
100
AcDbEntity
 8
Layer8
100
AcDbLine
 39
0.25
 370
106
 10
144.996859259259
 20
353.8561463614
 30
0.0
 11
144.9716
 21
353.841183398437
 31
0.0
 0
ARC
 5
2DF
100
AcDbEntity
 8
Layer8
100
AcDbCircle
 39
0.25
 370
106
 10
143.741384629454
 20
356.813671918683
 30
0.0
 40
3.19809544376638
100
AcDbArc
 50
-2.82264199796298
 51
-65.775595129143
 0
ARC
 5
2E0
100
AcDbEntity
 8
Layer8
100
AcDbCircle
 39
0.25
 370
106
 10
143.605684963461
 20
346.571814006385
 30
0.0
 40
7.39658402542393
100
AcDbArc
 50
59.3212454381576
 51
79.3582023569502
 0
LINE
 5
2E1
100
AcDbEntity
 8
Layer8
100
AcDbLine
 39
0.25
 370
106
 10
157.9046
 20
349.787183398437
 30
0.0
 11
148.4786
 21
355.338183398437
 31
0.0
 0
LINE
 5
2E2
100
AcDbEntity
 8
Layer8
100
AcDbLine
 39
0.25
 370
106
 10
147.3796
 20
352.933183398438
 30
0.0
 11
156.6086
 21
347.529183398438
 31
0.0
 0
ARC
 5
2E3
100
AcDbEntity
 8
Layer8
100
AcDbCircle
 39
0.25
 370
106
 10
188.221448924601
 20
196.378837203676
 30
0.0
 40
8.80437012154021
100
AcDbArc
 50
39.1221664137167
 51
56.8971467608697
 0
LINE
 5
2E4
100
AcDbEntity
 8
Layer8
100
AcDbLine
 39
0.25
 370
106
 10
183.7239
 20
209.020183398438
 30
0.0
 11
193.0299
 21
203.754183398437
 31
0.0
 0
LINE
 5
2E5
100
AcDbEntity
 8
Layer8
100
AcDbLine
 39
0.25
 370
106
 10
196.4879
 20
205.225183398437
 30
0.0
 11
196.492381481482
 21
205.236035250289
 31
0.0
 0
LINE
 5
2E6
100
AcDbEntity
 8
Layer8
100
AcDbLine
 39
0.25
 370
106
 10
196.492381481482
 20
205.236035250289
 30
0.0
 11
196.500418518519
 21
205.244664879919
 31
0.0
 0
LINE
 5
2E7
100
AcDbEntity
 8
Layer8
100
AcDbLine
 39
0.25
 370
106
 10
196.500418518519
 20
205.244664879919
 30
0.0
 11
196.5069
 21
205.248183398438
 31
0.0
 0
ARC
 5
2E8
100
AcDbEntity
 8
Layer8
100
AcDbCircle
 39
0.25
 370
106
 10
198.234560789219
 20
202.505457182444
 30
0.0
 40
3.23229556237525
100
AcDbArc
 50
-169.94614916847
 51
122.709361543585
 0
ARC
 5
2E9
100
AcDbEntity
 8
Layer8
100
AcDbCircle
 39
0.25
 370
106
 10
197.628542293613
 20
211.788042047338
 30
0.0
 40
6.63534720888241
100
AcDbArc
 50
-117.439464995054
 51
-99.732035376483
 0
LINE
 5
2EA
100
AcDbEntity
 8
Layer8
100
AcDbLine
 39
0.25
 370
106
 10
195.0519
 20
201.934183398437
 30
0.0
 11
195.0519
 21
201.941183398437
 31
0.0
 0
LINE
 5
2EB
100
AcDbEntity
 8
Layer8
100
AcDbLine
 39
0.25
 370
106
 10
194.5709
 20
205.899183398437
 30
0.0
 11
185.0329
 21
211.293183398437
 31
0.0
 0
ARC
 5
2EC
100
AcDbEntity
 8
Layer8
100
AcDbCircle
 39
0.25
 370
106
 10
197.683299999999
 20
253.547708473656
 30
0.0
 40
7.63744617093259
100
AcDbArc
 50
62.2424199885724
 51
117.757580011424
 0
CIRCLE
 5
2ED
100
AcDbEntity
 8
Layer8
100
AcDbCircle
 39
0.25
 370
106
 10
198.1876
 20
202.538283398438
 30
0.0
 40
2.75525000000002
 370
106
 0
LINE
 5
2EE
100
AcDbEntity
 8
Layer8
100
AcDbLine
 39
0.25
 370
106
 10
184.7683
 20
255.015283398438
 30
0.0
 11
194.1263
 21
260.306283398438
 31
0.0
 0
ARC
 5
2EF
100
AcDbEntity
 8
Layer8
100
AcDbCircle
 39
0.25
 370
106
 10
224.546221080816
 20
299.856179960598
 30
0.0
 40
7.41434408533032
100
AcDbArc
 50
61.2556173041026
 51
117.681866593381
 0
LINE
 5
2F0
100
AcDbEntity
 8
Layer8
100
AcDbLine
 39
0.25
 370
106
 10
212.0698
 20
301.206883398438
 30
0.0
 11
221.1018
 21
306.421883398438
 31
0.0
 0
LINE
 5
2F1
100
AcDbEntity
 8
Layer8
100
AcDbLine
 39
0.25
 370
106
 10
228.1118
 20
306.356883398438
 30
0.0
 11
237.1468
 21
301.032883398438
 31
0.0
 0
ARC
 5
2F2
100
AcDbEntity
 8
Layer8
100
AcDbCircle
 39
0.25
 370
106
 10
224.637272573416
 20
258.740202711118
 30
0.0
 40
7.31781722977012
100
AcDbArc
 50
-118.107045115317
 51
-60.8953940851311
 0
LINE
 5
2F3
100
AcDbEntity
 8
Layer8
100
AcDbLine
 39
0.25
 370
106
 10
237.2127
 20
257.659383398438
 30
0.0
 11
228.1967
 21
252.346383398438
 31
0.0
 0
LINE
 5
2F4
100
AcDbEntity
 8
Layer8
100
AcDbLine
 39
0.25
 370
106
 10
221.1897
 20
252.285083398438
 30
0.0
 11
211.8857
 21
257.300083398437
 31
0.0
 0
ARC
 5
2F5
100
AcDbEntity
 8
Layer8
100
AcDbCircle
 39
0.25
 370
106
 10
206.59692402219
 20
289.331615789097
 30
0.0
 40
7.37471095677034
100
AcDbArc
 50
121.202948007902
 51
177.871771905701
 0
LINE
 5
2F6
100
AcDbEntity
 8
Layer8
100
AcDbLine
 39
0.25
 370
106
 10
199.2273
 20
279.172483398438
 30
0.0
 11
199.2273
 21
289.605483398438
 31
0.0
 0
LINE
 5
2F7
100
AcDbEntity
 8
Layer8
100
AcDbLine
 39
0.25
 370
106
 10
202.7763
 20
295.639483398438
 30
0.0
 11
212.0703
 21
301.206483398438
 31
0.0
 0
LINE
 5
2F8
100
AcDbEntity
 8
Layer8
100
AcDbLine
 39
0.25
 370
106
 10
210.5779
 20
255.026683398438
 30
0.0
 11
201.2409
 21
260.306683398437
 31
0.0
 0
LINE
 5
2F9
100
AcDbEntity
 8
Layer8
100
AcDbLine
 39
0.25
 370
106
 10
202.7761
 20
262.452783398437
 30
0.0
 11
211.8111
 21
257.169783398437
 31
0.0
 0
ARC
 5
2FA
100
AcDbEntity
 8
Layer8
100
AcDbCircle
 39
0.25
 370
106
 10
206.609163169106
 20
268.76745687212
 30
0.0
 40
7.38713273512914
100
AcDbArc
 50
-177.83572260131
 51
-121.255591088018
 0
LINE
 5
2FB
100
AcDbEntity
 8
Layer8
100
AcDbLine
 39
0.25
 370
106
 10
199.2273
 20
278.921483398437
 30
0.0
 11
199.2273
 21
268.488483398437
 31
0.0
 0
LINE
 5
2FC
100
AcDbEntity
 8
Layer8
100
AcDbLine
 39
0.25
 370
106
 10
93.975
 20
264.446383398438
 30
0.0
 11
93.9735555555556
 21
264.435309324363
 31
0.0
 0
LINE
 5
2FD
100
AcDbEntity
 8
Layer8
100
AcDbLine
 39
0.25
 370
106
 10
93.9735555555556
 20
264.435309324363
 30
0.0
 11
93.9701111111111
 21
264.422457472512
 31
0.0
 0
LINE
 5
2FE
100
AcDbEntity
 8
Layer8
100
AcDbLine
 39
0.25
 370
106
 10
93.9701111111111
 20
264.422457472512
 30
0.0
 11
93.966
 21
264.411383398438
 31
0.0
 0
ARC
 5
2FF
100
AcDbEntity
 8
Layer8
100
AcDbCircle
 39
0.25
 370
106
 10
100.699233097227
 20
270.499956484689
 30
0.0
 40
9.04771008910168
100
AcDbArc
 50
-138.004487647965
 51
-125.020719283786
 0
LINE
 5
300
100
AcDbEntity
 8
Layer8
100
AcDbLine
 39
0.25
 370
106
 10
91.839
 20
261.531383398438
 30
0.0
 11
91.8338518518519
 21
261.528235250289
 31
0.0
 0
LINE
 5
301
100
AcDbEntity
 8
Layer8
100
AcDbLine
 39
0.25
 370
106
 10
91.8338518518519
 20
261.528235250289
 30
0.0
 11
91.8304814814815
 21
261.526198213252
 31
0.0
 0
LINE
 5
302
100
AcDbEntity
 8
Layer8
100
AcDbLine
 39
0.25
 370
106
 10
91.8304814814815
 20
261.526198213252
 30
0.0
 11
91.826
 21
261.524383398438
 31
0.0
 0
ARC
 5
303
100
AcDbEntity
 8
Layer8
100
AcDbCircle
 39
0.25
 370
106
 10
90.8009115119197
 20
264.523494063073
 30
0.0
 40
3.16707340276535
100
AcDbArc
 50
-2.02862686718715
 51
-70.8661982193013
 0
ARC
 5
304
100
AcDbEntity
 8
Layer8
100
AcDbCircle
 39
0.25
 370
106
 10
90.9908778811721
 20
254.493811524283
 30
0.0
 40
7.07999786942041
100
AcDbArc
 50
61.1047708506534
 51
83.2258976226084
 0
LINE
 5
305
100
AcDbEntity
 8
Layer8
100
AcDbLine
 39
0.25
 370
106
 10
104.95
 20
257.531383398438
 30
0.0
 11
95.507
 21
263.090383398438
 31
0.0
 0
LINE
 5
306
100
AcDbEntity
 8
Layer8
100
AcDbLine
 39
0.25
 370
106
 10
94.412
 20
260.692383398438
 30
0.0
 11
103.637
 21
255.261383398437
 31
0.0
 0
LINE
 5
307
100
AcDbEntity
 8
Layer8
100
AcDbLine
 39
0.25
 370
106
 10
116.5462
 20
232.902683398437
 30
0.0
 11
119.1482
 21
232.895683398437
 31
0.0
 0
LINE
 5
308
100
AcDbEntity
 8
Layer8
100
AcDbLine
 39
0.25
 370
106
 10
119.1482
 20
232.895683398437
 30
0.0
 11
119.1472
 21
232.909683398437
 31
0.0
 0
ARC
 5
309
100
AcDbEntity
 8
Layer8
100
AcDbCircle
 39
0.25
 370
106
 10
108.725092442964
 20
243.31145555169
 30
0.0
 40
7.71661158240171
100
AcDbArc
 50
2.52700823468954
 51
57.4738035320924
 0
LINE
 5
30A
100
AcDbEntity
 8
Layer8
100
AcDbLine
 39
0.25
 370
106
 10
116.5462
 20
232.902683398437
 30
0.0
 11
116.4342
 21
243.651683398438
 31
0.0
 0
LINE
 5
30B
100
AcDbEntity
 8
Layer8
100
AcDbLine
 39
0.25
 370
106
 10
112.8742
 20
249.817683398437
 30
0.0
 11
103.6372
 21
255.261683398438
 31
0.0
 0
LINE
 5
30C
100
AcDbEntity
 8
Layer8
100
AcDbLine
 39
0.25
 370
106
 10
116.0282
 20
219.945683398438
 30
0.0
 11
116.04557037037
 21
219.953201916956
 31
0.0
 0
LINE
 5
30D
100
AcDbEntity
 8
Layer8
100
AcDbLine
 39
0.25
 370
106
 10
116.04557037037
 20
219.953201916956
 30
0.0
 11
116.064496296296
 21
219.961831546586
 31
0.0
 0
LINE
 5
30E
100
AcDbEntity
 8
Layer8
100
AcDbLine
 39
0.25
 370
106
 10
116.064496296296
 20
219.961831546586
 30
0.0
 11
116.0832
 21
219.968683398438
 31
0.0
 0
ARC
 5
30F
100
AcDbEntity
 8
Layer8
100
AcDbCircle
 39
0.25
 370
106
 10
106.267227039355
 20
223.064693033997
 30
0.0
 40
10.2471856743768
100
AcDbArc
 50
-17.720698418366
 51
-6.16243229262059
 0
LINE
 5
310
100
AcDbEntity
 8
Layer8
100
AcDbLine
 39
0.25
 370
106
 10
119.4162
 20
219.719683398438
 30
0.0
 11
119.44682962963
 21
219.706683398437
 31
0.0
 0
LINE
 5
311
100
AcDbEntity
 8
Layer8
100
AcDbLine
 39
0.25
 370
106
 10
119.44682962963
 20
219.706683398437
 30
0.0
 11
119.477237037037
 21
219.692350065104
 31
0.0
 0
LINE
 5
312
100
AcDbEntity
 8
Layer8
100
AcDbLine
 39
0.25
 370
106
 10
119.477237037037
 20
219.692350065104
 30
0.0
 11
119.5052
 21
219.680683398438
 31
0.0
 0
ARC
 5
313
100
AcDbEntity
 8
Layer8
100
AcDbCircle
 39
0.25
 370
106
 10
117.54653196638
 20
217.124669117111
 30
0.0
 40
3.19839923652694
100
AcDbArc
 50
117.227200059932
 51
54.2278278887866
 0
ARC
 5
314
100
AcDbEntity
 8
Layer8
100
AcDbCircle
 39
0.25
 370
106
 10
126.640326813702
 20
222.17110670892
 30
0.0
 40
7.55726424792762
100
AcDbArc
 50
179.654455938325
 51
-160.759122573945
 0
LINE
 5
315
100
AcDbEntity
 8
Layer8
100
AcDbLine
 39
0.25
 370
106
 10
116.5462
 20
232.902683398437
 30
0.0
 11
116.4552
 21
221.964683398438
 31
0.0
 0
LINE
 5
316
100
AcDbEntity
 8
Layer8
100
AcDbLine
 39
0.25
 370
106
 10
119.0832
 20
222.216683398437
 30
0.0
 11
119.1752
 21
232.909683398437
 31
0.0
 0
LINE
 5
317
100
AcDbEntity
 8
Layer8
100
AcDbLine
 39
0.25
 370
106
 10
119.1752
 20
232.909683398437
 30
0.0
 11
119.1472
 21
232.909683398437
 31
0.0
 0
LINE
 5
318
100
AcDbEntity
 8
Layer8
100
AcDbLine
 39
0.25
 370
106
 10
116.5462
 20
232.902683398437
 30
0.0
 11
116.5462
 21
232.918683398437
 31
0.0
 0
LINE
 5
319
100
AcDbEntity
 8
Layer8
100
AcDbLine
 39
0.25
 370
106
 10
116.5462
 20
232.918683398437
 30
0.0
 11
119.1472
 21
232.909683398437
 31
0.0
 0
LINE
 5
31A
100
AcDbEntity
 8
Layer8
100
AcDbLine
 39
0.25
 370
106
 10
92.2194
 20
297.383883398437
 30
0.0
 11
92.2384
 21
297.372290805845
 31
0.0
 0
LINE
 5
31B
100
AcDbEntity
 8
Layer8
100
AcDbLine
 39
0.25
 370
106
 10
92.2384
 20
297.372290805845
 30
0.0
 11
92.2567333333333
 21
297.359142657697
 31
0.0
 0
LINE
 5
31C
100
AcDbEntity
 8
Layer8
100
AcDbLine
 39
0.25
 370
106
 10
92.2567333333333
 20
297.359142657697
 30
0.0
 11
92.2704
 21
297.346883398438
 31
0.0
 0
ARC
 5
31D
100
AcDbEntity
 8
Layer8
100
AcDbCircle
 39
0.25
 370
106
 10
89.9801778349603
 20
307.574087504744
 30
0.0
 40
10.4333300356398
100
AcDbArc
 50
-77.606648137812
 51
-66.2426019646707
 0
LINE
 5
31E
100
AcDbEntity
 8
Layer8
100
AcDbLine
 39
0.25
 370
106
 10
93.7204
 20
294.340883398437
 30
0.0
 11
93.7241407407408
 21
294.303327842882
 31
0.0
 0
LINE
 5
31F
100
AcDbEntity
 8
Layer8
100
AcDbLine
 39
0.25
 370
106
 10
93.7241407407408
 20
294.303327842882
 30
0.0
 11
93.7269925925926
 21
294.26910562066
 31
0.0
 0
LINE
 5
320
100
AcDbEntity
 8
Layer8
100
AcDbLine
 39
0.25
 370
106
 10
93.7269925925926
 20
294.26910562066
 30
0.0
 11
93.7314
 21
294.238883398438
 31
0.0
 0
ARC
 5
321
100
AcDbEntity
 8
Layer8
100
AcDbCircle
 39
0.25
 370
106
 10
90.5417676449153
 20
294.660328203867
 30
0.0
 40
3.19464374109521
100
AcDbArc
 50
57.2412213163725
 51
-5.7388177459732
 0
ARC
 5
322
100
AcDbEntity
 8
Layer8
100
AcDbCircle
 39
0.25
 370
106
 10
99.3158400921493
 20
289.469711166256
 30
0.0
 40
7.34377116494153
100
AcDbArc
 50
119.349462388611
 51
139.502314860153
 0
LINE
 5
323
100
AcDbEntity
 8
Layer8
100
AcDbLine
 39
0.25
 370
106
 10
103.7044
 20
303.411883398438
 30
0.0
 11
94.1834
 21
298.024883398438
 31
0.0
 0
LINE
 5
324
100
AcDbEntity
 8
Layer8
100
AcDbLine
 39
0.25
 370
106
 10
95.7164
 20
295.870883398438
 30
0.0
 11
105.0134
 21
301.164883398438
 31
0.0
 0
LINE
 5
325
100
AcDbEntity
 8
Layer8
100
AcDbLine
 39
0.25
 370
106
 10
104.95
 20
257.531383398438
 30
0.0
 11
103.637
 21
255.261383398437
 31
0.0
 0
ARC
 5
326
100
AcDbEntity
 8
Layer8
100
AcDbCircle
 39
0.25
 370
106
 10
117.526701660971
 20
258.626314886671
 30
0.0
 40
7.33319945814513
100
AcDbArc
 50
-119.093806230841
 51
-61.9684068324949
 0
LINE
 5
327
100
AcDbEntity
 8
Layer8
100
AcDbLine
 39
0.25
 370
106
 10
104.95
 20
257.531383398438
 30
0.0
 11
113.961
 21
252.218383398438
 31
0.0
 0
LINE
 5
328
100
AcDbEntity
 8
Layer8
100
AcDbLine
 39
0.25
 370
106
 10
120.973
 20
252.153383398438
 30
0.0
 11
129.482
 21
256.810383398438
 31
0.0
 0
LINE
 5
329
100
AcDbEntity
 8
Layer8
100
AcDbLine
 39
0.25
 370
106
 10
225.6094
 20
233.030783398438
 30
0.0
 11
225.6094
 21
233.048783398438
 31
0.0
 0
LINE
 5
32A
100
AcDbEntity
 8
Layer8
100
AcDbLine
 39
0.25
 370
106
 10
225.6094
 20
233.048783398438
 30
0.0
 11
223.0064
 21
233.037783398438
 31
0.0
 0
LINE
 5
32B
100
AcDbEntity
 8
Layer8
100
AcDbLine
 39
0.25
 370
106
 10
144.9714
 20
204.972483398437
 30
0.0
 11
144.996696296296
 21
204.959150065104
 31
0.0
 0
LINE
 5
32C
100
AcDbEntity
 8
Layer8
100
AcDbLine
 39
0.25
 370
106
 10
144.996696296296
 20
204.959150065104
 30
0.0
 11
145.025103703704
 21
204.940483398437
 31
0.0
 0
LINE
 5
32D
100
AcDbEntity
 8
Layer8
100
AcDbLine
 39
0.25
 370
106
 10
145.025103703704
 20
204.940483398437
 30
0.0
 11
145.0544
 21
204.918483398438
 31
0.0
 0
ARC
 5
32E
100
AcDbEntity
 8
Layer8
100
AcDbCircle
 39
0.25
 370
106
 10
143.805049107088
 20
211.706196764919
 30
0.0
 40
6.8339790830325
100
AcDbArc
 50
-80.1732601878123
 51
-58.4645295013406
 0
LINE
 5
32F
100
AcDbEntity
 8
Layer8
100
AcDbLine
 39
0.25
 370
106
 10
146.9354
 20
202.159483398437
 30
0.0
 11
146.937214814815
 21
202.137853768808
 31
0.0
 0
LINE
 5
330
100
AcDbEntity
 8
Layer8
100
AcDbLine
 39
0.25
 370
106
 10
146.937214814815
 20
202.137853768808
 30
0.0
 11
146.940585185185
 21
202.117779694734
 31
0.0
 0
LINE
 5
331
100
AcDbEntity
 8
Layer8
100
AcDbLine
 39
0.25
 370
106
 10
146.940585185185
 20
202.117779694734
 30
0.0
 11
146.9424
 21
202.097483398437
 31
0.0
 0
ARC
 5
332
100
AcDbEntity
 8
Layer8
100
AcDbCircle
 39
0.25
 370
106
 10
143.777341430608
 20
202.027121249461
 30
0.0
 40
3.16083116698611
100
AcDbArc
 50
66.1698825028914
 51
2.40000503517026
 0
ARC
 5
333
100
AcDbEntity
 8
Layer8
100
AcDbCircle
 39
0.25
 370
106
 10
151.905830729568
 20
198.110009087394
 30
0.0
 40
6.36675710141759
100
AcDbArc
 50
122.570180463658
 51
141.222628492553
 0
LINE
 5
334
100
AcDbEntity
 8
Layer8
100
AcDbLine
 39
0.25
 370
106
 10
156.6074
 20
211.285483398437
 30
0.0
 11
147.3794
 21
205.881483398437
 31
0.0
 0
LINE
 5
335
100
AcDbEntity
 8
Layer8
100
AcDbLine
 39
0.25
 370
106
 10
148.4784
 20
203.475483398438
 30
0.0
 11
157.9054
 21
209.026483398438
 31
0.0
 0
ARC
 5
336
100
AcDbEntity
 8
Layer8
100
AcDbCircle
 39
0.25
 370
106
 10
170.8284
 20
207.479747269067
 30
0.0
 40
7.69783207183106
100
AcDbArc
 50
62.4577276707105
 51
117.5422723293
 0
LINE
 5
337
100
AcDbEntity
 8
Layer8
100
AcDbLine
 39
0.25
 370
106
 10
183.7239
 20
209.020183398438
 30
0.0
 11
174.3879
 21
214.305183398438
 31
0.0
 0
LINE
 5
338
100
AcDbEntity
 8
Layer8
100
AcDbLine
 39
0.25
 370
106
 10
167.2689
 20
214.305183398438
 30
0.0
 11
157.9059
 21
209.027183398438
 31
0.0
 0
ARC
 5
339
100
AcDbEntity
 8
Layer8
100
AcDbCircle
 39
0.25
 370
106
 10
126.439723993203
 20
243.249476214605
 30
0.0
 40
7.38359157903424
100
AcDbArc
 50
122.196177960746
 51
178.857614331136
 0
LINE
 5
33A
100
AcDbEntity
 8
Layer8
100
AcDbLine
 39
0.25
 370
106
 10
130.7966
 20
254.538683398438
 30
0.0
 11
122.5056
 21
249.497683398438
 31
0.0
 0
LINE
 5
33B
100
AcDbEntity
 8
Layer8
100
AcDbLine
 39
0.25
 370
106
 10
119.0576
 20
243.396683398438
 30
0.0
 11
119.1476
 21
232.909683398438
 31
0.0
 0
LINE
 5
33C
100
AcDbEntity
 8
Layer8
100
AcDbLine
 39
0.25
 370
106
 10
156.6074
 20
211.285483398437
 30
0.0
 11
157.9054
 21
209.026483398438
 31
0.0
 0
LINE
 5
33D
100
AcDbEntity
 8
Layer8
100
AcDbLine
 39
0.25
 370
106
 10
156.6074
 20
211.285483398437
 30
0.0
 11
157.9054
 21
209.026483398438
 31
0.0
 0
ARC
 5
33E
100
AcDbEntity
 8
Layer8
100
AcDbCircle
 39
0.25
 370
106
 10
143.707
 20
253.042147862294
 30
0.0
 40
7.66891973856963
100
AcDbArc
 50
62.3534544937369
 51
117.646545506274
 0
LINE
 5
33F
100
AcDbEntity
 8
Layer8
100
AcDbLine
 39
0.25
 370
106
 10
157.9175
 20
256.827483398437
 30
0.0
 11
156.6025
 21
254.552483398438
 31
0.0
 0
LINE
 5
340
100
AcDbEntity
 8
Layer8
100
AcDbLine
 39
0.25
 370
106
 10
156.6025
 20
254.552483398438
 30
0.0
 11
147.2655
 21
259.835483398437
 31
0.0
 0
LINE
 5
341
100
AcDbEntity
 8
Layer8
100
AcDbLine
 39
0.25
 370
106
 10
140.1485
 20
259.835483398437
 30
0.0
 11
130.7965
 21
254.538483398438
 31
0.0
 0
LINE
 5
342
100
AcDbEntity
 8
Layer8
100
AcDbLine
 39
0.25
 370
106
 10
129.4819
 20
256.809983398438
 30
0.0
 11
130.7969
 21
254.538983398437
 31
0.0
 0
ARC
 5
343
100
AcDbEntity
 8
Layer8
100
AcDbCircle
 39
0.25
 370
106
 10
134.861893311524
 20
268.260796963243
 30
0.0
 40
7.31906878686386
100
AcDbArc
 50
-59.1240553769034
 51
-1.90899602082261
 0
LINE
 5
344
100
AcDbEntity
 8
Layer8
100
AcDbLine
 39
0.25
 370
106
 10
129.4819
 20
256.809983398438
 30
0.0
 11
138.6179
 21
261.978983398437
 31
0.0
 0
CIRCLE
 5
345
100
AcDbEntity
 8
Layer8
100
AcDbCircle
 39
0.25
 370
106
 10
198.1841
 20
202.537683398437
 30
0.0
 40
2.32049999999998
 370
106
 0
LINE
 5
346
100
AcDbEntity
 8
Layer8
100
AcDbLine
 39
0.25
 370
106
 10
142.1769
 20
268.016983398438
 30
0.0
 11
142.1769
 21
279.647983398438
 31
0.0
 0
LINE
 5
347
100
AcDbEntity
 8
Layer8
100
AcDbLine
 39
0.25
 370
106
 10
142.1769
 20
279.647983398438
 30
0.0
 11
145.2429
 21
279.647983398438
 31
0.0
 0
LINE
 5
348
100
AcDbEntity
 8
Layer8
100
AcDbLine
 39
0.25
 370
106
 10
225.6094
 20
233.030783398438
 30
0.0
 11
223.0064
 21
233.027783398438
 31
0.0
 0
LINE
 5
349
100
AcDbEntity
 8
Layer8
100
AcDbLine
 39
0.25
 370
106
 10
223.0064
 20
233.027783398438
 30
0.0
 11
223.0064
 21
233.037783398438
 31
0.0
 0
LINE
 5
34A
100
AcDbEntity
 8
Layer8
100
AcDbLine
 39
0.25
 370
106
 10
196.5062
 20
353.565583398438
 30
0.0
 11
196.500385185185
 21
353.5715463614
 31
0.0
 0
LINE
 5
34B
100
AcDbEntity
 8
Layer8
100
AcDbLine
 39
0.25
 370
106
 10
196.500385185185
 20
353.5715463614
 30
0.0
 11
196.492348148148
 21
353.580620435475
 31
0.0
 0
LINE
 5
34C
100
AcDbEntity
 8
Layer8
100
AcDbLine
 39
0.25
 370
106
 10
196.492348148148
 20
353.580620435475
 30
0.0
 11
196.4872
 21
353.588583398437
 31
0.0
 0
ARC
 5
34D
100
AcDbEntity
 8
Layer8
100
AcDbCircle
 39
0.25
 370
106
 10
198.57138158605
 20
344.185659217854
 30
0.0
 40
9.60457977304897
100
AcDbArc
 50
102.4167302474
 51
114.612988158109
 0
ARC
 5
34E
100
AcDbEntity
 8
Layer8
100
AcDbCircle
 39
0.25
 370
106
 10
198.160634064695
 20
356.274979615027
 30
0.0
 40
3.16498123239137
100
AcDbArc
 50
-121.91997487477
 51
169.153085215714
 0
LINE
 5
34F
100
AcDbEntity
 8
Layer8
100
AcDbLine
 39
0.25
 370
106
 10
185.0332
 20
347.520583398438
 30
0.0
 11
194.5712
 21
352.917583398438
 31
0.0
 0
ARC
 5
350
100
AcDbEntity
 8
Layer8
100
AcDbCircle
 39
0.25
 370
106
 10
189.38671324008
 20
361.116966143196
 30
0.0
 40
7.07302887424578
100
AcDbArc
 50
-58.899700954175
 51
-36.7744250599461
 0
LINE
 5
351
100
AcDbEntity
 8
Layer8
100
AcDbLine
 39
0.25
 370
106
 10
195.0522
 20
356.870583398438
 30
0.0
 11
195.0522
 21
356.882583398438
 31
0.0
 0
LINE
 5
352
100
AcDbEntity
 8
Layer8
100
AcDbLine
 39
0.25
 370
106
 10
193.0402
 20
355.060583398438
 30
0.0
 11
183.7242
 21
349.791583398438
 31
0.0
 0
ARC
 5
353
100
AcDbEntity
 8
Layer8
100
AcDbCircle
 39
0.25
 370
106
 10
179.683533505718
 20
336.084398329399
 30
0.0
 40
7.32144011462128
100
AcDbArc
 50
120.886065135942
 51
178.080883466354
 0
LINE
 5
354
100
AcDbEntity
 8
Layer8
100
AcDbLine
 39
0.25
 370
106
 10
185.0332
 20
347.520583398438
 30
0.0
 11
175.9252
 21
342.367583398437
 31
0.0
 0
LINE
 5
355
100
AcDbEntity
 8
Layer8
100
AcDbLine
 39
0.25
 370
106
 10
172.3662
 20
336.329583398438
 30
0.0
 11
171.8782
 21
325.437583398437
 31
0.0
 0
ARC
 5
356
100
AcDbEntity
 8
Layer8
100
AcDbCircle
 39
0.25
 370
106
 10
197.683800000001
 20
304.57227000894
 30
0.0
 40
7.66224554695662
100
AcDbArc
 50
-117.660026765427
 51
-62.3399732345893
 0
LINE
 5
357
100
AcDbEntity
 8
Layer8
100
AcDbLine
 39
0.25
 370
106
 10
184.7698
 20
303.079683398438
 30
0.0
 11
194.1268
 21
297.785683398438
 31
0.0
 0
LINE
 5
358
100
AcDbEntity
 8
Layer8
100
AcDbLine
 39
0.25
 370
106
 10
222.4557
 20
338.595383398437
 30
0.0
 11
222.444551851852
 21
338.59697599103
 31
0.0
 0
LINE
 5
359
100
AcDbEntity
 8
Layer8
100
AcDbLine
 39
0.25
 370
106
 10
222.444551851852
 20
338.59697599103
 30
0.0
 11
222.436514814815
 21
338.600124139178
 31
0.0
 0
LINE
 5
35A
100
AcDbEntity
 8
Layer8
100
AcDbLine
 39
0.25
 370
106
 10
222.436514814815
 20
338.600124139178
 30
0.0
 11
222.4307
 21
338.602383398438
 31
0.0
 0
ARC
 5
35B
100
AcDbEntity
 8
Layer8
100
AcDbCircle
 39
0.25
 370
106
 10
223.937826139264
 20
341.464378587638
 30
0.0
 40
3.22921527438813
100
AcDbArc
 50
-49.7871750061552
 51
-117.320927143672
 0
ARC
 5
35C
100
AcDbEntity
 8
Layer8
100
AcDbCircle
 39
0.25
 370
106
 10
216.502578617135
 20
336.383304322318
 30
0.0
 40
6.32984479083267
100
AcDbArc
 50
1.96531741538109
 51
20.5224281919581
 0
LINE
 5
35D
100
AcDbEntity
 8
Layer8
100
AcDbLine
 39
0.25
 370
106
 10
201.2408
 20
297.785683398438
 30
0.0
 11
210.3688
 21
303.218683398438
 31
0.0
 0
LINE
 5
35E
100
AcDbEntity
 8
Layer8
100
AcDbLine
 39
0.25
 370
106
 10
222.8287
 20
336.600383398437
 30
0.0
 11
222.9287
 21
325.644383398438
 31
0.0
 0
ARC
 5
35F
100
AcDbEntity
 8
Layer8
100
AcDbCircle
 39
0.25
 370
106
 10
170.828599999999
 20
351.307714253347
 30
0.0
 40
7.66755321815075
100
AcDbArc
 50
-117.656112651299
 51
-62.343887348687
 0
LINE
 5
360
100
AcDbEntity
 8
Layer8
100
AcDbLine
 39
0.25
 370
106
 10
157.9046
 20
349.787183398437
 30
0.0
 11
167.2696
 21
344.516183398437
 31
0.0
 0
LINE
 5
361
100
AcDbEntity
 8
Layer8
100
AcDbLine
 39
0.25
 370
106
 10
174.3876
 20
344.516183398437
 30
0.0
 11
183.7236
 21
349.792183398437
 31
0.0
 0
LINE
 5
362
100
AcDbEntity
 8
Layer8
100
AcDbLine
 39
0.25
 370
106
 10
212.0698
 20
301.206883398438
 30
0.0
 11
210.3688
 21
303.217883398438
 31
0.0
 0
ARC
 5
363
100
AcDbEntity
 8
Layer8
100
AcDbCircle
 39
0.25
 370
106
 10
215.704266561709
 20
315.290743208473
 30
0.0
 40
7.31559942753054
100
AcDbArc
 50
-58.0825601781771
 51
-0.881603293080613
 0
LINE
 5
364
100
AcDbEntity
 8
Layer8
100
AcDbLine
 39
0.25
 370
106
 10
222.929
 20
325.644183398438
 30
0.0
 11
223.019
 21
315.178183398438
 31
0.0
 0
LINE
 5
365
100
AcDbEntity
 8
Layer8
100
AcDbLine
 39
0.25
 370
106
 10
219.572
 20
309.081183398438
 30
0.0
 11
210.369
 21
303.218183398438
 31
0.0
 0
LINE
 5
366
100
AcDbEntity
 8
Layer8
100
AcDbLine
 39
0.25
 370
106
 10
156.6082
 20
347.529583398438
 30
0.0
 11
157.9042
 21
349.787583398438
 31
0.0
 0
ARC
 5
367
100
AcDbEntity
 8
Layer8
100
AcDbCircle
 39
0.25
 370
106
 10
152.60446154974
 20
289.801598045432
 30
0.0
 40
7.36640721650525
100
AcDbArc
 50
121.05519854951
 51
177.817084238033
 0
LINE
 5
368
100
AcDbEntity
 8
Layer8
100
AcDbLine
 39
0.25
 370
106
 10
145.2434
 20
279.648183398437
 30
0.0
 11
145.2434
 21
290.082183398438
 31
0.0
 0
LINE
 5
369
100
AcDbEntity
 8
Layer8
100
AcDbLine
 39
0.25
 370
106
 10
148.8044
 20
296.112183398437
 30
0.0
 11
157.9174
 21
301.268183398437
 31
0.0
 0
ARC
 5
36A
100
AcDbEntity
 8
Layer8
100
AcDbCircle
 39
0.25
 370
106
 10
170.875627105416
 20
258.369185345532
 30
0.0
 40
7.32315664228837
100
AcDbArc
 50
-118.042659858734
 51
-60.8940656839423
 0
LINE
 5
36B
100
AcDbEntity
 8
Layer8
100
AcDbLine
 39
0.25
 370
106
 10
183.4588
 20
257.283783398437
 30
0.0
 11
174.4378
 21
251.970783398438
 31
0.0
 0
LINE
 5
36C
100
AcDbEntity
 8
Layer8
100
AcDbLine
 39
0.25
 370
106
 10
167.4328
 20
251.905783398438
 30
0.0
 11
157.9178
 21
256.827783398437
 31
0.0
 0
ARC
 5
36D
100
AcDbEntity
 8
Layer8
100
AcDbCircle
 39
0.25
 370
106
 10
143.707100000002
 20
305.055296784991
 30
0.0
 40
7.67058323850376
100
AcDbArc
 50
-117.640036899757
 51
-62.3599631002725
 0
LINE
 5
36E
100
AcDbEntity
 8
Layer8
100
AcDbLine
 39
0.25
 370
106
 10
130.7896
 20
303.557083398438
 30
0.0
 11
140.1486
 21
298.260083398437
 31
0.0
 0
LINE
 5
36F
100
AcDbEntity
 8
Layer8
100
AcDbLine
 39
0.25
 370
106
 10
147.2656
 20
298.260083398437
 30
0.0
 11
156.6026
 21
303.538083398437
 31
0.0
 0
ARC
 5
370
100
AcDbEntity
 8
Layer8
100
AcDbCircle
 39
0.25
 370
106
 10
161.913463087021
 20
336.043587587568
 30
0.0
 40
7.39029609912367
100
AcDbArc
 50
2.2224886235301
 51
58.832950860619
 0
LINE
 5
371
100
AcDbEntity
 8
Layer8
100
AcDbLine
 39
0.25
 370
106
 10
169.2612
 20
325.437183398438
 30
0.0
 11
169.2982
 21
336.330183398438
 31
0.0
 0
LINE
 5
372
100
AcDbEntity
 8
Layer8
100
AcDbLine
 39
0.25
 370
106
 10
165.7382
 20
342.367183398438
 30
0.0
 11
156.6082
 21
347.529183398438
 31
0.0
 0
ARC
 5
373
100
AcDbEntity
 8
Layer8
100
AcDbCircle
 39
0.25
 370
106
 10
233.331562239625
 20
315.249037886446
 30
0.0
 40
7.69608289309031
100
AcDbArc
 50
-177.552489571838
 51
-122.446698661387
 0
LINE
 5
374
100
AcDbEntity
 8
Layer8
100
AcDbLine
 39
0.25
 370
106
 10
238.4505
 20
303.282383398438
 30
0.0
 11
229.2025
 21
308.754383398437
 31
0.0
 0
LINE
 5
375
100
AcDbEntity
 8
Layer8
100
AcDbLine
 39
0.25
 370
106
 10
225.6425
 20
314.920383398437
 30
0.0
 11
225.5495
 21
325.647383398438
 31
0.0
 0
ARC
 5
376
100
AcDbEntity
 8
Layer8
100
AcDbCircle
 39
0.25
 370
106
 10
215.6971446932
 20
243.36046512828
 30
0.0
 40
7.41086700583907
100
AcDbArc
 50
1.30143420715185
 51
57.7462601154518
 0
LINE
 5
377
100
AcDbEntity
 8
Layer8
100
AcDbLine
 39
0.25
 370
106
 10
185.0332
 20
347.520583398438
 30
0.0
 11
183.7242
 21
349.791583398438
 31
0.0
 0
LINE
 5
378
100
AcDbEntity
 8
Layer8
100
AcDbLine
 39
0.25
 370
106
 10
223.1061
 20
243.528783398438
 30
0.0
 11
223.0061
 21
233.037783398437
 31
0.0
 0
LINE
 5
379
100
AcDbEntity
 8
Layer8
100
AcDbLine
 39
0.25
 370
106
 10
210.6846
 20
254.963283398438
 30
0.0
 11
219.6526
 21
249.628283398437
 31
0.0
 0
LINE
 5
37A
100
AcDbEntity
 8
Layer8
100
AcDbLine
 39
0.25
 370
106
 10
226.1344
 20
220.072783398438
 30
0.0
 11
226.11602962963
 21
220.08137599103
 31
0.0
 0
LINE
 5
37B
100
AcDbEntity
 8
Layer8
100
AcDbLine
 39
0.25
 370
106
 10
226.11602962963
 20
220.08137599103
 30
0.0
 11
226.095437037037
 21
220.089524139178
 31
0.0
 0
LINE
 5
37C
100
AcDbEntity
 8
Layer8
100
AcDbLine
 39
0.25
 370
106
 10
226.095437037037
 20
220.089524139178
 30
0.0
 11
226.0764
 21
220.100783398438
 31
0.0
 0
ARC
 5
37D
100
AcDbEntity
 8
Layer8
100
AcDbCircle
 39
0.25
 370
106
 10
235.758640550178
 20
223.171231319321
 30
0.0
 40
10.1107064879814
100
AcDbArc
 50
-173.888356103062
 51
-162.154448854995
 0
LINE
 5
37E
100
AcDbEntity
 8
Layer8
100
AcDbLine
 39
0.25
 370
106
 10
222.7434
 20
219.849783398437
 30
0.0
 11
222.711177777778
 21
219.836227842882
 31
0.0
 0
LINE
 5
37F
100
AcDbEntity
 8
Layer8
100
AcDbLine
 39
0.25
 370
106
 10
222.711177777778
 20
219.836227842882
 30
0.0
 11
222.681622222222
 21
219.821338953993
 31
0.0
 0
LINE
 5
380
100
AcDbEntity
 8
Layer8
100
AcDbLine
 39
0.25
 370
106
 10
222.681622222222
 20
219.821338953993
 30
0.0
 11
222.6534
 21
219.807783398437
 31
0.0
 0
ARC
 5
381
100
AcDbEntity
 8
Layer8
100
AcDbCircle
 39
0.25
 370
106
 10
224.61439227206
 20
217.259854144363
 30
0.0
 40
3.19505017538327
100
AcDbArc
 50
125.844744573257
 51
62.7686045894201
 0
ARC
 5
382
100
AcDbEntity
 8
Layer8
100
AcDbCircle
 39
0.25
 370
106
 10
215.537250105612
 20
222.292118152393
 30
0.0
 40
7.53734094287298
100
AcDbArc
 50
-19.2447177590477
 51
0.407944672701552
 0
LINE
 5
383
100
AcDbEntity
 8
Layer8
100
AcDbLine
 39
0.25
 370
106
 10
225.6094
 20
233.030783398438
 30
0.0
 11
225.7054
 21
222.094783398437
 31
0.0
 0
LINE
 5
384
100
AcDbEntity
 8
Layer8
100
AcDbLine
 39
0.25
 370
106
 10
223.0744
 20
222.345783398438
 30
0.0
 11
222.9874
 21
233.037783398438
 31
0.0
 0
LINE
 5
385
100
AcDbEntity
 8
Layer8
100
AcDbLine
 39
0.25
 370
106
 10
222.9874
 20
233.037783398438
 30
0.0
 11
223.0064
 21
233.037783398438
 31
0.0
 0
CIRCLE
 5
386
100
AcDbEntity
 8
Layer8
100
AcDbCircle
 39
0.25
 370
106
 10
224.60325
 20
217.278163085938
 30
0.0
 40
2.30349609375
 370
106
 0
CIRCLE
 5
387
100
AcDbEntity
 8
Layer8
100
AcDbCircle
 39
0.25
 370
106
 10
224.60191875
 20
217.276891210937
 30
0.0
 40
2.73603515625001
 370
106
 0
LINE
 5
388
100
AcDbEntity
 8
Layer8
100
AcDbLine
 39
0.25
 370
106
 10
210.6184
 20
254.844083398438
 30
0.0
 11
219.6524
 21
249.628083398438
 31
0.0
 0
LINE
 5
389
100
AcDbEntity
 8
Layer8
100
AcDbLine
 39
0.25
 370
106
 10
248.1857
 20
264.573383398438
 30
0.0
 11
248.185959259259
 21
264.564642657697
 31
0.0
 0
LINE
 5
38A
100
AcDbEntity
 8
Layer8
100
AcDbLine
 39
0.25
 370
106
 10
248.185959259259
 20
264.564642657697
 30
0.0
 11
248.187774074074
 21
264.552790805845
 31
0.0
 0
LINE
 5
38B
100
AcDbEntity
 8
Layer8
100
AcDbLine
 39
0.25
 370
106
 10
248.187774074074
 20
264.552790805845
 30
0.0
 11
248.1927
 21
264.541383398438
 31
0.0
 0
ARC
 5
38C
100
AcDbEntity
 8
Layer8
100
AcDbCircle
 39
0.25
 370
106
 10
241.074152933668
 20
271.096004108321
 30
0.0
 40
9.64980220531401
100
AcDbArc
 50
-54.6902850197411
 51
-42.5266526854507
 0
ARC
 5
38D
100
AcDbEntity
 8
Layer8
100
AcDbCircle
 39
0.25
 370
106
 10
251.351526717422
 20
264.646151510374
 30
0.0
 40
3.16056365035949
100
AcDbArc
 50
-108.977911258283
 51
-178.100379810817
 0
LINE
 5
38E
100
AcDbEntity
 8
Layer8
100
AcDbLine
 39
0.25
 370
106
 10
237.2127
 20
257.659383398438
 30
0.0
 11
246.6517
 21
263.221383398438
 31
0.0
 0
ARC
 5
38F
100
AcDbEntity
 8
Layer8
100
AcDbCircle
 39
0.25
 370
106
 10
251.149047891169
 20
254.761490168555
 30
0.0
 40
6.94059696098562
100
AcDbArc
 50
96.7214729158175
 51
119.36383655152
 0
LINE
 5
390
100
AcDbEntity
 8
Layer8
100
AcDbLine
 39
0.25
 370
106
 10
250.3237
 20
261.657383398438
 30
0.0
 11
250.3367
 21
261.654383398438
 31
0.0
 0
LINE
 5
391
100
AcDbEntity
 8
Layer8
100
AcDbLine
 39
0.25
 370
106
 10
247.7457
 20
260.810383398438
 30
0.0
 11
238.5277
 21
255.390383398438
 31
0.0
 0
CIRCLE
 5
392
100
AcDbEntity
 8
Layer8
100
AcDbCircle
 39
0.25
 370
106
 10
251.372025
 20
264.669809960937
 30
0.0
 40
2.30264453125
 370
106
 0
LINE
 5
393
100
AcDbEntity
 8
Layer8
100
AcDbLine
 39
0.25
 370
106
 10
211.8855
 20
257.125883398438
 30
0.0
 11
221.1895
 21
252.284883398438
 31
0.0
 0
LINE
 5
394
100
AcDbEntity
 8
Layer8
100
AcDbLine
 39
0.25
 370
106
 10
237.2127
 20
257.659383398438
 30
0.0
 11
238.5277
 21
255.390383398438
 31
0.0
 0
LINE
 5
395
100
AcDbEntity
 8
Layer8
100
AcDbLine
 39
0.25
 370
106
 10
248.432
 20
294.112883398437
 30
0.0
 11
248.432185185185
 21
294.141550065104
 31
0.0
 0
LINE
 5
396
100
AcDbEntity
 8
Layer8
100
AcDbLine
 39
0.25
 370
106
 10
248.432185185185
 20
294.141550065104
 30
0.0
 11
248.433481481481
 21
294.174216731771
 31
0.0
 0
LINE
 5
397
100
AcDbEntity
 8
Layer8
100
AcDbLine
 39
0.25
 370
106
 10
248.433481481481
 20
294.174216731771
 30
0.0
 11
248.437
 21
294.208883398437
 31
0.0
 0
ARC
 5
398
100
AcDbEntity
 8
Layer8
100
AcDbCircle
 39
0.25
 370
106
 10
243.238969054727
 20
289.791449956811
 30
0.0
 40
6.75591277245156
100
AcDbArc
 50
39.765878493537
 51
61.7179877658189
 0
LINE
 5
399
100
AcDbEntity
 8
Layer8
100
AcDbLine
 39
0.25
 370
106
 10
249.887
 20
297.218883398437
 30
0.0
 11
249.905148148148
 21
297.231957472512
 31
0.0
 0
LINE
 5
39A
100
AcDbEntity
 8
Layer8
100
AcDbLine
 39
0.25
 370
106
 10
249.905148148148
 20
297.231957472512
 30
0.0
 11
249.922185185185
 21
297.244142657697
 31
0.0
 0
LINE
 5
39B
100
AcDbEntity
 8
Layer8
100
AcDbLine
 39
0.25
 370
106
 10
249.922185185185
 20
297.244142657697
 30
0.0
 11
249.939
 21
297.253883398437
 31
0.0
 0
ARC
 5
39C
100
AcDbEntity
 8
Layer8
100
AcDbCircle
 39
0.25
 370
106
 10
251.573686971904
 20
294.552107282403
 30
0.0
 40
3.1554092910807
100
AcDbArc
 50
-173.755400733881
 51
122.312602329735
 0
ARC
 5
39D
100
AcDbEntity
 8
Layer8
100
AcDbCircle
 39
0.25
 370
106
 10
250.863851365416
 20
303.39973189249
 30
0.0
 40
6.2150465613676
100
AcDbArc
 50
-117.698296658588
 51
-98.5578800663159
 0
LINE
 5
39E
100
AcDbEntity
 8
Layer8
100
AcDbLine
 39
0.25
 370
106
 10
237.147
 20
301.032883398437
 30
0.0
 11
246.44
 21
295.740883398438
 31
0.0
 0
LINE
 5
39F
100
AcDbEntity
 8
Layer8
100
AcDbLine
 39
0.25
 370
106
 10
247.975
 20
297.896883398437
 30
0.0
 11
238.45
 21
303.282883398437
 31
0.0
 0
ARC
 5
3A0
100
AcDbEntity
 8
Layer8
100
AcDbCircle
 39
0.25
 370
106
 10
233.424986634306
 20
243.449693568413
 30
0.0
 40
7.70870009542906
100
AcDbArc
 50
122.532658045432
 51
177.538380413983
 0
LINE
 5
3A1
100
AcDbEntity
 8
Layer8
100
AcDbLine
 39
0.25
 370
106
 10
225.6094
 20
233.030783398438
 30
0.0
 11
225.7234
 21
243.780783398438
 31
0.0
 0
ARC
 5
3A2
100
AcDbEntity
 8
Layer8
100
AcDbCircle
 39
0.25
 370
106
 10
171.221593093216
 20
309.360986465156
 30
0.0
 40
8.38247191783477
100
AcDbArc
 50
-38.4492881587904
 51
-20.4182884204596
 0
ARC
 5
3A3
100
AcDbEntity
 8
Layer8
100
AcDbCircle
 39
0.25
 370
106
 10
171.262370111549
 20
309.348593514525
 30
0.0
 40
8.34284550934589
100
AcDbArc
 50
-145.420209315589
 51
-38.5567696690243
 0
LINE
 5
3A4
100
AcDbEntity
 8
Layer8
100
AcDbLine
 39
0.25
 370
106
 10
171.2624
 20
317.694083398438
 30
0.0
 11
171.491918518519
 21
317.689268583623
 31
0.0
 0
LINE
 5
3A5
100
AcDbEntity
 8
Layer8
100
AcDbLine
 39
0.25
 370
106
 10
171.491918518519
 20
317.689268583623
 30
0.0
 11
171.719214814815
 21
317.676898213252
 31
0.0
 0
LINE
 5
3A6
100
AcDbEntity
 8
Layer8
100
AcDbLine
 39
0.25
 370
106
 10
171.719214814815
 20
317.676898213252
 30
0.0
 11
171.9454
 21
317.660083398438
 31
0.0
 0
ARC
 5
3A7
100
AcDbEntity
 8
Layer8
100
AcDbCircle
 39
0.25
 370
106
 10
171.274271161443
 20
309.355479114682
 30
0.0
 40
8.33140362258597
100
AcDbArc
 50
-20.5071709294224
 51
85.3775132085812
 0
ARC
 5
3A8
100
AcDbEntity
 8
Layer8
100
AcDbCircle
 39
0.25
 370
106
 10
171.176630373856
 20
309.291797011399
 30
0.0
 40
8.24030189840847
100
AcDbArc
 50
-165.962704100391
 51
-145.404141319767
 0
ARC
 5
3A9
100
AcDbEntity
 8
Layer8
100
AcDbCircle
 39
0.25
 370
106
 10
171.250158578736
 20
309.35703904086
 30
0.0
 40
8.32758316552036
100
AcDbArc
 50
103.335353733142
 51
-165.64993191123
 0
CIRCLE
 5
3AA
100
AcDbEntity
 8
Layer8
100
AcDbCircle
 39
0.25
 370
106
 10
143.7174
 20
294.117483398437
 30
0.0
 40
0.933500000000009
 370
106
 0
CIRCLE
 5
3AB
100
AcDbEntity
 8
Layer8
100
AcDbCircle
 39
0.25
 370
106
 10
143.7182
 20
294.117183398438
 30
0.0
 40
0.838499999999982
 370
106
 0
CIRCLE
 5
3AC
100
AcDbEntity
 8
Layer8
100
AcDbCircle
 39
0.25
 370
106
 10
170.7671
 20
248.047083398438
 30
0.0
 40
0.933500000000009
 370
106
 0
CIRCLE
 5
3AD
100
AcDbEntity
 8
Layer8
100
AcDbCircle
 39
0.25
 370
106
 10
170.7669
 20
248.047083398438
 30
0.0
 40
0.83899999999997
 370
106
 0
CIRCLE
 5
3AE
100
AcDbEntity
 8
Layer8
100
AcDbCircle
 39
0.25
 370
106
 10
197.7327
 20
294.117483398437
 30
0.0
 40
0.933500000000009
 370
106
 0
CIRCLE
 5
3AF
100
AcDbEntity
 8
Layer8
100
AcDbCircle
 39
0.25
 370
106
 10
197.7334
 20
294.117183398438
 30
0.0
 40
0.838499999999982
 370
106
 0
LINE
 5
3B0
100
AcDbEntity
 8
Layer8
100
AcDbLine
 39
0.25
 370
106
 10
229.2794
 20
249.948783398438
 30
0.0
 11
238.5274
 21
255.389783398438
 31
0.0
 0
LINE
 5
3B1
100
AcDbEntity
 8
Layer8
100
AcDbLine
 39
0.25
 370
106
 10
90.1107
 20
170.005283398438
 30
0.0
 11
90.1107
 21
163.420283398438
 31
0.0
 0
LINE
 5
3B2
100
AcDbEntity
 8
Layer8
100
AcDbLine
 39
0.25
 370
106
 10
254.7811
 20
170.005283398438
 30
0.0
 11
254.7811
 21
163.420283398438
 31
0.0
 0
LINE
 5
3B3
100
AcDbEntity
 8
Layer8
100
AcDbLine
 39
0.25
 370
106
 10
31.8739
 20
197.072683398438
 30
0.0
 11
38.4589
 21
197.072683398438
 31
0.0
 0
LWPOLYLINE
 5
3B4
100
AcDbEntity
 8
Layer8
100
AcDbPolyline
 39
0.25
 370
106
 90
5              
 70
 1
 43
0.0
 10
201.03
 20
426.502983398437
 10
195.831
 20
426.502983398437
 10
195.831
 20
435.292983398438
 10
201.03
 20
435.292983398438
 10
201.03
 20
426.502983398437
 0
LWPOLYLINE
 5
3B5
100
AcDbEntity
 8
Layer8
100
AcDbPolyline
 39
0.25
 370
106
 90
5              
 70
 1
 43
0.0
 10
201.03
 20
426.502983398437
 10
195.831
 20
426.502983398437
 10
195.831
 20
435.292983398438
 10
201.03
 20
435.292983398438
 10
201.03
 20
426.502983398437
 0
LWPOLYLINE
 5
3B6
100
AcDbEntity
 8
Layer8
100
AcDbPolyline
 39
0.25
 370
106
 90
5              
 70
 1
 43
0.0
 10
201.095
 20
413.854983398438
 10
195.768
 20
413.854983398438
 10
195.768
 20
422.711983398438
 10
201.095
 20
422.711983398438
 10
201.095
 20
413.854983398438
 0
LWPOLYLINE
 5
3B7
100
AcDbEntity
 8
Layer8
100
AcDbPolyline
 39
0.25
 370
106
 90
5              
 70
 1
 43
0.0
 10
201.095
 20
413.854983398438
 10
195.768
 20
413.854983398438
 10
195.768
 20
422.711983398438
 10
201.095
 20
422.711983398438
 10
201.095
 20
413.854983398438
 0
LWPOLYLINE
 5
3B8
100
AcDbEntity
 8
Layer8
100
AcDbPolyline
 39
0.25
 370
106
 90
5              
 70
 1
 43
0.0
 10
146.342
 20
426.502983398437
 10
141.131
 20
426.502983398437
 10
141.131
 20
435.292983398438
 10
146.342
 20
435.292983398438
 10
146.342
 20
426.502983398437
 0
LWPOLYLINE
 5
3B9
100
AcDbEntity
 8
Layer8
100
AcDbPolyline
 39
0.25
 370
106
 90
5              
 70
 1
 43
0.0
 10
146.342
 20
426.502983398437
 10
141.131
 20
426.502983398437
 10
141.131
 20
435.292983398438
 10
146.342
 20
435.292983398438
 10
146.342
 20
426.502983398437
 0
LWPOLYLINE
 5
3BA
100
AcDbEntity
 8
Layer8
100
AcDbPolyline
 39
0.25
 370
106
 90
5              
 70
 1
 43
0.0
 10
146.393
 20
413.854983398438
 10
141.066
 20
413.854983398438
 10
141.066
 20
422.711983398438
 10
146.393
 20
422.711983398438
 10
146.393
 20
413.854983398438
 0
LWPOLYLINE
 5
3BB
100
AcDbEntity
 8
Layer8
100
AcDbPolyline
 39
0.25
 370
106
 90
5              
 70
 1
 43
0.0
 10
146.393
 20
413.854983398438
 10
141.066
 20
413.854983398438
 10
141.066
 20
422.711983398438
 10
146.393
 20
422.711983398438
 10
146.393
 20
413.854983398438
 0
LINE
 5
3BC
100
AcDbEntity
 8
Layer8
100
AcDbLine
 39
0.25
 370
106
 10
31.8739
 20
361.743083398437
 30
0.0
 11
38.4589
 21
361.743083398437
 31
0.0
 0
LINE
 5
3BD
100
AcDbEntity
 8
Layer8
100
AcDbLine
 39
0.25
 370
106
 10
197.4553
 20
413.831883398438
 30
0.0
 11
199.4053
 21
413.831883398438
 31
0.0
 0
LINE
 5
3BE
100
AcDbEntity
 8
Layer8
100
AcDbLine
 39
0.25
 370
106
 10
197.4553
 20
413.831883398438
 30
0.0
 11
199.4053
 21
413.831883398438
 31
0.0
 0
LINE
 5
3BF
100
AcDbEntity
 8
Layer8
100
AcDbLine
 39
0.25
 370
106
 10
142.7545
 20
413.831883398438
 30
0.0
 11
144.7045
 21
413.831883398438
 31
0.0
 0
LINE
 5
3C0
100
AcDbEntity
 8
Layer8
100
AcDbLine
 39
0.25
 370
106
 10
142.7545
 20
413.831883398438
 30
0.0
 11
144.7045
 21
413.831883398438
 31
0.0
 0
LINE
 5
3C1
100
AcDbEntity
 8
Layer8
100
AcDbLine
 39
0.25
 370
106
 10
113.975
 20
423.322983398437
 30
0.0
 11
93.721
 21
423.322983398437
 31
0.0
 0
LINE
 5
3C2
100
AcDbEntity
 8
Layer8
100
AcDbLine
 39
0.25
 370
106
 10
93.721
 20
423.322983398437
 30
0.0
 11
93.898
 21
424.575983398437
 31
0.0
 0
LINE
 5
3C3
100
AcDbEntity
 8
Layer8
100
AcDbLine
 39
0.25
 370
106
 10
93.898
 20
424.575983398437
 30
0.0
 11
93.721
 21
425.898983398437
 31
0.0
 0
LINE
 5
3C4
100
AcDbEntity
 8
Layer8
100
AcDbLine
 39
0.25
 370
106
 10
93.721
 20
425.898983398437
 30
0.0
 11
113.975
 21
425.898983398437
 31
0.0
 0
LINE
 5
3C5
100
AcDbEntity
 8
Layer8
100
AcDbLine
 39
0.25
 370
106
 10
113.975
 20
425.898983398437
 30
0.0
 11
113.798
 21
424.575983398437
 31
0.0
 0
LINE
 5
3C6
100
AcDbEntity
 8
Layer8
100
AcDbLine
 39
0.25
 370
106
 10
113.798
 20
424.575983398437
 30
0.0
 11
113.975
 21
423.322983398437
 31
0.0
 0
LINE
 5
3C7
100
AcDbEntity
 8
Layer8
100
AcDbLine
 39
0.25
 370
106
 10
113.9919
 20
423.322983398437
 30
0.0
 11
93.7039
 21
423.322983398437
 31
0.0
 0
LINE
 5
3C8
100
AcDbEntity
 8
Layer8
100
AcDbLine
 39
0.25
 370
106
 10
93.7039
 20
423.322983398437
 30
0.0
 11
93.8829
 21
424.575983398437
 31
0.0
 0
LINE
 5
3C9
100
AcDbEntity
 8
Layer8
100
AcDbLine
 39
0.25
 370
106
 10
93.8829
 20
424.575983398437
 30
0.0
 11
93.7039
 21
425.898983398437
 31
0.0
 0
LINE
 5
3CA
100
AcDbEntity
 8
Layer8
100
AcDbLine
 39
0.25
 370
106
 10
93.7039
 20
425.898983398437
 30
0.0
 11
113.9919
 21
425.898983398437
 31
0.0
 0
LINE
 5
3CB
100
AcDbEntity
 8
Layer8
100
AcDbLine
 39
0.25
 370
106
 10
113.9919
 20
425.898983398437
 30
0.0
 11
113.8129
 21
424.575983398437
 31
0.0
 0
LINE
 5
3CC
100
AcDbEntity
 8
Layer8
100
AcDbLine
 39
0.25
 370
106
 10
113.8129
 20
424.575983398437
 30
0.0
 11
113.9919
 21
423.322983398437
 31
0.0
 0
LINE
 5
3CD
100
AcDbEntity
 8
Layer8
100
AcDbLine
 39
0.25
 370
106
 10
140.6029
 20
424.667483398438
 30
0.0
 11
140.8029
 21
426.082483398438
 31
0.0
 0
LINE
 5
3CE
100
AcDbEntity
 8
Layer8
100
AcDbLine
 39
0.25
 370
106
 10
140.8029
 20
426.082483398438
 30
0.0
 11
141.1269
 21
426.313483398438
 31
0.0
 0
LINE
 5
3CF
100
AcDbEntity
 8
Layer8
100
AcDbLine
 39
0.25
 370
106
 10
141.1269
 20
426.313483398438
 30
0.0
 11
146.3449
 21
426.313483398438
 31
0.0
 0
LINE
 5
3D0
100
AcDbEntity
 8
Layer8
100
AcDbLine
 39
0.25
 370
106
 10
146.3449
 20
426.313483398438
 30
0.0
 11
146.6699
 21
426.082483398438
 31
0.0
 0
LINE
 5
3D1
100
AcDbEntity
 8
Layer8
100
AcDbLine
 39
0.25
 370
106
 10
146.6699
 20
426.082483398438
 30
0.0
 11
146.8579
 21
424.667483398438
 31
0.0
 0
LINE
 5
3D2
100
AcDbEntity
 8
Layer8
100
AcDbLine
 39
0.25
 370
106
 10
146.8579
 20
424.667483398438
 30
0.0
 11
140.6029
 21
424.667483398438
 31
0.0
 0
LINE
 5
3D3
100
AcDbEntity
 8
Layer8
100
AcDbLine
 39
0.25
 370
106
 10
140.5863
 20
424.667483398438
 30
0.0
 11
140.7883
 21
426.082483398438
 31
0.0
 0
LINE
 5
3D4
100
AcDbEntity
 8
Layer8
100
AcDbLine
 39
0.25
 370
106
 10
140.7883
 20
426.082483398438
 30
0.0
 11
141.1143
 21
426.313483398438
 31
0.0
 0
LINE
 5
3D5
100
AcDbEntity
 8
Layer8
100
AcDbLine
 39
0.25
 370
106
 10
141.1143
 20
426.313483398438
 30
0.0
 11
146.3573
 21
426.313483398438
 31
0.0
 0
LINE
 5
3D6
100
AcDbEntity
 8
Layer8
100
AcDbLine
 39
0.25
 370
106
 10
146.3573
 20
426.313483398438
 30
0.0
 11
146.6833
 21
426.082483398438
 31
0.0
 0
LINE
 5
3D7
100
AcDbEntity
 8
Layer8
100
AcDbLine
 39
0.25
 370
106
 10
146.6833
 20
426.082483398438
 30
0.0
 11
146.8733
 21
424.667483398438
 31
0.0
 0
LINE
 5
3D8
100
AcDbEntity
 8
Layer8
100
AcDbLine
 39
0.25
 370
106
 10
146.8733
 20
424.667483398438
 30
0.0
 11
140.5863
 21
424.667483398438
 31
0.0
 0
LINE
 5
3D9
100
AcDbEntity
 8
Layer8
100
AcDbLine
 39
0.25
 370
106
 10
146.6972
 20
423.278183398437
 30
0.0
 11
146.6682
 21
423.070183398438
 31
0.0
 0
LINE
 5
3DA
100
AcDbEntity
 8
Layer8
100
AcDbLine
 39
0.25
 370
106
 10
146.6682
 20
423.070183398438
 30
0.0
 11
146.4072
 21
422.898183398437
 31
0.0
 0
LINE
 5
3DB
100
AcDbEntity
 8
Layer8
100
AcDbLine
 39
0.25
 370
106
 10
146.4072
 20
422.898183398437
 30
0.0
 11
141.0662
 21
422.898183398437
 31
0.0
 0
LINE
 5
3DC
100
AcDbEntity
 8
Layer8
100
AcDbLine
 39
0.25
 370
106
 10
141.0662
 20
422.898183398437
 30
0.0
 11
140.8042
 21
423.070183398438
 31
0.0
 0
LINE
 5
3DD
100
AcDbEntity
 8
Layer8
100
AcDbLine
 39
0.25
 370
106
 10
140.8042
 20
423.070183398438
 30
0.0
 11
140.6032
 21
424.479183398438
 31
0.0
 0
LINE
 5
3DE
100
AcDbEntity
 8
Layer8
100
AcDbLine
 39
0.25
 370
106
 10
140.6032
 20
424.479183398438
 30
0.0
 11
146.8582
 21
424.479183398438
 31
0.0
 0
LINE
 5
3DF
100
AcDbEntity
 8
Layer8
100
AcDbLine
 39
0.25
 370
106
 10
146.8582
 20
424.479183398438
 30
0.0
 11
146.6972
 21
423.278183398437
 31
0.0
 0
LINE
 5
3E0
100
AcDbEntity
 8
Layer8
100
AcDbLine
 39
0.25
 370
106
 10
146.7103
 20
423.278183398437
 30
0.0
 11
146.6833
 21
423.070183398438
 31
0.0
 0
LINE
 5
3E1
100
AcDbEntity
 8
Layer8
100
AcDbLine
 39
0.25
 370
106
 10
146.6833
 20
423.070183398438
 30
0.0
 11
146.4183
 21
422.898183398437
 31
0.0
 0
LINE
 5
3E2
100
AcDbEntity
 8
Layer8
100
AcDbLine
 39
0.25
 370
106
 10
146.4183
 20
422.898183398437
 30
0.0
 11
141.0533
 21
422.898183398437
 31
0.0
 0
LINE
 5
3E3
100
AcDbEntity
 8
Layer8
100
AcDbLine
 39
0.25
 370
106
 10
141.0533
 20
422.898183398437
 30
0.0
 11
140.7883
 21
423.070183398438
 31
0.0
 0
LINE
 5
3E4
100
AcDbEntity
 8
Layer8
100
AcDbLine
 39
0.25
 370
106
 10
140.7883
 20
423.070183398438
 30
0.0
 11
140.5863
 21
424.479183398438
 31
0.0
 0
LINE
 5
3E5
100
AcDbEntity
 8
Layer8
100
AcDbLine
 39
0.25
 370
106
 10
140.5863
 20
424.479183398438
 30
0.0
 11
146.8733
 21
424.479183398438
 31
0.0
 0
LINE
 5
3E6
100
AcDbEntity
 8
Layer8
100
AcDbLine
 39
0.25
 370
106
 10
146.8733
 20
424.479183398438
 30
0.0
 11
146.7103
 21
423.278183398437
 31
0.0
 0
LINE
 5
3E7
100
AcDbEntity
 8
Layer8
100
AcDbLine
 39
0.25
 370
106
 10
140.5658
 20
423.322983398437
 30
0.0
 11
120.3198
 21
423.322983398437
 31
0.0
 0
LINE
 5
3E8
100
AcDbEntity
 8
Layer8
100
AcDbLine
 39
0.25
 370
106
 10
120.3198
 20
423.322983398437
 30
0.0
 11
120.4868
 21
424.575983398437
 31
0.0
 0
LINE
 5
3E9
100
AcDbEntity
 8
Layer8
100
AcDbLine
 39
0.25
 370
106
 10
120.4868
 20
424.575983398437
 30
0.0
 11
120.3058
 21
425.898983398437
 31
0.0
 0
LINE
 5
3EA
100
AcDbEntity
 8
Layer8
100
AcDbLine
 39
0.25
 370
106
 10
120.3058
 20
425.898983398437
 30
0.0
 11
140.5658
 21
425.898983398437
 31
0.0
 0
LINE
 5
3EB
100
AcDbEntity
 8
Layer8
100
AcDbLine
 39
0.25
 370
106
 10
140.5658
 20
425.898983398437
 30
0.0
 11
140.3848
 21
424.575983398437
 31
0.0
 0
LINE
 5
3EC
100
AcDbEntity
 8
Layer8
100
AcDbLine
 39
0.25
 370
106
 10
140.3848
 20
424.575983398437
 30
0.0
 11
140.5658
 21
423.322983398437
 31
0.0
 0
LINE
 5
3ED
100
AcDbEntity
 8
Layer8
100
AcDbLine
 39
0.25
 370
106
 10
140.5813
 20
423.322983398437
 30
0.0
 11
120.3053
 21
423.322983398437
 31
0.0
 0
LINE
 5
3EE
100
AcDbEntity
 8
Layer8
100
AcDbLine
 39
0.25
 370
106
 10
120.3053
 20
423.322983398437
 30
0.0
 11
120.4723
 21
424.575983398437
 31
0.0
 0
LINE
 5
3EF
100
AcDbEntity
 8
Layer8
100
AcDbLine
 39
0.25
 370
106
 10
120.4723
 20
424.575983398437
 30
0.0
 11
120.2913
 21
425.898983398437
 31
0.0
 0
LINE
 5
3F0
100
AcDbEntity
 8
Layer8
100
AcDbLine
 39
0.25
 370
106
 10
120.2913
 20
425.898983398437
 30
0.0
 11
140.5813
 21
425.898983398437
 31
0.0
 0
LINE
 5
3F1
100
AcDbEntity
 8
Layer8
100
AcDbLine
 39
0.25
 370
106
 10
140.5813
 20
425.898983398437
 30
0.0
 11
140.4003
 21
424.575983398437
 31
0.0
 0
LINE
 5
3F2
100
AcDbEntity
 8
Layer8
100
AcDbLine
 39
0.25
 370
106
 10
140.4003
 20
424.575983398437
 30
0.0
 11
140.5813
 21
423.322983398437
 31
0.0
 0
LINE
 5
3F3
100
AcDbEntity
 8
Layer8
100
AcDbLine
 39
0.25
 370
106
 10
195.3047
 20
424.667483398438
 30
0.0
 11
195.5037
 21
426.082483398438
 31
0.0
 0
LINE
 5
3F4
100
AcDbEntity
 8
Layer8
100
AcDbLine
 39
0.25
 370
106
 10
195.5037
 20
426.082483398438
 30
0.0
 11
195.8277
 21
426.313483398438
 31
0.0
 0
LINE
 5
3F5
100
AcDbEntity
 8
Layer8
100
AcDbLine
 39
0.25
 370
106
 10
195.8277
 20
426.313483398438
 30
0.0
 11
201.0457
 21
426.313483398438
 31
0.0
 0
LINE
 5
3F6
100
AcDbEntity
 8
Layer8
100
AcDbLine
 39
0.25
 370
106
 10
201.0457
 20
426.313483398438
 30
0.0
 11
201.3727
 21
426.082483398438
 31
0.0
 0
LINE
 5
3F7
100
AcDbEntity
 8
Layer8
100
AcDbLine
 39
0.25
 370
106
 10
201.3727
 20
426.082483398438
 30
0.0
 11
201.5587
 21
424.667483398438
 31
0.0
 0
LINE
 5
3F8
100
AcDbEntity
 8
Layer8
100
AcDbLine
 39
0.25
 370
106
 10
201.5587
 20
424.667483398438
 30
0.0
 11
195.3047
 21
424.667483398438
 31
0.0
 0
LINE
 5
3F9
100
AcDbEntity
 8
Layer8
100
AcDbLine
 39
0.25
 370
106
 10
195.2898
 20
424.667483398438
 30
0.0
 11
195.4888
 21
426.082483398438
 31
0.0
 0
LINE
 5
3FA
100
AcDbEntity
 8
Layer8
100
AcDbLine
 39
0.25
 370
106
 10
195.4888
 20
426.082483398438
 30
0.0
 11
195.8148
 21
426.313483398438
 31
0.0
 0
LINE
 5
3FB
100
AcDbEntity
 8
Layer8
100
AcDbLine
 39
0.25
 370
106
 10
195.8148
 20
426.313483398438
 30
0.0
 11
201.0578
 21
426.313483398438
 31
0.0
 0
LINE
 5
3FC
100
AcDbEntity
 8
Layer8
100
AcDbLine
 39
0.25
 370
106
 10
201.0578
 20
426.313483398438
 30
0.0
 11
201.3878
 21
426.082483398438
 31
0.0
 0
LINE
 5
3FD
100
AcDbEntity
 8
Layer8
100
AcDbLine
 39
0.25
 370
106
 10
201.3878
 20
426.082483398438
 30
0.0
 11
201.5738
 21
424.667483398438
 31
0.0
 0
LINE
 5
3FE
100
AcDbEntity
 8
Layer8
100
AcDbLine
 39
0.25
 370
106
 10
201.5738
 20
424.667483398438
 30
0.0
 11
195.2898
 21
424.667483398438
 31
0.0
 0
LINE
 5
3FF
100
AcDbEntity
 8
Layer8
100
AcDbLine
 39
0.25
 370
106
 10
201.3977
 20
423.278183398437
 30
0.0
 11
201.3727
 21
423.070183398438
 31
0.0
 0
LINE
 5
400
100
AcDbEntity
 8
Layer8
100
AcDbLine
 39
0.25
 370
106
 10
201.3727
 20
423.070183398438
 30
0.0
 11
201.0957
 21
422.898183398437
 31
0.0
 0
LINE
 5
401
100
AcDbEntity
 8
Layer8
100
AcDbLine
 39
0.25
 370
106
 10
201.0957
 20
422.898183398437
 30
0.0
 11
195.7667
 21
422.898183398437
 31
0.0
 0
LINE
 5
402
100
AcDbEntity
 8
Layer8
100
AcDbLine
 39
0.25
 370
106
 10
195.7667
 20
422.898183398437
 30
0.0
 11
195.5047
 21
423.070183398438
 31
0.0
 0
LINE
 5
403
100
AcDbEntity
 8
Layer8
100
AcDbLine
 39
0.25
 370
106
 10
195.5047
 20
423.070183398438
 30
0.0
 11
195.3067
 21
424.479183398438
 31
0.0
 0
LINE
 5
404
100
AcDbEntity
 8
Layer8
100
AcDbLine
 39
0.25
 370
106
 10
195.3067
 20
424.479183398438
 30
0.0
 11
201.5587
 21
424.479183398438
 31
0.0
 0
LINE
 5
405
100
AcDbEntity
 8
Layer8
100
AcDbLine
 39
0.25
 370
106
 10
201.5587
 20
424.479183398438
 30
0.0
 11
201.3977
 21
423.278183398437
 31
0.0
 0
LINE
 5
406
100
AcDbEntity
 8
Layer8
100
AcDbLine
 39
0.25
 370
106
 10
201.4108
 20
423.278183398437
 30
0.0
 11
201.3878
 21
423.070183398438
 31
0.0
 0
LINE
 5
407
100
AcDbEntity
 8
Layer8
100
AcDbLine
 39
0.25
 370
106
 10
201.3878
 20
423.070183398438
 30
0.0
 11
201.1088
 21
422.898183398437
 31
0.0
 0
LINE
 5
408
100
AcDbEntity
 8
Layer8
100
AcDbLine
 39
0.25
 370
106
 10
201.1088
 20
422.898183398437
 30
0.0
 11
195.7538
 21
422.898183398437
 31
0.0
 0
LINE
 5
409
100
AcDbEntity
 8
Layer8
100
AcDbLine
 39
0.25
 370
106
 10
195.7538
 20
422.898183398437
 30
0.0
 11
195.4888
 21
423.070183398438
 31
0.0
 0
LINE
 5
40A
100
AcDbEntity
 8
Layer8
100
AcDbLine
 39
0.25
 370
106
 10
195.4888
 20
423.070183398438
 30
0.0
 11
195.2898
 21
424.479183398438
 31
0.0
 0
LINE
 5
40B
100
AcDbEntity
 8
Layer8
100
AcDbLine
 39
0.25
 370
106
 10
195.2898
 20
424.479183398438
 30
0.0
 11
201.5738
 21
424.479183398438
 31
0.0
 0
LINE
 5
40C
100
AcDbEntity
 8
Layer8
100
AcDbLine
 39
0.25
 370
106
 10
201.5738
 20
424.479183398438
 30
0.0
 11
201.4108
 21
423.278183398437
 31
0.0
 0
LINE
 5
40D
100
AcDbEntity
 8
Layer8
100
AcDbLine
 39
0.25
 370
106
 10
195.2664
 20
423.322983398437
 30
0.0
 11
146.9084
 21
423.322983398437
 31
0.0
 0
LINE
 5
40E
100
AcDbEntity
 8
Layer8
100
AcDbLine
 39
0.25
 370
106
 10
146.9084
 20
423.322983398437
 30
0.0
 11
147.0764
 21
424.575983398437
 31
0.0
 0
LINE
 5
40F
100
AcDbEntity
 8
Layer8
100
AcDbLine
 39
0.25
 370
106
 10
147.0764
 20
424.575983398437
 30
0.0
 11
146.8954
 21
425.898983398437
 31
0.0
 0
LINE
 5
410
100
AcDbEntity
 8
Layer8
100
AcDbLine
 39
0.25
 370
106
 10
146.8954
 20
425.898983398437
 30
0.0
 11
195.2664
 21
425.898983398437
 31
0.0
 0
LINE
 5
411
100
AcDbEntity
 8
Layer8
100
AcDbLine
 39
0.25
 370
106
 10
195.2664
 20
425.898983398437
 30
0.0
 11
195.0874
 21
424.575983398437
 31
0.0
 0
LINE
 5
412
100
AcDbEntity
 8
Layer8
100
AcDbLine
 39
0.25
 370
106
 10
195.0874
 20
424.575983398437
 30
0.0
 11
195.2664
 21
423.322983398437
 31
0.0
 0
LINE
 5
413
100
AcDbEntity
 8
Layer8
100
AcDbLine
 39
0.25
 370
106
 10
195.2821
 20
423.322983398437
 30
0.0
 11
146.8921
 21
423.322983398437
 31
0.0
 0
LINE
 5
414
100
AcDbEntity
 8
Layer8
100
AcDbLine
 39
0.25
 370
106
 10
146.8921
 20
423.322983398437
 30
0.0
 11
147.0601
 21
424.575983398437
 31
0.0
 0
LINE
 5
415
100
AcDbEntity
 8
Layer8
100
AcDbLine
 39
0.25
 370
106
 10
147.0601
 20
424.575983398437
 30
0.0
 11
146.8801
 21
425.898983398437
 31
0.0
 0
LINE
 5
416
100
AcDbEntity
 8
Layer8
100
AcDbLine
 39
0.25
 370
106
 10
146.8801
 20
425.898983398437
 30
0.0
 11
195.2821
 21
425.898983398437
 31
0.0
 0
LINE
 5
417
100
AcDbEntity
 8
Layer8
100
AcDbLine
 39
0.25
 370
106
 10
195.2821
 20
425.898983398437
 30
0.0
 11
195.1031
 21
424.575983398437
 31
0.0
 0
LINE
 5
418
100
AcDbEntity
 8
Layer8
100
AcDbLine
 39
0.25
 370
106
 10
195.1031
 20
424.575983398437
 30
0.0
 11
195.2821
 21
423.322983398437
 31
0.0
 0
LINE
 5
419
100
AcDbEntity
 8
Layer8
100
AcDbLine
 39
0.25
 370
106
 10
221.6776
 20
424.576983398438
 30
0.0
 11
221.8546
 21
423.321983398438
 31
0.0
 0
LINE
 5
41A
100
AcDbEntity
 8
Layer8
100
AcDbLine
 39
0.25
 370
106
 10
221.8546
 20
423.321983398438
 30
0.0
 11
201.6086
 21
423.321983398438
 31
0.0
 0
LINE
 5
41B
100
AcDbEntity
 8
Layer8
100
AcDbLine
 39
0.25
 370
106
 10
201.6086
 20
423.321983398438
 30
0.0
 11
201.7756
 21
424.576983398438
 31
0.0
 0
LINE
 5
41C
100
AcDbEntity
 8
Layer8
100
AcDbLine
 39
0.25
 370
106
 10
201.7756
 20
424.576983398438
 30
0.0
 11
201.5966
 21
425.899983398437
 31
0.0
 0
LINE
 5
41D
100
AcDbEntity
 8
Layer8
100
AcDbLine
 39
0.25
 370
106
 10
201.5966
 20
425.899983398437
 30
0.0
 11
221.8546
 21
425.899983398437
 31
0.0
 0
LINE
 5
41E
100
AcDbEntity
 8
Layer8
100
AcDbLine
 39
0.25
 370
106
 10
221.8546
 20
425.899983398437
 30
0.0
 11
221.6776
 21
424.576983398438
 31
0.0
 0
LINE
 5
41F
100
AcDbEntity
 8
Layer8
100
AcDbLine
 39
0.25
 370
106
 10
221.6911
 20
424.576983398438
 30
0.0
 11
221.8701
 21
423.321983398438
 31
0.0
 0
LINE
 5
420
100
AcDbEntity
 8
Layer8
100
AcDbLine
 39
0.25
 370
106
 10
221.8701
 20
423.321983398438
 30
0.0
 11
201.5941
 21
423.321983398438
 31
0.0
 0
LINE
 5
421
100
AcDbEntity
 8
Layer8
100
AcDbLine
 39
0.25
 370
106
 10
201.5941
 20
423.321983398438
 30
0.0
 11
201.7611
 21
424.576983398438
 31
0.0
 0
LINE
 5
422
100
AcDbEntity
 8
Layer8
100
AcDbLine
 39
0.25
 370
106
 10
201.7611
 20
424.576983398438
 30
0.0
 11
201.5821
 21
425.899983398437
 31
0.0
 0
LINE
 5
423
100
AcDbEntity
 8
Layer8
100
AcDbLine
 39
0.25
 370
106
 10
201.5821
 20
425.899983398437
 30
0.0
 11
221.8701
 21
425.899983398437
 31
0.0
 0
LINE
 5
424
100
AcDbEntity
 8
Layer8
100
AcDbLine
 39
0.25
 370
106
 10
221.8701
 20
425.899983398437
 30
0.0
 11
221.6911
 21
424.576983398438
 31
0.0
 0
LINE
 5
425
100
AcDbEntity
 8
Layer8
100
AcDbLine
 39
0.25
 370
106
 10
248.4446
 20
423.322983398437
 30
0.0
 11
228.1966
 21
423.322983398437
 31
0.0
 0
LINE
 5
426
100
AcDbEntity
 8
Layer8
100
AcDbLine
 39
0.25
 370
106
 10
228.1966
 20
423.322983398437
 30
0.0
 11
228.3796
 21
424.575983398437
 31
0.0
 0
LINE
 5
427
100
AcDbEntity
 8
Layer8
100
AcDbLine
 39
0.25
 370
106
 10
228.3796
 20
424.575983398437
 30
0.0
 11
228.1966
 21
425.898983398437
 31
0.0
 0
LINE
 5
428
100
AcDbEntity
 8
Layer8
100
AcDbLine
 39
0.25
 370
106
 10
228.1966
 20
425.898983398437
 30
0.0
 11
248.4446
 21
425.898983398437
 31
0.0
 0
LINE
 5
429
100
AcDbEntity
 8
Layer8
100
AcDbLine
 39
0.25
 370
106
 10
248.4446
 20
425.898983398437
 30
0.0
 11
248.2636
 21
424.575983398437
 31
0.0
 0
LINE
 5
42A
100
AcDbEntity
 8
Layer8
100
AcDbLine
 39
0.25
 370
106
 10
248.2636
 20
424.575983398437
 30
0.0
 11
248.4446
 21
423.322983398437
 31
0.0
 0
LWPOLYLINE
 5
42B
100
AcDbEntity
 8
Layer8
100
AcDbPolyline
 39
0.25
 370
106
 90
5              
 70
 1
 43
0.0
 10
119.743
 20
426.502983398437
 10
114.544
 20
426.502983398437
 10
114.544
 20
435.292983398438
 10
119.743
 20
435.292983398438
 10
119.743
 20
426.502983398437
 0
LWPOLYLINE
 5
42C
100
AcDbEntity
 8
Layer8
100
AcDbPolyline
 39
0.25
 370
106
 90
5              
 70
 1
 43
0.0
 10
119.743
 20
426.502983398437
 10
114.544
 20
426.502983398437
 10
114.544
 20
435.292983398438
 10
119.743
 20
435.292983398438
 10
119.743
 20
426.502983398437
 0
LWPOLYLINE
 5
42D
100
AcDbEntity
 8
Layer8
100
AcDbPolyline
 39
0.25
 370
106
 90
5              
 70
 1
 43
0.0
 10
119.806
 20
413.841983398437
 10
114.479
 20
413.841983398437
 10
114.479
 20
422.710983398438
 10
119.806
 20
422.710983398438
 10
119.806
 20
413.841983398437
 0
LWPOLYLINE
 5
42E
100
AcDbEntity
 8
Layer8
100
AcDbPolyline
 39
0.25
 370
106
 90
5              
 70
 1
 43
0.0
 10
119.806
 20
413.841983398437
 10
114.479
 20
413.841983398437
 10
114.479
 20
422.710983398438
 10
119.806
 20
422.710983398438
 10
119.806
 20
413.841983398437
 0
LINE
 5
42F
100
AcDbEntity
 8
Layer8
100
AcDbLine
 39
0.25
 370
106
 10
248.4601
 20
423.322983398437
 30
0.0
 11
228.1811
 21
423.322983398437
 31
0.0
 0
LINE
 5
430
100
AcDbEntity
 8
Layer8
100
AcDbLine
 39
0.25
 370
106
 10
228.1811
 20
423.322983398437
 30
0.0
 11
228.3631
 21
424.575983398437
 31
0.0
 0
LINE
 5
431
100
AcDbEntity
 8
Layer8
100
AcDbLine
 39
0.25
 370
106
 10
228.3631
 20
424.575983398437
 30
0.0
 11
228.1811
 21
425.898983398437
 31
0.0
 0
LINE
 5
432
100
AcDbEntity
 8
Layer8
100
AcDbLine
 39
0.25
 370
106
 10
228.1811
 20
425.898983398437
 30
0.0
 11
248.4601
 21
425.898983398437
 31
0.0
 0
LINE
 5
433
100
AcDbEntity
 8
Layer8
100
AcDbLine
 39
0.25
 370
106
 10
248.4601
 20
425.898983398437
 30
0.0
 11
248.2791
 21
424.575983398437
 31
0.0
 0
LINE
 5
434
100
AcDbEntity
 8
Layer8
100
AcDbLine
 39
0.25
 370
106
 10
248.2791
 20
424.575983398437
 30
0.0
 11
248.4601
 21
423.322983398437
 31
0.0
 0
LINE
 5
435
100
AcDbEntity
 8
Layer8
100
AcDbLine
 39
0.25
 370
106
 10
114.0162
 20
424.667483398438
 30
0.0
 11
114.2152
 21
426.082483398438
 31
0.0
 0
LINE
 5
436
100
AcDbEntity
 8
Layer8
100
AcDbLine
 39
0.25
 370
106
 10
114.2152
 20
426.082483398438
 30
0.0
 11
114.5392
 21
426.313483398438
 31
0.0
 0
LINE
 5
437
100
AcDbEntity
 8
Layer8
100
AcDbLine
 39
0.25
 370
106
 10
114.5392
 20
426.313483398438
 30
0.0
 11
119.7572
 21
426.313483398438
 31
0.0
 0
LINE
 5
438
100
AcDbEntity
 8
Layer8
100
AcDbLine
 39
0.25
 370
106
 10
119.7572
 20
426.313483398438
 30
0.0
 11
120.0822
 21
426.082483398438
 31
0.0
 0
LINE
 5
439
100
AcDbEntity
 8
Layer8
100
AcDbLine
 39
0.25
 370
106
 10
120.0822
 20
426.082483398438
 30
0.0
 11
120.2702
 21
424.667483398438
 31
0.0
 0
LINE
 5
43A
100
AcDbEntity
 8
Layer8
100
AcDbLine
 39
0.25
 370
106
 10
120.2702
 20
424.667483398438
 30
0.0
 11
114.0162
 21
424.667483398438
 31
0.0
 0
LINE
 5
43B
100
AcDbEntity
 8
Layer8
100
AcDbLine
 39
0.25
 370
106
 10
114.0006
 20
424.667483398438
 30
0.0
 11
114.2006
 21
426.082483398438
 31
0.0
 0
LINE
 5
43C
100
AcDbEntity
 8
Layer8
100
AcDbLine
 39
0.25
 370
106
 10
114.2006
 20
426.082483398438
 30
0.0
 11
114.5266
 21
426.313483398438
 31
0.0
 0
LINE
 5
43D
100
AcDbEntity
 8
Layer8
100
AcDbLine
 39
0.25
 370
106
 10
114.5266
 20
426.313483398438
 30
0.0
 11
119.7696
 21
426.313483398438
 31
0.0
 0
LINE
 5
43E
100
AcDbEntity
 8
Layer8
100
AcDbLine
 39
0.25
 370
106
 10
119.7696
 20
426.313483398438
 30
0.0
 11
120.0956
 21
426.082483398438
 31
0.0
 0
LINE
 5
43F
100
AcDbEntity
 8
Layer8
100
AcDbLine
 39
0.25
 370
106
 10
120.0956
 20
426.082483398438
 30
0.0
 11
120.2856
 21
424.667483398438
 31
0.0
 0
LINE
 5
440
100
AcDbEntity
 8
Layer8
100
AcDbLine
 39
0.25
 370
106
 10
120.2856
 20
424.667483398438
 30
0.0
 11
114.0006
 21
424.667483398438
 31
0.0
 0
LINE
 5
441
100
AcDbEntity
 8
Layer8
100
AcDbLine
 39
0.25
 370
106
 10
120.1095
 20
423.278183398437
 30
0.0
 11
120.0825
 21
423.070183398438
 31
0.0
 0
LINE
 5
442
100
AcDbEntity
 8
Layer8
100
AcDbLine
 39
0.25
 370
106
 10
120.0825
 20
423.070183398438
 30
0.0
 11
119.8075
 21
422.898183398437
 31
0.0
 0
LINE
 5
443
100
AcDbEntity
 8
Layer8
100
AcDbLine
 39
0.25
 370
106
 10
119.8075
 20
422.898183398437
 30
0.0
 11
114.4785
 21
422.898183398437
 31
0.0
 0
LINE
 5
444
100
AcDbEntity
 8
Layer8
100
AcDbLine
 39
0.25
 370
106
 10
114.4785
 20
422.898183398437
 30
0.0
 11
114.2155
 21
423.070183398438
 31
0.0
 0
LINE
 5
445
100
AcDbEntity
 8
Layer8
100
AcDbLine
 39
0.25
 370
106
 10
114.2155
 20
423.070183398438
 30
0.0
 11
114.0165
 21
424.479183398438
 31
0.0
 0
LINE
 5
446
100
AcDbEntity
 8
Layer8
100
AcDbLine
 39
0.25
 370
106
 10
114.0165
 20
424.479183398438
 30
0.0
 11
120.2705
 21
424.479183398438
 31
0.0
 0
LINE
 5
447
100
AcDbEntity
 8
Layer8
100
AcDbLine
 39
0.25
 370
106
 10
120.2705
 20
424.479183398438
 30
0.0
 11
120.1095
 21
423.278183398437
 31
0.0
 0
LWPOLYLINE
 5
448
100
AcDbEntity
 8
Layer8
100
AcDbPolyline
 39
0.25
 370
106
 90
5              
 70
 1
 43
0.0
 10
93.152
 20
426.502983398437
 10
87.957
 20
426.502983398437
 10
87.957
 20
435.292983398438
 10
93.152
 20
435.292983398438
 10
93.152
 20
426.502983398437
 0
LWPOLYLINE
 5
449
100
AcDbEntity
 8
Layer8
100
AcDbPolyline
 39
0.25
 370
106
 90
5              
 70
 1
 43
0.0
 10
93.152
 20
426.502983398437
 10
87.957
 20
426.502983398437
 10
87.957
 20
435.292983398438
 10
93.152
 20
435.292983398438
 10
93.152
 20
426.502983398437
 0
LWPOLYLINE
 5
44A
100
AcDbEntity
 8
Layer8
100
AcDbPolyline
 39
0.25
 370
106
 90
5              
 70
 1
 43
0.0
 10
93.215
 20
413.841983398437
 10
87.888
 20
413.841983398437
 10
87.888
 20
422.710983398438
 10
93.215
 20
422.710983398438
 10
93.215
 20
413.841983398437
 0
LWPOLYLINE
 5
44B
100
AcDbEntity
 8
Layer8
100
AcDbPolyline
 39
0.25
 370
106
 90
5              
 70
 1
 43
0.0
 10
93.215
 20
413.841983398437
 10
87.888
 20
413.841983398437
 10
87.888
 20
422.710983398438
 10
93.215
 20
422.710983398438
 10
93.215
 20
413.841983398437
 0
LINE
 5
44C
100
AcDbEntity
 8
Layer8
100
AcDbLine
 39
0.25
 370
106
 10
120.1226
 20
423.278183398437
 30
0.0
 11
120.0956
 21
423.070183398438
 31
0.0
 0
LINE
 5
44D
100
AcDbEntity
 8
Layer8
100
AcDbLine
 39
0.25
 370
106
 10
120.0956
 20
423.070183398438
 30
0.0
 11
119.8186
 21
422.898183398437
 31
0.0
 0
LINE
 5
44E
100
AcDbEntity
 8
Layer8
100
AcDbLine
 39
0.25
 370
106
 10
119.8186
 20
422.898183398437
 30
0.0
 11
114.4656
 21
422.898183398437
 31
0.0
 0
LINE
 5
44F
100
AcDbEntity
 8
Layer8
100
AcDbLine
 39
0.25
 370
106
 10
114.4656
 20
422.898183398437
 30
0.0
 11
114.2006
 21
423.070183398438
 31
0.0
 0
LINE
 5
450
100
AcDbEntity
 8
Layer8
100
AcDbLine
 39
0.25
 370
106
 10
114.2006
 20
423.070183398438
 30
0.0
 11
114.0006
 21
424.479183398438
 31
0.0
 0
LINE
 5
451
100
AcDbEntity
 8
Layer8
100
AcDbLine
 39
0.25
 370
106
 10
114.0006
 20
424.479183398438
 30
0.0
 11
120.2856
 21
424.479183398438
 31
0.0
 0
LINE
 5
452
100
AcDbEntity
 8
Layer8
100
AcDbLine
 39
0.25
 370
106
 10
120.2856
 20
424.479183398438
 30
0.0
 11
120.1226
 21
423.278183398437
 31
0.0
 0
LINE
 5
453
100
AcDbEntity
 8
Layer8
100
AcDbLine
 39
0.25
 370
106
 10
87.4264
 20
424.667483398438
 30
0.0
 11
87.6124
 21
426.082483398438
 31
0.0
 0
LINE
 5
454
100
AcDbEntity
 8
Layer8
100
AcDbLine
 39
0.25
 370
106
 10
87.6124
 20
426.082483398438
 30
0.0
 11
87.9514
 21
426.313483398438
 31
0.0
 0
LINE
 5
455
100
AcDbEntity
 8
Layer8
100
AcDbLine
 39
0.25
 370
106
 10
87.9514
 20
426.313483398438
 30
0.0
 11
93.1554
 21
426.313483398438
 31
0.0
 0
LINE
 5
456
100
AcDbEntity
 8
Layer8
100
AcDbLine
 39
0.25
 370
106
 10
93.1554
 20
426.313483398438
 30
0.0
 11
93.4784
 21
426.082483398438
 31
0.0
 0
LINE
 5
457
100
AcDbEntity
 8
Layer8
100
AcDbLine
 39
0.25
 370
106
 10
93.4784
 20
426.082483398438
 30
0.0
 11
93.6804
 21
424.667483398438
 31
0.0
 0
LINE
 5
458
100
AcDbEntity
 8
Layer8
100
AcDbLine
 39
0.25
 370
106
 10
93.6804
 20
424.667483398438
 30
0.0
 11
87.4264
 21
424.667483398438
 31
0.0
 0
LINE
 5
459
100
AcDbEntity
 8
Layer8
100
AcDbLine
 39
0.25
 370
106
 10
87.4113
 20
424.667483398438
 30
0.0
 11
87.5983
 21
426.082483398438
 31
0.0
 0
LINE
 5
45A
100
AcDbEntity
 8
Layer8
100
AcDbLine
 39
0.25
 370
106
 10
87.5983
 20
426.082483398438
 30
0.0
 11
87.9403
 21
426.313483398438
 31
0.0
 0
LINE
 5
45B
100
AcDbEntity
 8
Layer8
100
AcDbLine
 39
0.25
 370
106
 10
87.9403
 20
426.313483398438
 30
0.0
 11
93.1673
 21
426.313483398438
 31
0.0
 0
LINE
 5
45C
100
AcDbEntity
 8
Layer8
100
AcDbLine
 39
0.25
 370
106
 10
93.1673
 20
426.313483398438
 30
0.0
 11
93.4933
 21
426.082483398438
 31
0.0
 0
LINE
 5
45D
100
AcDbEntity
 8
Layer8
100
AcDbLine
 39
0.25
 370
106
 10
93.4933
 20
426.082483398438
 30
0.0
 11
93.6953
 21
424.667483398438
 31
0.0
 0
LINE
 5
45E
100
AcDbEntity
 8
Layer8
100
AcDbLine
 39
0.25
 370
106
 10
93.6953
 20
424.667483398438
 30
0.0
 11
87.4113
 21
424.667483398438
 31
0.0
 0
LINE
 5
45F
100
AcDbEntity
 8
Layer8
100
AcDbLine
 39
0.25
 370
106
 10
93.505
 20
423.278183398437
 30
0.0
 11
93.479
 21
423.070183398438
 31
0.0
 0
LINE
 5
460
100
AcDbEntity
 8
Layer8
100
AcDbLine
 39
0.25
 370
106
 10
93.479
 20
423.070183398438
 30
0.0
 11
93.216
 21
422.898183398437
 31
0.0
 0
LINE
 5
461
100
AcDbEntity
 8
Layer8
100
AcDbLine
 39
0.25
 370
106
 10
93.216
 20
422.898183398437
 30
0.0
 11
87.887
 21
422.898183398437
 31
0.0
 0
LINE
 5
462
100
AcDbEntity
 8
Layer8
100
AcDbLine
 39
0.25
 370
106
 10
87.887
 20
422.898183398437
 30
0.0
 11
87.611
 21
423.070183398438
 31
0.0
 0
LINE
 5
463
100
AcDbEntity
 8
Layer8
100
AcDbLine
 39
0.25
 370
106
 10
87.611
 20
423.070183398438
 30
0.0
 11
87.427
 21
424.479183398438
 31
0.0
 0
LINE
 5
464
100
AcDbEntity
 8
Layer8
100
AcDbLine
 39
0.25
 370
106
 10
87.427
 20
424.479183398438
 30
0.0
 11
93.679
 21
424.479183398438
 31
0.0
 0
LINE
 5
465
100
AcDbEntity
 8
Layer8
100
AcDbLine
 39
0.25
 370
106
 10
93.679
 20
424.479183398438
 30
0.0
 11
93.505
 21
423.278183398437
 31
0.0
 0
LWPOLYLINE
 5
466
100
AcDbEntity
 8
Layer8
100
AcDbPolyline
 39
0.25
 370
106
 90
5              
 70
 1
 43
0.0
 10
227.633
 20
426.502983398437
 10
222.422
 20
426.502983398437
 10
222.422
 20
435.292983398438
 10
227.633
 20
435.292983398438
 10
227.633
 20
426.502983398437
 0
LWPOLYLINE
 5
467
100
AcDbEntity
 8
Layer8
100
AcDbPolyline
 39
0.25
 370
106
 90
5              
 70
 1
 43
0.0
 10
227.633
 20
426.502983398437
 10
222.422
 20
426.502983398437
 10
222.422
 20
435.292983398438
 10
227.633
 20
435.292983398438
 10
227.633
 20
426.502983398437
 0
LWPOLYLINE
 5
468
100
AcDbEntity
 8
Layer8
100
AcDbPolyline
 39
0.25
 370
106
 90
5              
 70
 1
 43
0.0
 10
227.696
 20
413.841983398437
 10
222.357
 20
413.841983398437
 10
222.357
 20
422.710983398438
 10
227.696
 20
422.710983398438
 10
227.696
 20
413.841983398437
 0
LWPOLYLINE
 5
469
100
AcDbEntity
 8
Layer8
100
AcDbPolyline
 39
0.25
 370
106
 90
5              
 70
 1
 43
0.0
 10
227.696
 20
413.841983398437
 10
222.357
 20
413.841983398437
 10
222.357
 20
422.710983398438
 10
227.696
 20
422.710983398438
 10
227.696
 20
413.841983398437
 0
LINE
 5
46A
100
AcDbEntity
 8
Layer8
100
AcDbLine
 39
0.25
 370
106
 10
93.5213
 20
423.278183398437
 30
0.0
 11
93.4933
 21
423.070183398438
 31
0.0
 0
LINE
 5
46B
100
AcDbEntity
 8
Layer8
100
AcDbLine
 39
0.25
 370
106
 10
93.4933
 20
423.070183398438
 30
0.0
 11
93.2303
 21
422.898183398437
 31
0.0
 0
LINE
 5
46C
100
AcDbEntity
 8
Layer8
100
AcDbLine
 39
0.25
 370
106
 10
93.2303
 20
422.898183398437
 30
0.0
 11
87.8753
 21
422.898183398437
 31
0.0
 0
LINE
 5
46D
100
AcDbEntity
 8
Layer8
100
AcDbLine
 39
0.25
 370
106
 10
87.8753
 20
422.898183398437
 30
0.0
 11
87.5983
 21
423.070183398438
 31
0.0
 0
LINE
 5
46E
100
AcDbEntity
 8
Layer8
100
AcDbLine
 39
0.25
 370
106
 10
87.5983
 20
423.070183398438
 30
0.0
 11
87.4113
 21
424.479183398438
 31
0.0
 0
LINE
 5
46F
100
AcDbEntity
 8
Layer8
100
AcDbLine
 39
0.25
 370
106
 10
87.4113
 20
424.479183398438
 30
0.0
 11
93.6953
 21
424.479183398438
 31
0.0
 0
LINE
 5
470
100
AcDbEntity
 8
Layer8
100
AcDbLine
 39
0.25
 370
106
 10
93.6953
 20
424.479183398438
 30
0.0
 11
93.5213
 21
423.278183398437
 31
0.0
 0
LINE
 5
471
100
AcDbEntity
 8
Layer8
100
AcDbLine
 39
0.25
 370
106
 10
221.8929
 20
424.667483398438
 30
0.0
 11
222.0949
 21
426.082483398438
 31
0.0
 0
LINE
 5
472
100
AcDbEntity
 8
Layer8
100
AcDbLine
 39
0.25
 370
106
 10
222.0949
 20
426.082483398438
 30
0.0
 11
222.4179
 21
426.313483398438
 31
0.0
 0
LINE
 5
473
100
AcDbEntity
 8
Layer8
100
AcDbLine
 39
0.25
 370
106
 10
222.4179
 20
426.313483398438
 30
0.0
 11
227.6339
 21
426.313483398438
 31
0.0
 0
LINE
 5
474
100
AcDbEntity
 8
Layer8
100
AcDbLine
 39
0.25
 370
106
 10
227.6339
 20
426.313483398438
 30
0.0
 11
227.9589
 21
426.082483398438
 31
0.0
 0
LINE
 5
475
100
AcDbEntity
 8
Layer8
100
AcDbLine
 39
0.25
 370
106
 10
227.9589
 20
426.082483398438
 30
0.0
 11
228.1609
 21
424.667483398438
 31
0.0
 0
LINE
 5
476
100
AcDbEntity
 8
Layer8
100
AcDbLine
 39
0.25
 370
106
 10
228.1609
 20
424.667483398438
 30
0.0
 11
221.8929
 21
424.667483398438
 31
0.0
 0
LINE
 5
477
100
AcDbEntity
 8
Layer8
100
AcDbLine
 39
0.25
 370
106
 10
221.8784
 20
424.667483398438
 30
0.0
 11
222.0804
 21
426.082483398438
 31
0.0
 0
LINE
 5
478
100
AcDbEntity
 8
Layer8
100
AcDbLine
 39
0.25
 370
106
 10
222.0804
 20
426.082483398438
 30
0.0
 11
222.4054
 21
426.313483398438
 31
0.0
 0
LINE
 5
479
100
AcDbEntity
 8
Layer8
100
AcDbLine
 39
0.25
 370
106
 10
222.4054
 20
426.313483398438
 30
0.0
 11
227.6484
 21
426.313483398438
 31
0.0
 0
LINE
 5
47A
100
AcDbEntity
 8
Layer8
100
AcDbLine
 39
0.25
 370
106
 10
227.6484
 20
426.313483398438
 30
0.0
 11
227.9744
 21
426.082483398438
 31
0.0
 0
LINE
 5
47B
100
AcDbEntity
 8
Layer8
100
AcDbLine
 39
0.25
 370
106
 10
227.9744
 20
426.082483398438
 30
0.0
 11
228.1764
 21
424.667483398438
 31
0.0
 0
LINE
 5
47C
100
AcDbEntity
 8
Layer8
100
AcDbLine
 39
0.25
 370
106
 10
228.1764
 20
424.667483398438
 30
0.0
 11
221.8784
 21
424.667483398438
 31
0.0
 0
LINE
 5
47D
100
AcDbEntity
 8
Layer8
100
AcDbLine
 39
0.25
 370
106
 10
227.9827
 20
423.278183398437
 30
0.0
 11
227.9577
 21
423.070183398438
 31
0.0
 0
LINE
 5
47E
100
AcDbEntity
 8
Layer8
100
AcDbLine
 39
0.25
 370
106
 10
227.9577
 20
423.070183398438
 30
0.0
 11
227.6967
 21
422.898183398437
 31
0.0
 0
LINE
 5
47F
100
AcDbEntity
 8
Layer8
100
AcDbLine
 39
0.25
 370
106
 10
227.6967
 20
422.898183398437
 30
0.0
 11
222.3567
 21
422.898183398437
 31
0.0
 0
LINE
 5
480
100
AcDbEntity
 8
Layer8
100
AcDbLine
 39
0.25
 370
106
 10
222.3567
 20
422.898183398437
 30
0.0
 11
222.0957
 21
423.070183398438
 31
0.0
 0
LINE
 5
481
100
AcDbEntity
 8
Layer8
100
AcDbLine
 39
0.25
 370
106
 10
222.0957
 20
423.070183398438
 30
0.0
 11
221.8957
 21
424.479183398438
 31
0.0
 0
LINE
 5
482
100
AcDbEntity
 8
Layer8
100
AcDbLine
 39
0.25
 370
106
 10
221.8957
 20
424.479183398438
 30
0.0
 11
228.1597
 21
424.479183398438
 31
0.0
 0
LINE
 5
483
100
AcDbEntity
 8
Layer8
100
AcDbLine
 39
0.25
 370
106
 10
228.1597
 20
424.479183398438
 30
0.0
 11
227.9827
 21
423.278183398437
 31
0.0
 0
LWPOLYLINE
 5
484
100
AcDbEntity
 8
Layer8
100
AcDbPolyline
 39
0.25
 370
106
 90
5              
 70
 1
 43
0.0
 10
254.22
 20
426.502983398437
 10
249.009
 20
426.502983398437
 10
249.009
 20
435.292983398438
 10
254.22
 20
435.292983398438
 10
254.22
 20
426.502983398437
 0
LWPOLYLINE
 5
485
100
AcDbEntity
 8
Layer8
100
AcDbPolyline
 39
0.25
 370
106
 90
5              
 70
 1
 43
0.0
 10
254.22
 20
426.502983398437
 10
249.009
 20
426.502983398437
 10
249.009
 20
435.292983398438
 10
254.22
 20
435.292983398438
 10
254.22
 20
426.502983398437
 0
LWPOLYLINE
 5
486
100
AcDbEntity
 8
Layer8
100
AcDbPolyline
 39
0.25
 370
106
 90
5              
 70
 1
 43
0.0
 10
254.284
 20
413.854983398438
 10
248.945
 20
413.854983398438
 10
248.945
 20
422.711983398438
 10
254.284
 20
422.711983398438
 10
254.284
 20
413.854983398438
 0
LWPOLYLINE
 5
487
100
AcDbEntity
 8
Layer8
100
AcDbPolyline
 39
0.25
 370
106
 90
5              
 70
 1
 43
0.0
 10
254.284
 20
413.854983398438
 10
248.945
 20
413.854983398438
 10
248.945
 20
422.711983398438
 10
254.284
 20
422.711983398438
 10
254.284
 20
413.854983398438
 0
LINE
 5
488
100
AcDbEntity
 8
Layer8
100
AcDbLine
 39
0.25
 370
106
 10
227.9994
 20
423.278183398437
 30
0.0
 11
227.9744
 21
423.070183398438
 31
0.0
 0
LINE
 5
489
100
AcDbEntity
 8
Layer8
100
AcDbLine
 39
0.25
 370
106
 10
227.9744
 20
423.070183398438
 30
0.0
 11
227.7094
 21
422.898183398437
 31
0.0
 0
LINE
 5
48A
100
AcDbEntity
 8
Layer8
100
AcDbLine
 39
0.25
 370
106
 10
227.7094
 20
422.898183398437
 30
0.0
 11
222.3444
 21
422.898183398437
 31
0.0
 0
LINE
 5
48B
100
AcDbEntity
 8
Layer8
100
AcDbLine
 39
0.25
 370
106
 10
222.3444
 20
422.898183398437
 30
0.0
 11
222.0804
 21
423.070183398438
 31
0.0
 0
LINE
 5
48C
100
AcDbEntity
 8
Layer8
100
AcDbLine
 39
0.25
 370
106
 10
222.0804
 20
423.070183398438
 30
0.0
 11
221.8784
 21
424.479183398438
 31
0.0
 0
LINE
 5
48D
100
AcDbEntity
 8
Layer8
100
AcDbLine
 39
0.25
 370
106
 10
221.8784
 20
424.479183398438
 30
0.0
 11
228.1764
 21
424.479183398438
 31
0.0
 0
LINE
 5
48E
100
AcDbEntity
 8
Layer8
100
AcDbLine
 39
0.25
 370
106
 10
228.1764
 20
424.479183398438
 30
0.0
 11
227.9994
 21
423.278183398437
 31
0.0
 0
LINE
 5
48F
100
AcDbEntity
 8
Layer8
100
AcDbLine
 39
0.25
 370
106
 10
248.4823
 20
424.667483398438
 30
0.0
 11
248.6803
 21
426.082483398438
 31
0.0
 0
LINE
 5
490
100
AcDbEntity
 8
Layer8
100
AcDbLine
 39
0.25
 370
106
 10
248.6803
 20
426.082483398438
 30
0.0
 11
249.0053
 21
426.313483398438
 31
0.0
 0
LINE
 5
491
100
AcDbEntity
 8
Layer8
100
AcDbLine
 39
0.25
 370
106
 10
249.0053
 20
426.313483398438
 30
0.0
 11
254.2213
 21
426.313483398438
 31
0.0
 0
LINE
 5
492
100
AcDbEntity
 8
Layer8
100
AcDbLine
 39
0.25
 370
106
 10
254.2213
 20
426.313483398438
 30
0.0
 11
254.5463
 21
426.082483398438
 31
0.0
 0
LINE
 5
493
100
AcDbEntity
 8
Layer8
100
AcDbLine
 39
0.25
 370
106
 10
254.5463
 20
426.082483398438
 30
0.0
 11
254.7483
 21
424.667483398438
 31
0.0
 0
LINE
 5
494
100
AcDbEntity
 8
Layer8
100
AcDbLine
 39
0.25
 370
106
 10
254.7483
 20
424.667483398438
 30
0.0
 11
248.4823
 21
424.667483398438
 31
0.0
 0
LINE
 5
495
100
AcDbEntity
 8
Layer8
100
AcDbLine
 39
0.25
 370
106
 10
248.4655
 20
424.667483398438
 30
0.0
 11
248.6665
 21
426.082483398438
 31
0.0
 0
LINE
 5
496
100
AcDbEntity
 8
Layer8
100
AcDbLine
 39
0.25
 370
106
 10
248.6665
 20
426.082483398438
 30
0.0
 11
248.9925
 21
426.313483398438
 31
0.0
 0
LINE
 5
497
100
AcDbEntity
 8
Layer8
100
AcDbLine
 39
0.25
 370
106
 10
248.9925
 20
426.313483398438
 30
0.0
 11
254.2355
 21
426.313483398438
 31
0.0
 0
LINE
 5
498
100
AcDbEntity
 8
Layer8
100
AcDbLine
 39
0.25
 370
106
 10
254.2355
 20
426.313483398438
 30
0.0
 11
254.5615
 21
426.082483398438
 31
0.0
 0
LINE
 5
499
100
AcDbEntity
 8
Layer8
100
AcDbLine
 39
0.25
 370
106
 10
254.5615
 20
426.082483398438
 30
0.0
 11
254.7635
 21
424.667483398438
 31
0.0
 0
LINE
 5
49A
100
AcDbEntity
 8
Layer8
100
AcDbLine
 39
0.25
 370
106
 10
254.7635
 20
424.667483398438
 30
0.0
 11
248.4655
 21
424.667483398438
 31
0.0
 0
LINE
 5
49B
100
AcDbEntity
 8
Layer8
100
AcDbLine
 39
0.25
 370
106
 10
254.5477
 20
423.070183398438
 30
0.0
 11
254.2847
 21
422.898183398437
 31
0.0
 0
LINE
 5
49C
100
AcDbEntity
 8
Layer8
100
AcDbLine
 39
0.25
 370
106
 10
254.2847
 20
422.898183398437
 30
0.0
 11
248.9447
 21
422.898183398437
 31
0.0
 0
LINE
 5
49D
100
AcDbEntity
 8
Layer8
100
AcDbLine
 39
0.25
 370
106
 10
248.9447
 20
422.898183398437
 30
0.0
 11
248.6817
 21
423.070183398438
 31
0.0
 0
LINE
 5
49E
100
AcDbEntity
 8
Layer8
100
AcDbLine
 39
0.25
 370
106
 10
248.6817
 20
423.070183398438
 30
0.0
 11
248.4837
 21
424.479183398438
 31
0.0
 0
LINE
 5
49F
100
AcDbEntity
 8
Layer8
100
AcDbLine
 39
0.25
 370
106
 10
248.4837
 20
424.479183398438
 30
0.0
 11
254.7477
 21
424.479183398438
 31
0.0
 0
LINE
 5
4A0
100
AcDbEntity
 8
Layer8
100
AcDbLine
 39
0.25
 370
106
 10
254.7477
 20
424.479183398438
 30
0.0
 11
254.5477
 21
423.070183398438
 31
0.0
 0
LINE
 5
4A1
100
AcDbEntity
 8
Layer8
100
AcDbLine
 39
0.25
 370
106
 10
254.5615
 20
423.070183398438
 30
0.0
 11
254.2985
 21
422.898183398437
 31
0.0
 0
LINE
 5
4A2
100
AcDbEntity
 8
Layer8
100
AcDbLine
 39
0.25
 370
106
 10
254.2985
 20
422.898183398437
 30
0.0
 11
248.9315
 21
422.898183398437
 31
0.0
 0
LINE
 5
4A3
100
AcDbEntity
 8
Layer8
100
AcDbLine
 39
0.25
 370
106
 10
248.9315
 20
422.898183398437
 30
0.0
 11
248.6665
 21
423.070183398438
 31
0.0
 0
LINE
 5
4A4
100
AcDbEntity
 8
Layer8
100
AcDbLine
 39
0.25
 370
106
 10
248.6665
 20
423.070183398438
 30
0.0
 11
248.4655
 21
424.479183398438
 31
0.0
 0
LINE
 5
4A5
100
AcDbEntity
 8
Layer8
100
AcDbLine
 39
0.25
 370
106
 10
248.4655
 20
424.479183398438
 30
0.0
 11
254.7635
 21
424.479183398438
 31
0.0
 0
LINE
 5
4A6
100
AcDbEntity
 8
Layer8
100
AcDbLine
 39
0.25
 370
106
 10
254.7635
 20
424.479183398438
 30
0.0
 11
254.5615
 21
423.070183398438
 31
0.0
 0
ARC
 5
4A7
100
AcDbEntity
 8
Layer8
100
AcDbCircle
 39
0.25
 370
106
 10
178.206263183808
 20
429.419382360021
 30
0.0
 40
6.13758278713544
100
AcDbArc
 50
177.090756227676
 51
-147.686003941258
 0
LINE
 5
4A8
100
AcDbEntity
 8
Layer8
100
AcDbLine
 39
0.25
 370
106
 10
169.2282
 20
426.138483398437
 30
0.0
 11
169.77379375
 21
427.829889648437
 31
0.0
 0
LINE
 5
4A9
100
AcDbEntity
 8
Layer8
100
AcDbLine
 39
0.25
 370
106
 10
169.77379375
 20
427.829889648437
 30
0.0
 11
170.06345
 21
429.903233398437
 31
0.0
 0
LINE
 5
4AA
100
AcDbEntity
 8
Layer8
100
AcDbLine
 39
0.25
 370
106
 10
170.06345
 20
429.903233398437
 30
0.0
 11
170.1982
 21
432.400483398437
 31
0.0
 0
LINE
 5
4AB
100
AcDbEntity
 8
Layer8
100
AcDbLine
 39
0.25
 370
106
 10
170.1982
 20
432.400483398437
 30
0.0
 11
170.1982
 21
437.292483398437
 31
0.0
 0
LINE
 5
4AC
100
AcDbEntity
 8
Layer8
100
AcDbLine
 39
0.25
 370
106
 10
170.1982
 20
437.292483398437
 30
0.0
 11
172.0342
 21
437.292483398437
 31
0.0
 0
LINE
 5
4AD
100
AcDbEntity
 8
Layer8
100
AcDbLine
 39
0.25
 370
106
 10
172.0342
 20
437.292483398437
 30
0.0
 11
172.076590625
 21
429.730889648437
 31
0.0
 0
LINE
 5
4AE
100
AcDbEntity
 8
Layer8
100
AcDbLine
 39
0.25
 370
106
 10
173.0192
 20
426.138483398437
 30
0.0
 11
169.2282
 21
426.138483398437
 31
0.0
 0
ARC
 5
4AF
100
AcDbEntity
 8
Layer8
100
AcDbCircle
 39
0.25
 370
106
 10
178.116828324332
 20
429.421065952829
 30
0.0
 40
6.07226562881741
100
AcDbArc
 50
177.075341815457
 51
-147.276452076845
 0
LINE
 5
4B0
100
AcDbEntity
 8
Layer8
100
AcDbLine
 39
0.25
 370
106
 10
169.1683
 20
426.138483398437
 30
0.0
 11
169.7209875
 21
427.829889648437
 31
0.0
 0
LINE
 5
4B1
100
AcDbEntity
 8
Layer8
100
AcDbLine
 39
0.25
 370
106
 10
169.7209875
 20
427.829889648437
 30
0.0
 11
170.01455
 21
429.903233398437
 31
0.0
 0
LINE
 5
4B2
100
AcDbEntity
 8
Layer8
100
AcDbLine
 39
0.25
 370
106
 10
170.01455
 20
429.903233398437
 30
0.0
 11
170.1513
 21
432.400483398437
 31
0.0
 0
LINE
 5
4B3
100
AcDbEntity
 8
Layer8
100
AcDbLine
 39
0.25
 370
106
 10
170.1513
 20
432.400483398437
 30
0.0
 11
170.1513
 21
437.292483398437
 31
0.0
 0
LINE
 5
4B4
100
AcDbEntity
 8
Layer8
100
AcDbLine
 39
0.25
 370
106
 10
170.1513
 20
437.292483398437
 30
0.0
 11
172.0093
 21
437.292483398437
 31
0.0
 0
LINE
 5
4B5
100
AcDbEntity
 8
Layer8
100
AcDbLine
 39
0.25
 370
106
 10
172.0093
 20
437.292483398437
 30
0.0
 11
172.052471875
 21
429.730889648437
 31
0.0
 0
LINE
 5
4B6
100
AcDbEntity
 8
Layer8
100
AcDbLine
 39
0.25
 370
106
 10
173.0083
 20
426.138483398437
 30
0.0
 11
169.1683
 21
426.138483398437
 31
0.0
 0
LINE
 5
4B7
100
AcDbEntity
 8
Layer8
100
AcDbLine
 39
0.25
 370
106
 10
169.1146
 20
426.045983398438
 30
0.0
 11
169.1396
 21
426.133983398438
 31
0.0
 0
LINE
 5
4B8
100
AcDbEntity
 8
Layer8
100
AcDbLine
 39
0.25
 370
106
 10
169.1396
 20
426.133983398438
 30
0.0
 11
173.0046
 21
426.133983398438
 31
0.0
 0
LINE
 5
4B9
100
AcDbEntity
 8
Layer8
100
AcDbLine
 39
0.25
 370
106
 10
173.0046
 20
426.133983398438
 30
0.0
 11
173.0306
 21
426.045983398438
 31
0.0
 0
LINE
 5
4BA
100
AcDbEntity
 8
Layer8
100
AcDbLine
 39
0.25
 370
106
 10
173.0306
 20
426.045983398438
 30
0.0
 11
169.1146
 21
426.045983398438
 31
0.0
 0
LINE
 5
4BB
100
AcDbEntity
 8
Layer8
100
AcDbLine
 39
0.25
 370
106
 10
169.1409
 20
426.045983398438
 30
0.0
 11
169.1659
 21
426.133983398438
 31
0.0
 0
LINE
 5
4BC
100
AcDbEntity
 8
Layer8
100
AcDbLine
 39
0.25
 370
106
 10
169.1659
 20
426.133983398438
 30
0.0
 11
173.0099
 21
426.133983398438
 31
0.0
 0
LINE
 5
4BD
100
AcDbEntity
 8
Layer8
100
AcDbLine
 39
0.25
 370
106
 10
173.0099
 20
426.133983398438
 30
0.0
 11
173.0359
 21
426.045983398438
 31
0.0
 0
LINE
 5
4BE
100
AcDbEntity
 8
Layer8
100
AcDbLine
 39
0.25
 370
106
 10
173.0359
 20
426.045983398438
 30
0.0
 11
169.1409
 21
426.045983398438
 31
0.0
 0
LINE
 5
4BF
100
AcDbEntity
 8
Layer8
100
AcDbLine
 39
0.25
 370
106
 10
169.1146
 20
426.045983398438
 30
0.0
 11
169.1396
 21
426.133983398438
 31
0.0
 0
LINE
 5
4C0
100
AcDbEntity
 8
Layer8
100
AcDbLine
 39
0.25
 370
106
 10
169.1396
 20
426.133983398438
 30
0.0
 11
173.0046
 21
426.133983398438
 31
0.0
 0
LINE
 5
4C1
100
AcDbEntity
 8
Layer8
100
AcDbLine
 39
0.25
 370
106
 10
173.0046
 20
426.133983398438
 30
0.0
 11
173.0306
 21
426.045983398438
 31
0.0
 0
LINE
 5
4C2
100
AcDbEntity
 8
Layer8
100
AcDbLine
 39
0.25
 370
106
 10
173.0306
 20
426.045983398438
 30
0.0
 11
169.1146
 21
426.045983398438
 31
0.0
 0
LINE
 5
4C3
100
AcDbEntity
 8
Layer8
100
AcDbLine
 39
0.25
 370
106
 10
169.1409
 20
426.045983398438
 30
0.0
 11
169.1659
 21
426.133983398438
 31
0.0
 0
LINE
 5
4C4
100
AcDbEntity
 8
Layer8
100
AcDbLine
 39
0.25
 370
106
 10
169.1659
 20
426.133983398438
 30
0.0
 11
173.0099
 21
426.133983398438
 31
0.0
 0
LINE
 5
4C5
100
AcDbEntity
 8
Layer8
100
AcDbLine
 39
0.25
 370
106
 10
173.0099
 20
426.133983398438
 30
0.0
 11
173.0359
 21
426.045983398438
 31
0.0
 0
LINE
 5
4C6
100
AcDbEntity
 8
Layer8
100
AcDbLine
 39
0.25
 370
106
 10
173.0359
 20
426.045983398438
 30
0.0
 11
169.1409
 21
426.045983398438
 31
0.0
 0
LINE
 5
4C7
100
AcDbEntity
 8
Layer8
100
AcDbLine
 39
0.25
 370
106
 10
171.4957
 20
462.233883398438
 30
0.0
 11
171.4957
 21
488.492883398438
 31
0.0
 0
LINE
 5
4C8
100
AcDbEntity
 8
Layer8
100
AcDbLine
 39
0.25
 370
106
 10
171.4957
 20
458.863483398437
 30
0.0
 11
171.4957
 21
488.399483398438
 31
0.0
 0
LINE
 5
4C9
100
AcDbEntity
 8
Layer8
100
AcDbLine
 39
0.25
 370
106
 10
170.8732
 20
488.493583398438
 30
0.0
 11
170.8732
 21
461.941583398438
 31
0.0
 0
LINE
 5
4CA
100
AcDbEntity
 8
Layer8
100
AcDbLine
 39
0.25
 370
106
 10
170.8732
 20
488.399483398438
 30
0.0
 11
170.8732
 21
458.366483398437
 31
0.0
 0
LINE
 5
4CB
100
AcDbEntity
 8
Layer8
100
AcDbLine
 39
0.25
 370
106
 10
170.8732
 20
458.735883398438
 30
0.0
 11
170.8732
 21
437.387883398438
 31
0.0
 0
LINE
 5
4CC
100
AcDbEntity
 8
Layer8
100
AcDbLine
 39
0.25
 370
106
 10
170.8732
 20
458.641583398437
 30
0.0
 11
170.8732
 21
437.482583398438
 31
0.0
 0
LINE
 5
4CD
100
AcDbEntity
 8
Layer8
100
AcDbLine
 39
0.25
 370
106
 10
171.4957
 20
437.387583398438
 30
0.0
 11
171.4957
 21
459.202583398438
 31
0.0
 0
LINE
 5
4CE
100
AcDbEntity
 8
Layer8
100
AcDbLine
 39
0.25
 370
106
 10
171.4957
 20
437.481783398438
 30
0.0
 11
171.4957
 21
459.108783398438
 31
0.0
 0
LINE
 5
4CF
100
AcDbEntity
 8
Layer8
100
AcDbLine
 39
0.25
 370
106
 10
198.365
 20
435.386083398438
 30
0.0
 11
198.365
 21
492.820083398438
 31
0.0
 0
LINE
 5
4D0
100
AcDbEntity
 8
Layer8
100
AcDbLine
 39
0.25
 370
106
 10
143.1392
 20
435.386083398438
 30
0.0
 11
143.1392
 21
492.820083398438
 31
0.0
 0
LINE
 5
4D1
100
AcDbEntity
 8
Layer8
100
AcDbLine
 39
0.25
 370
106
 10
51.6879
 20
413.950883398438
 30
0.0
 11
58.2729
 21
413.950883398438
 31
0.0
 0
LINE
 5
4D2
100
AcDbEntity
 8
Layer8
100
AcDbLine
 39
0.25
 370
106
 10
51.6879
 20
438.808883398438
 30
0.0
 11
58.2729
 21
438.808883398438
 31
0.0
 0
LINE
 5
4D3
100
AcDbEntity
 8
Layer8
100
AcDbLine
 39
0.25
 370
106
 10
163.7923
 20
505.124283398438
 30
0.0
 11
163.7923
 21
499.196283398438
 31
0.0
 0
LINE
 5
4D4
100
AcDbEntity
 8
Layer8
100
AcDbLine
 39
0.25
 370
106
 10
178.4298
 20
505.124283398438
 30
0.0
 11
178.4298
 21
499.196283398438
 31
0.0
 0
LINE
 5
4D5
100
AcDbEntity
 8
Layer8
100
AcDbLine
 39
0.25
 370
106
 10
155.7656
 20
492.782383398438
 30
0.0
 11
149.8376
 21
492.782383398438
 31
0.0
 0
HATCH
 5
4D6
100
AcDbEntity
 8
Layer22
100
AcDbHatch
 10
 0.0
 20
 0.0
 30
 0.0
 210
 0.0
 220
 0.0
 230
 1.0
 2
SOLID
 70
 1
 71
 1
 91
1              
 92
 0
 93
42             
 72
 1
 10
31.1159
 20
12.8980833984375
 11
35.1539
 21
12.8980833984375
 72
 1
 10
35.1539
 20
12.8980833984375
 11
35.0329
 21
21.7790833984375
 72
 1
 10
35.0329
 20
21.7790833984375
 11
35.021788671875
 21
22.4608744140625
 72
 1
 10
35.021788671875
 20
22.4608744140625
 11
35.009259375
 21
23.1927865234375
 72
 1
 10
35.009259375
 20
23.1927865234375
 11
34.993894140625
 21
23.9576283203124
 72
 1
 10
34.993894140625
 20
23.9576283203124
 11
34.974275
 21
24.7382083984375
 72
 1
 10
34.974275
 20
24.7382083984375
 11
34.948983984375
 21
25.5173353515626
 72
 1
 10
34.948983984375
 20
25.5173353515626
 11
34.916603125
 21
26.2778177734375
 72
 1
 10
34.916603125
 20
26.2778177734375
 11
34.875714453125
 21
27.0024642578126
 72
 1
 10
34.875714453125
 20
27.0024642578126
 11
34.8249
 21
27.6740833984375
 72
 1
 10
34.8249
 20
27.6740833984375
 11
35.011023046875
 21
27.1182494140626
 72
 1
 10
35.011023046875
 20
27.1182494140626
 11
35.268759375
 21
26.4314115234375
 72
 1
 10
35.268759375
 20
26.4314115234375
 11
35.585909765625
 21
25.6366908203125
 72
 1
 10
35.585909765625
 20
25.6366908203125
 11
35.950275
 21
24.7572083984376
 72
 1
 10
35.950275
 20
24.7572083984376
 11
36.349655859375
 21
23.8160853515626
 72
 1
 10
36.349655859375
 20
23.8160853515626
 11
36.771853125
 21
22.8364427734375
 72
 1
 10
36.771853125
 20
22.8364427734375
 11
37.204667578125
 21
21.8414017578126
 72
 1
 10
37.204667578125
 20
21.8414017578126
 11
37.6359
 21
20.8540833984375
 72
 1
 10
37.6359
 20
20.8540833984375
 11
41.1959
 21
12.8980833984375
 72
 1
 10
41.1959
 20
12.8980833984375
 11
45.5619
 21
12.8980833984375
 72
 1
 10
45.5619
 20
12.8980833984375
 11
45.5619
 21
33.6840833984375
 72
 1
 10
45.5619
 20
33.6840833984375
 11
41.5839
 21
33.6840833984375
 72
 1
 10
41.5839
 20
33.6840833984375
 11
41.6739
 21
25.1900833984375
 72
 1
 10
41.6739
 20
25.1900833984375
 11
41.690249609375
 21
24.5988001953125
 72
 1
 10
41.690249609375
 20
24.5988001953125
 11
41.716571875
 21
23.9190052734375
 72
 1
 10
41.716571875
 20
23.9190052734375
 11
41.751401953125
 21
23.1774056640625
 72
 1
 10
41.751401953125
 20
23.1774056640625
 11
41.793275
 21
22.4007083984375
 72
 1
 10
41.793275
 20
22.4007083984375
 11
41.840726171875
 21
21.6156205078125
 72
 1
 10
41.840726171875
 20
21.6156205078125
 11
41.892290625
 21
20.8488490234375
 72
 1
 10
41.892290625
 20
20.8488490234375
 11
41.946503515625
 21
20.1271009765625
 72
 1
 10
41.946503515625
 20
20.1271009765625
 11
42.0019
 21
19.4770833984375
 72
 1
 10
42.0019
 20
19.4770833984375
 11
41.8272046875
 21
20.0687201171875
 72
 1
 10
41.8272046875
 20
20.0687201171875
 11
41.617775
 21
20.7172396484375
 72
 1
 10
41.617775
 20
20.7172396484375
 11
41.3753453125
 21
21.4149310546875
 72
 1
 10
41.3753453125
 20
21.4149310546875
 11
41.10165
 21
22.1540833984375
 72
 1
 10
41.10165
 20
22.1540833984375
 11
40.7984234375
 21
22.9269857421874
 72
 1
 10
40.7984234375
 20
22.9269857421874
 11
40.4674
 21
23.7259271484374
 72
 1
 10
40.4674
 20
23.7259271484374
 11
40.1103140625
 21
24.5431966796875
 72
 1
 10
40.1103140625
 20
24.5431966796875
 11
39.7289
 21
25.3710833984375
 72
 1
 10
39.7289
 20
25.3710833984375
 11
35.7529
 21
33.6840833984375
 72
 1
 10
35.7529
 20
33.6840833984375
 11
31.1159
 21
33.6840833984375
 72
 1
 10
31.1159
 20
33.6840833984375
 11
31.1159
 21
12.8980833984375
 97
 1
 330
4D7
 75
 0
 76
 1
 98
 1
 10
 0.0
 20
 0.0
 0
HATCH
 5
4D8
100
AcDbEntity
 8
Layer22
100
AcDbHatch
 10
 0.0
 20
 0.0
 30
 0.0
 210
 0.0
 220
 0.0
 230
 1.0
 2
SOLID
 70
 1
 71
 1
 91
1              
 92
 0
 93
12             
 72
 1
 10
48.07
 20
33.6843833984375
 11
48.07
 21
12.8983833984375
 72
 1
 10
48.07
 20
12.8983833984375
 11
60.184
 21
12.8983833984375
 72
 1
 10
60.184
 20
12.8983833984375
 11
60.184
 21
16.4873833984375
 72
 1
 10
60.184
 20
16.4873833984375
 11
52.319
 21
16.4873833984375
 72
 1
 10
52.319
 20
16.4873833984375
 11
52.319
 21
22.0493833984375
 72
 1
 10
52.319
 20
22.0493833984375
 11
58.209
 21
22.0493833984375
 72
 1
 10
58.209
 20
22.0493833984375
 11
58.209
 21
25.4603833984374
 72
 1
 10
58.209
 20
25.4603833984374
 11
52.257
 21
25.4603833984374
 72
 1
 10
52.257
 20
25.4603833984374
 11
52.257
 21
30.2743833984375
 72
 1
 10
52.257
 20
30.2743833984375
 11
59.375
 21
30.2743833984375
 72
 1
 10
59.375
 20
30.2743833984375
 11
59.914
 21
33.6843833984375
 72
 1
 10
59.914
 20
33.6843833984375
 11
48.07
 21
33.6843833984375
 97
 1
 330
4D9
 75
 0
 76
 1
 98
 1
 10
 0.0
 20
 0.0
 0
HATCH
 5
4DA
100
AcDbEntity
 8
Layer22
100
AcDbHatch
 10
 0.0
 20
 0.0
 30
 0.0
 210
 0.0
 220
 0.0
 230
 1.0
 2
SOLID
 70
 1
 71
 1
 91
1              
 92
 0
 93
49             
 72
 1
 10
61.7374
 20
12.8980833984375
 11
65.9544
 21
12.8980833984375
 72
 1
 10
65.9544
 20
12.8980833984375
 11
66.6714
 21
23.7550833984375
 72
 1
 10
66.6714
 20
23.7550833984375
 11
66.703398046875
 21
24.2317767578124
 72
 1
 10
66.703398046875
 20
24.2317767578124
 11
66.732384375
 21
24.6995052734375
 72
 1
 10
66.732384375
 20
24.6995052734375
 11
66.757972265625
 21
25.1603666015625
 72
 1
 10
66.757972265625
 20
25.1603666015625
 11
66.779775
 21
25.6164583984375
 72
 1
 10
66.779775
 20
25.6164583984375
 11
66.797405859375
 21
26.0698783203125
 72
 1
 10
66.797405859375
 20
26.0698783203125
 11
66.810478125
 21
26.5227240234375
 72
 1
 10
66.810478125
 20
26.5227240234375
 11
66.818605078125
 21
26.9770931640625
 72
 1
 10
66.818605078125
 20
26.9770931640625
 11
66.8214
 21
27.4350833984375
 72
 1
 10
66.8214
 20
27.4350833984375
 11
70.6204
 21
12.8980833984375
 72
 1
 10
70.6204
 20
12.8980833984375
 11
74.2994
 21
12.8980833984375
 72
 1
 10
74.2994
 20
12.8980833984375
 11
75.553503515625
 21
17.2640541015625
 72
 1
 10
75.553503515625
 20
17.2640541015625
 11
76.498853125
 21
20.5595990234375
 72
 1
 10
76.498853125
 20
20.5595990234375
 11
77.182757421875
 21
22.9536673828125
 72
 1
 10
77.182757421875
 20
22.9536673828125
 11
77.652525
 21
24.6152083984375
 72
 1
 10
77.652525
 20
24.6152083984375
 11
77.955464453125
 21
25.7131712890625
 72
 1
 10
77.955464453125
 20
25.7131712890625
 11
78.138884375
 21
26.4165052734376
 72
 1
 10
78.138884375
 20
26.4165052734376
 11
78.250093359375
 21
26.8941595703125
 72
 1
 10
78.250093359375
 20
26.8941595703125
 11
78.3364
 21
27.3150833984375
 72
 1
 10
78.3364
 20
27.3150833984375
 11
78.37752109375
 21
26.3774857421874
 72
 1
 10
78.37752109375
 20
26.3774857421874
 11
78.48593125
 21
24.5949896484375
 72
 1
 10
78.48593125
 20
24.5949896484375
 11
78.63920078125
 21
22.2665404296876
 72
 1
 10
78.63920078125
 20
22.2665404296876
 11
78.8149
 21
19.6910833984375
 72
 1
 10
78.8149
 20
19.6910833984375
 11
78.99059921875
 21
17.1675638671876
 72
 1
 10
78.99059921875
 20
17.1675638671876
 11
79.14386875
 21
14.9949271484376
 72
 1
 10
79.14386875
 20
14.9949271484376
 11
79.25227890625
 21
13.4721185546874
 72
 1
 10
79.25227890625
 20
13.4721185546874
 11
79.2934
 21
12.8980833984375
 72
 1
 10
79.2934
 20
12.8980833984375
 11
83.4214
 21
12.8980833984375
 72
 1
 10
83.4214
 20
12.8980833984375
 11
81.5674
 21
33.6840833984375
 72
 1
 10
81.5674
 20
33.6840833984375
 11
76.0934
 21
33.6840833984375
 72
 1
 10
76.0934
 20
33.6840833984375
 11
74.987562109375
 21
29.5553412109375
 72
 1
 10
74.987562109375
 20
29.5553412109375
 11
74.154009375
 21
26.4395208984374
 72
 1
 10
74.154009375
 20
26.4395208984374
 11
73.551058203125
 21
24.1774818359374
 72
 1
 10
73.551058203125
 20
24.1774818359374
 11
73.137025
 21
22.6100833984375
 72
 1
 10
73.137025
 20
22.6100833984375
 11
72.870226171875
 21
21.5781849609375
 72
 1
 10
72.870226171875
 20
21.5781849609375
 11
72.708978125
 21
20.9226458984375
 72
 1
 10
72.708978125
 20
20.9226458984375
 11
72.611597265625
 21
20.4843255859375
 72
 1
 10
72.611597265625
 20
20.4843255859375
 11
72.5364
 21
20.1040833984375
 72
 1
 10
72.5364
 20
20.1040833984375
 11
72.336534765625
 21
20.9971029296876
 72
 1
 10
72.336534765625
 20
20.9971029296876
 11
71.922228125
 21
22.6807396484375
 72
 1
 10
71.922228125
 20
22.6807396484375
 11
71.367788671875
 21
24.8746107421875
 72
 1
 10
71.367788671875
 20
24.8746107421875
 11
70.747525
 21
27.2983333984375
 72
 1
 10
70.747525
 20
27.2983333984375
 11
70.135745703125
 21
29.6715248046875
 72
 1
 10
70.135745703125
 20
29.6715248046875
 11
69.606759375
 21
31.7138021484375
 72
 1
 10
69.606759375
 20
31.7138021484375
 11
69.234874609375
 21
33.1447826171874
 72
 1
 10
69.234874609375
 20
33.1447826171874
 11
69.0944
 21
33.6840833984375
 72
 1
 10
69.0944
 20
33.6840833984375
 11
63.6824
 21
33.6840833984375
 72
 1
 10
63.6824
 20
33.6840833984375
 11
61.7374
 21
12.8980833984375
 97
 1
 330
4DB
 75
 0
 76
 1
 98
 1
 10
 0.0
 20
 0.0
 0
HATCH
 5
4DC
100
AcDbEntity
 8
Layer22
100
AcDbHatch
 10
 0.0
 20
 0.0
 30
 0.0
 210
 0.0
 220
 0.0
 230
 1.0
 2
SOLID
 70
 1
 71
 1
 91
2              
 92
 0
 93
56             
 72
 1
 10
97.3103
 20
28.0922833984375
 11
97.435872265625
 21
27.6373654296875
 72
 1
 10
97.435872265625
 20
27.6373654296875
 11
97.544815625
 21
27.1460021484374
 72
 1
 10
97.544815625
 20
27.1460021484374
 11
97.637094921875
 21
26.6154044921875
 72
 1
 10
97.637094921875
 20
26.6154044921875
 11
97.712675
 21
26.0427833984376
 72
 1
 10
97.712675
 20
26.0427833984376
 11
97.771520703125
 21
25.4253498046875
 72
 1
 10
97.771520703125
 20
25.4253498046875
 11
97.813596875
 21
24.7603146484375
 72
 1
 10
97.813596875
 20
24.7603146484375
 11
97.838868359375
 21
24.0448888671875
 72
 1
 10
97.838868359375
 20
24.0448888671875
 11
97.8473
 21
23.2762833984375
 72
 1
 10
97.8473
 20
23.2762833984375
 11
97.788997265625
 21
21.4343771484375
 72
 1
 10
97.788997265625
 20
21.4343771484375
 11
97.610565625
 21
19.8709083984375
 72
 1
 10
97.610565625
 20
19.8709083984375
 11
97.306719921875
 21
18.5757521484375
 72
 1
 10
97.306719921875
 20
18.5757521484375
 11
96.872175
 21
17.5387833984375
 72
 1
 10
96.872175
 20
17.5387833984375
 11
96.301645703125
 21
16.7498771484375
 72
 1
 10
96.301645703125
 20
16.7498771484375
 11
95.589846875
 21
16.1989083984375
 72
 1
 10
95.589846875
 20
16.1989083984375
 11
94.731493359375
 21
15.8757521484375
 72
 1
 10
94.731493359375
 20
15.8757521484375
 11
93.7213
 21
15.7702833984375
 72
 1
 10
93.7213
 20
15.7702833984375
 11
93.35793671875
 21
15.7814474609376
 72
 1
 10
93.35793671875
 20
15.7814474609376
 11
93.00908125
 21
15.8149708984375
 72
 1
 10
93.00908125
 20
15.8149708984375
 11
92.67508515625
 21
15.8709005859375
 72
 1
 10
92.67508515625
 20
15.8709005859375
 11
92.3563
 21
15.9492833984375
 72
 1
 10
92.3563
 20
15.9492833984375
 11
92.05307734375
 21
16.0501662109375
 72
 1
 10
92.05307734375
 20
16.0501662109375
 11
91.76576875
 21
16.1735958984375
 72
 1
 10
91.76576875
 20
16.1735958984375
 11
91.49472578125
 21
16.3196193359375
 72
 1
 10
91.49472578125
 20
16.3196193359375
 11
91.2403
 21
16.4882833984375
 72
 1
 10
91.2403
 20
16.4882833984375
 11
90.807649609375
 21
16.8957501953125
 72
 1
 10
90.807649609375
 20
16.8957501953125
 11
90.431659375
 21
17.4250802734375
 72
 1
 10
90.431659375
 20
17.4250802734375
 11
90.112645703125
 21
18.0772931640624
 72
 1
 10
90.112645703125
 20
18.0772931640624
 11
89.850925
 21
18.8534083984374
 72
 1
 10
89.850925
 20
18.8534083984374
 11
89.646813671875
 21
19.7544455078125
 72
 1
 10
89.646813671875
 20
19.7544455078125
 11
89.500628125
 21
20.7814240234375
 72
 1
 10
89.500628125
 20
20.7814240234375
 11
89.412684765625
 21
21.9353634765625
 72
 1
 10
89.412684765625
 20
21.9353634765625
 11
89.3833
 21
23.2172833984375
 72
 1
 10
89.3833
 20
23.2172833984375
 11
89.3988390625
 21
24.1274025390626
 72
 1
 10
89.3988390625
 20
24.1274025390626
 11
89.445925
 21
24.9754240234374
 72
 1
 10
89.445925
 20
24.9754240234374
 11
89.5252609375
 21
25.7638439453125
 72
 1
 10
89.5252609375
 20
25.7638439453125
 11
89.63755
 21
26.4951583984375
 72
 1
 10
89.63755
 20
26.4951583984375
 11
89.7834953125
 21
27.1718634765625
 72
 1
 10
89.7834953125
 20
27.1718634765625
 11
89.9638
 21
27.7964552734375
 72
 1
 10
89.9638
 20
27.7964552734375
 11
90.1791671875
 21
28.3714298828125
 72
 1
 10
90.1791671875
 20
28.3714298828125
 11
90.4303
 21
28.8992833984375
 72
 1
 10
90.4303
 20
28.8992833984375
 11
90.67482734375
 21
29.2952013671875
 72
 1
 10
90.67482734375
 20
29.2952013671875
 11
90.97745625
 21
29.6508771484375
 72
 1
 10
90.97745625
 20
29.6508771484375
 11
91.33188203125
 21
29.9624435546875
 72
 1
 10
91.33188203125
 20
29.9624435546875
 11
91.7318
 21
30.2260333984375
 72
 1
 10
91.7318
 20
30.2260333984375
 11
92.17090546875
 21
30.4377794921875
 72
 1
 10
92.17090546875
 20
30.4377794921875
 11
92.64289375
 21
30.5938146484375
 72
 1
 10
92.64289375
 20
30.5938146484375
 11
93.14146015625
 21
30.6902716796874
 72
 1
 10
93.14146015625
 20
30.6902716796874
 11
93.6603
 21
30.7232833984375
 72
 1
 10
93.6603
 20
30.7232833984375
 11
94.439630078125
 21
30.6532169921875
 72
 1
 10
94.439630078125
 20
30.6532169921875
 11
95.118940625
 21
30.4595646484374
 72
 1
 10
95.118940625
 20
30.4595646484374
 11
95.702087109375
 21
30.1671466796874
 72
 1
 10
95.702087109375
 20
30.1671466796874
 11
96.192925
 21
29.8007833984375
 72
 1
 10
96.192925
 20
29.8007833984375
 11
96.595309765625
 21
29.3852951171875
 72
 1
 10
96.595309765625
 20
29.3852951171875
 11
96.913096875
 21
28.9455021484375
 72
 1
 10
96.913096875
 20
28.9455021484375
 11
97.150141796875
 21
28.5062248046875
 72
 1
 10
97.150141796875
 20
28.5062248046875
 11
97.3103
 21
28.0922833984375
 97
 1
 330
4DD
 92
 0
 93
56             
 72
 1
 10
89.4143
 20
32.9372833984376
 11
88.361770703125
 21
32.2319025390625
 72
 1
 10
88.361770703125
 20
32.2319025390625
 11
87.430378125
 21
31.3562365234375
 72
 1
 10
87.430378125
 20
31.3562365234375
 11
86.626040234375
 21
30.3226251953125
 72
 1
 10
86.626040234375
 20
30.3226251953125
 11
85.954675
 21
29.1434083984375
 72
 1
 10
85.954675
 20
29.1434083984375
 11
85.422200390625
 21
27.8309259765625
 72
 1
 10
85.422200390625
 20
27.8309259765625
 11
85.034534375
 21
26.3975177734376
 72
 1
 10
85.034534375
 20
26.3975177734376
 11
84.797594921875
 21
24.8555236328125
 72
 1
 10
84.797594921875
 20
24.8555236328125
 11
84.7173
 21
23.2172833984375
 72
 1
 10
84.7173
 20
23.2172833984375
 11
84.755114453125
 21
22.0929416015625
 72
 1
 10
84.755114453125
 20
22.0929416015625
 11
84.868315625
 21
21.0102365234375
 72
 1
 10
84.868315625
 20
21.0102365234375
 11
85.056540234375
 21
19.9711486328124
 72
 1
 10
85.056540234375
 20
19.9711486328124
 11
85.319425
 21
18.9776583984375
 72
 1
 10
85.319425
 20
18.9776583984375
 11
85.656606640625
 21
18.0317462890624
 72
 1
 10
85.656606640625
 20
18.0317462890624
 11
86.067721875
 21
17.1353927734375
 72
 1
 10
86.067721875
 20
17.1353927734375
 11
86.552407421875
 21
16.2905783203124
 72
 1
 10
86.552407421875
 20
16.2905783203124
 11
87.1103
 21
15.4992833984375
 72
 1
 10
87.1103
 20
15.4992833984375
 11
87.727048046875
 21
14.7813224609374
 72
 1
 10
87.727048046875
 20
14.7813224609374
 11
88.393659375
 21
14.1714083984375
 72
 1
 10
88.393659375
 20
14.1714083984375
 11
89.117809765625
 21
13.6657443359376
 72
 1
 10
89.117809765625
 20
13.6657443359376
 11
89.907175
 21
13.2605333984375
 72
 1
 10
89.907175
 20
13.2605333984375
 11
90.769430859375
 21
12.9519787109376
 72
 1
 10
90.769430859375
 20
12.9519787109376
 11
91.712253125
 21
12.7362833984375
 72
 1
 10
91.712253125
 20
12.7362833984375
 11
92.743317578125
 21
12.6096505859375
 72
 1
 10
92.743317578125
 20
12.6096505859375
 11
93.8703
 21
12.5682833984375
 72
 1
 10
93.8703
 20
12.5682833984375
 11
94.495536328125
 21
12.5812736328126
 72
 1
 10
94.495536328125
 20
12.5812736328126
 11
95.075128125
 21
12.6213927734375
 72
 1
 10
95.075128125
 20
12.6213927734375
 11
95.616774609375
 21
12.6903634765627
 72
 1
 10
95.616774609375
 20
12.6903634765627
 11
96.128175
 21
12.7899083984375
 72
 1
 10
96.128175
 20
12.7899083984375
 11
96.617028515625
 21
12.9217501953125
 72
 1
 10
96.617028515625
 20
12.9217501953125
 11
97.091034375
 21
13.0876115234374
 72
 1
 10
97.091034375
 20
13.0876115234374
 11
97.557891796875
 21
13.2892150390626
 72
 1
 10
97.557891796875
 20
13.2892150390626
 11
98.0253
 21
13.5282833984375
 72
 1
 10
98.0253
 20
13.5282833984375
 11
99.08428046875
 21
14.2397345703125
 72
 1
 10
99.08428046875
 20
14.2397345703125
 11
100.01339375
 21
15.1151427734375
 72
 1
 10
100.01339375
 20
15.1151427734375
 11
100.80914765625
 21
16.1470900390625
 72
 1
 10
100.80914765625
 20
16.1470900390625
 11
101.46805
 21
17.3281583984375
 72
 1
 10
101.46805
 20
17.3281583984375
 11
101.98660859375
 21
18.6509298828124
 72
 1
 10
101.98660859375
 20
18.6509298828124
 11
102.36133125
 21
20.1079865234376
 72
 1
 10
102.36133125
 20
20.1079865234376
 11
102.58872578125
 21
21.6919103515626
 72
 1
 10
102.58872578125
 20
21.6919103515626
 11
102.6653
 21
23.3952833984375
 72
 1
 10
102.6653
 20
23.3952833984375
 11
102.5078859375
 21
25.7212306640625
 72
 1
 10
102.5078859375
 20
25.7212306640625
 11
102.0457375
 21
27.7961740234375
 72
 1
 10
102.0457375
 20
27.7961740234375
 11
101.2939953125
 21
29.6018908203125
 72
 1
 10
101.2939953125
 20
29.6018908203125
 11
100.2678
 21
31.1201583984375
 72
 1
 10
100.2678
 20
31.1201583984375
 11
98.9822921875
 21
32.3327541015626
 72
 1
 10
98.9822921875
 20
32.3327541015626
 11
97.4526125
 21
33.2214552734375
 72
 1
 10
97.4526125
 20
33.2214552734375
 11
95.6939015625
 21
33.7680392578126
 72
 1
 10
95.6939015625
 20
33.7680392578126
 11
93.7213
 21
33.9542833984375
 72
 1
 10
93.7213
 20
33.9542833984375
 11
93.139735546875
 21
33.9375724609375
 72
 1
 10
93.139735546875
 20
33.9375724609375
 11
92.564159375
 21
33.8879083984375
 72
 1
 10
92.564159375
 20
33.8879083984375
 11
91.997747265625
 21
33.8059943359375
 72
 1
 10
91.997747265625
 20
33.8059943359375
 11
91.443675
 21
33.6925333984375
 72
 1
 10
91.443675
 20
33.6925333984375
 11
90.905118359375
 21
33.5482287109376
 72
 1
 10
90.905118359375
 20
33.5482287109376
 11
90.385253125
 21
33.3737833984375
 72
 1
 10
90.385253125
 20
33.3737833984375
 11
89.887255078125
 21
33.1699005859376
 72
 1
 10
89.887255078125
 20
33.1699005859376
 11
89.4143
 21
32.9372833984376
 97
 1
 330
4DE
 75
 0
 76
 1
 98
 1
 10
 0.0
 20
 0.0
 0
LINE
 5
4DF
100
AcDbEntity
 8
Layer8
100
AcDbLine
 39
0.25
 370
106
 10
155.7656
 20
489.598283398438
 30
0.0
 11
149.8376
 21
489.598283398438
 31
0.0
 0
TEXT
 5
4E0
100
AcDbEntity
 8
Layer8
100
AcDbText
 40
9.6
 41
0.61000
 72
0
 50
0
  1
cable lenght 2,5m
  7
STANDARD
 10
121.6543
 20
75.6614833984375
 30
0.0
 11
121.6543
 21
75.6614833984375
 31
0.0
100
AcDbText
 73
  1
 0
TEXT
 5
4E1
100
AcDbEntity
 8
Layer8
100
AcDbText
 40
9.6
 41
0.61000
 72
0
 50
0
  1
109
  7
STANDARD
 10
166.9873
 20
162.105383398438
 30
0.0
 11
166.9873
 21
162.105383398438
 31
0.0
100
AcDbText
 73
  1
 0
TEXT
 5
4E2
100
AcDbEntity
 8
Layer8
100
AcDbText
 40
9.6
 41
0.61000
 72
0
 50
-270
  1
113
  7
STANDARD
 10
39.7739
 20
273.949583398437
 30
0.0
 11
39.7739
 21
273.949583398437
 31
0.0
100
AcDbText
 73
  1
 0
TEXT
 5
4E3
100
AcDbEntity
 8
Layer8
100
AcDbText
 40
9.6
 41
0.61000
 72
0
 50
-270
  1
16
  7
STANDARD
 10
59.5879
 20
420.627783398437
 30
0.0
 11
59.5879
 21
420.627783398437
 31
0.0
100
AcDbText
 73
  1
 0
TEXT
 5
4E4
100
AcDbEntity
 8
Layer8
100
AcDbText
 40
9.6
 41
0.61000
 72
0
 50
0
  1
Ø11
  7
STANDARD
 10
163.1318
 20
511.226483398437
 30
0.0
 11
163.1318
 21
511.226483398437
 31
0.0
100
AcDbText
 73
  1
 0
TEXT
 5
4E5
100
AcDbEntity
 8
Layer8
100
AcDbText
 40
9.6
 41
0.61000
 72
0
 50
-270
  1
3
  7
STANDARD
 10
137.1572
 20
488.669283398438
 30
0.0
 11
137.1572
 21
488.669283398438
 31
0.0
100
AcDbText
 73
  1
  0
ENDSEC
  0
SECTION
  2
OBJECTS
  0
DICTIONARY
  5
19
100
AcDbDictionary
  3
ACAD_GROUP
350
1A
  3
ACAD_MLINESTYLE
350
1B
  0
DICTIONARY
  5
1A
102
{ACAD_REACTORS
330
19
102
}
100
AcDbDictionary
  0
DICTIONARY
  5
1B
102
{ACAD_REACTORS
330
19
102
}
100
AcDbDictionary
  3
STANDARD
350
1C
  0
MLINESTYLE
  5
1C
102
{ACAD_REACTORS
330
1B
102
}
100
AcDbMlineStyle
  2
STANDARD
 70
     0
  3

 62
     0
 51
90.0
 52
90.0
 71
     2
 49
0.5
 62
   256
  6
BYLAYER
 49
-0.5
 62
   256
  6
BYLAYER
  0
ENDSEC
  0
EOF
