 999
SCAN2CAD Date : 01/26/16
 999
SCAN2CAD ScalePixelX : 1
 999
SCAN2CAD ScalePixelY : 1
 999
SCAN2CAD TileXOffset : 0
 999
SCAN2CAD TileYOffset : 0
 999
SCAN2CAD MeasureType : 1
 999
SCAN2CAD DotsPerInch : 0
 999
SCAN2CAD GeScalePixX : 1
 999
SCAN2CAD GeScalePixY : 1
 999
SCAN2CAD GeRasTiePtX : 0
 999
SCAN2CAD GeRasTiePtY : 0
 999
SCAN2CAD ScalRasDist : 1
 999
SCAN2CAD ScalVecDist : 1
 999
SCAN2CAD ScalUnitTyp : 0
 999
SCAN2CAD ScalDistFac : 1
 999
SCAN2CAD ScalAdjustX : 1
 999
SCAN2CAD ScalAdjustY : 1
 999
SCAN2CAD MeasureMeth : 1
 999
SCAN2CAD OgDrawScale : 1
 999
SCAN2CAD OgDrawUType : 0
 999
SCAN2CAD ToDrawScale : 1
 999
SCAN2CAD ToDrawUType : 0
  0
SECTION
  2
HEADER
  9
$ACADVER
  1
AC1014
  9
$ACADMAINTVER
 70
     0
  9
$DWGCODEPAGE
  3
ANSI_1252
  9
$INSBASE
 10
0.0
 20
0.0
 30
0.0
 9
$EXTMIN
 10
25.6333999999983
 20
14.7542122070313
 30
0.0
 9
$EXTMAX
 10
139.8828
 20
518.369912207031
 30
0.0
 9
$LIMMIN
 10
0
 20
0
 9
$LIMMAX
 10
170
 20
544
  9
$ORTHOMODE
 70
     0
  9
$REGENMODE
 70
     1
  9
$FILLMODE
 70
     1
  9
$QTEXTMODE
 70
     0
  9
$MIRRTEXT
 70
     1
  9
$DRAGMODE
 70
     2
  9
$LTSCALE
 40
1.0
  9
$OSMODE
 70
     0
  9
$ATTMODE
 70
     1
  9
$TEXTSIZE
 40
0.2
  9
$TRACEWID
 40
0.05
  9
$TEXTSTYLE
  7
STANDARD
  9
$CLAYER
  8
0
  9
$CELTYPE
  6
CONTINUOUS
  9
$CECOLOR
 62
   256
  9
$CELTSCALE
 40
1.0
  9
$DELOBJ
 70
     1
  9
$DISPSILH
 70
     0
  9
$DIMSCALE
 40
1.0
  9
$DIMASZ
 40
0.18
  9
$DIMEXO
 40
0.0625
  9
$DIMDLI
 40
0.38
  9
$DIMRND
 40
0.0
  9
$DIMDLE
 40
0.0
  9
$DIMEXE
 40
0.18
  9
$DIMTP
 40
0.0
  9
$DIMTM
 40
0.0
  9
$DIMTXT
 40
0.18
  9
$DIMCEN
 40
0.09
  9
$DIMTSZ
 40
0.0
  9
$DIMTOL
 70
     0
  9
$DIMLIM
 70
     0
  9
$DIMTIH
 70
     1
  9
$DIMTOH
 70
     1
  9
$DIMSE1
 70
     0
  9
$DIMSE2
 70
     0
  9
$DIMTAD
 70
     0
  9
$DIMZIN
 70
     0
  9
$DIMBLK
  1

  9
$DIMASO
 70
     1
  9
$DIMSHO
 70
     1
  9
$DIMPOST
  1

  9
$DIMAPOST
  1

  9
$DIMALT
 70
     0
  9
$DIMALTD
 70
     2
  9
$DIMALTF
 40
25.4
  9
$DIMLFAC
 40
1.0
  9
$DIMTOFL
 70
     0
  9
$DIMTVP
 40
0.0
  9
$DIMTIX
 70
     0
  9
$DIMSOXD
 70
     0
  9
$DIMSAH
 70
     0
  9
$DIMBLK1
  1

  9
$DIMBLK2
  1

  9
$DIMSTYLE
  2
STANDARD
  9
$DIMCLRD
 70
     0
  9
$DIMCLRE
 70
     0
  9
$DIMCLRT
 70
     0
  9
$DIMTFAC
 40
1.0
  9
$DIMGAP
 40
0.09
  9
$DIMJUST
 70
     0
  9
$DIMSD1
 70
     0
  9
$DIMSD2
 70
     0
  9
$DIMTOLJ
 70
     1
  9
$DIMTZIN
 70
     0
  9
$DIMALTZ
 70
     0
  9
$DIMALTTZ
 70
     0
  9
$DIMFIT
 70
     3
  9
$DIMUPT
 70
     0
  9
$DIMUNIT
 70
     2
  9
$DIMDEC
 70
     4
  9
$DIMTDEC
 70
     4
  9
$DIMALTU
 70
     2
  9
$DIMALTTD
 70
     2
  9
$DIMTXSTY
  7
STANDARD
  9
$DIMAUNIT
 70
     0
  9
$LUNITS
 70
     2
  9
$LUPREC
 70
     4
  9
$SKETCHINC
 40
0.1
  9
$FILLETRAD
 40
0.0
  9
$AUNITS
 70
     0
  9
$AUPREC
 70
     0
  9
$MENU
  1
acad
  9
$ELEVATION
 40
0.0
  9
$PELEVATION
 40
0.0
  9
$THICKNESS
 40
0.0
  9
$LIMCHECK
 70
     0
  9
$BLIPMODE
 70
     1
  9
$CHAMFERA
 40
0.0
  9
$CHAMFERB
 40
0.0
  9
$CHAMFERC
 40
0.0
  9
$CHAMFERD
 40
0.0
  9
$SKPOLY
 70
     0
  9
$TDCREATE
 40
0.000000000
  9
$TDUPDATE
 40
0.000000000
  9
$TDINDWG
 40
0.0000000000
  9
$TDUSRTIMER
 40
0.0000000000
  9
$USRTIMER
 70
     1
  9
$ANGBASE
 50
0.0
  9
$ANGDIR
 70
     0
  9
$PDMODE
 70
     0
  9
$PDSIZE
 40
0.0
  9
$PLINEWID
 40
0.0
  9
$COORDS
 70
     0
  9
$SPLFRAME
 70
     0
  9
$SPLINETYPE
 70
     6
  9
$SPLINESEGS
 70
     8
  9
$ATTDIA
 70
     0
  9
$ATTREQ
 70
     1
  9
$HANDLING
 70
     1
  9
$HANDSEED
  5
     3E7
  9
$SURFTAB1
 70
     6
  9
$SURFTAB2
 70
     6
  9
$SURFTYPE
 70
     6
  9
$SURFU
 70
     6
  9
$SURFV
 70
     6
  9
$UCSNAME
  2

  9
$UCSORG
 10
0.0
 20
0.0
 30
0.0
  9
$UCSXDIR
 10
1.0
 20
0.0
 30
0.0
  9
$UCSYDIR
 10
0.0
 20
1.0
 30
0.0
  9
$PUCSNAME
  2

  9
$PUCSORG
 10
0.0
 20
0.0
 30
0.0
  9
$PUCSXDIR
 10
1.0
 20
0.0
 30
0.0
  9
$PUCSYDIR
 10
0.0
 20
1.0
 30
0.0
  9
$USERI1
 70
     0
  9
$USERI2
 70
     0
  9
$USERI3
 70
     0
  9
$USERI4
 70
     0
  9
$USERI5
 70
     0
  9
$USERR1
 40
0.0
  9
$USERR2
 40
0.0
  9
$USERR3
 40
0.0
  9
$USERR4
 40
0.0
  9
$USERR5
 40
0.0
  9
$WORLDVIEW
 70
     1
  9
$SHADEDGE
 70
     3
  9
$SHADEDIF
 70
    70
  9
$TILEMODE
 70
     1
  9
$MAXACTVP
 70
    16
  9
$PINSBASE
 10
0.0
 20
0.0
 30
0.0
  9
$PLIMCHECK
 70
     0
 9
$PEXTMIN
 10
25.6333999999983
 20
14.7542122070313
 30
0.0
 9
$PEXTMAX
 10
139.8828
 20
518.369912207031
 30
0.0
 9
$PLIMMIN
 10
0
 20
0
 9
$PLIMMAX
 10
170
 20
544
  9
$UNITMODE
 70
     0
  9
$VISRETAIN
 70
     0
  9
$PLINEGEN
 70
     1
  9
$PSLTSCALE
 70
     0
  9
$TREEDEPTH
 70
  3020
  9
$PICKSTYLE
 70
     1
  9
$CMLSTYLE
  2
STANDARD
  9
$CMLJUST
 70
     0
  9
$CMLSCALE
 40
1.0
  9
$PROXYGRAPHICS
 70
     0
  9
$MEASUREMENT
 70
     0
  0
ENDSEC
  0
SECTION
  2
CLASSES
  0
CLASS
  1
LWPOLYLINE
  2
AcDbPolyline
  3
"AutoCAD"
 90
        0
280
     0
281
     1
  0
CLASS
  1
IMAGE
  2
AcDbRasterImage
  3
ISM
 90
      127
280
     0
281
     1
  0
CLASS
  1
OLE2FRAME
  2
AcDbOle2Frame
  3
""
 90
        0
280
     0
281
     1
  0
CLASS
  1
HATCH
  2
AcDbHatch
  3
"ACAD_SEDONA"
 90
        0
280
     0
281
     1
  0
CLASS
  1
DICTIONARYVAR
  2
AcDbDictionaryVar
  3
"AutoCAD"
 90
        0
280
     0
281
     0
  0
CLASS
  1
RASTERVARIABLES
  2
AcDbRasterVariables
  3
ISM
 90
        0
280
     0
281
     0
  0
CLASS
  1
IMAGEDEF
  2
AcDbRasterImageDef
  3
ISM
 90
        0
280
     0
281
     0
  0
CLASS
  1
IMAGEDEF_REACTOR
  2
AcDbRasterImageDefReactor
  3
ISM
 90
        1
280
     0
281
     0
  0
CLASS
  1
IDBUFFER
  2
AcDbIdBuffer
  3
"Acad"
 90
        0
280
     0
281
     0
  0
CLASS
  1
SPATIAL_FILTER
  2
AcDbSpatialFilter
  3
"Acad"
 90
        0
280
     0
281
     0
  0
CLASS
  1
XRECORD
  2
AcDbXrecord
  3
"<Built In>"
 90
        0
280
     0
281
     0
  0
CLASS
  1
SORTENTSTABLE
  2
AcDbSortentsTable
  3
"AutoCAD"
 90
        0
280
     0
281
     0
  0
CLASS
  1
LAYER_INDEX
  2
AcDbLayerIndex
  3
"Acad"
 90
        0
280
     0
281
     0
  0
CLASS
  1
SPATIAL_INDEX
  2
AcDbSpatialIndex
  3
"Acad"
 90
        0
280
     0
281
     0
  0
CLASS
  1
OBJECT_PTR
  2
CAseDLPNTableRecord
  3
"ASE-LPNTableRecord"
 90
        1
280
     0
281
     0
  0
ENDSEC
  0
SECTION
  2
TABLES
  0
TABLE
  2
VPORT
  5
7
100
AcDbSymbolTable
 70
     1
  0
VPORT
  5
15
100
AcDbSymbolTableRecord
100
AcDbViewportTableRecord
 2
*ACTIVE
 70
     0
 10
0
 20
0
 11
1.0
 21
1.0
 12
0.0
 22
0.0
 13
0.0
 23
0.0
 14
1.0
 24
1.0
 15
0.0
 25
0.0
 16
0.0
 26
0.0
 36
1.0
 17
82.7580999999992
 27
266.562062207031
 37
0.0
 40
507.6157
 41
0.232950635687591
 42
50.0
 43
0.0
 44
0.0
 50
0.0
 51
0.0
 71
     0
 72
   100
 73
     1
 74
     1
 75
     0
 76
     0
 77
     0
 78
     0
   0
ENDTAB
  0
TABLE
  2
LTYPE
  5
4
100
AcDbSymbolTable
 70
3
  0
LTYPE
  5
11
100
AcDbSymbolTableRecord
100
AcDbLinetypeTableRecord
  2
BYBLOCK
 70
     0
  3

 72
    65
 73
     0
 40
0.0
  0
LTYPE
  5
12
100
AcDbSymbolTableRecord
100
AcDbLinetypeTableRecord
  2
BYLAYER
 70
     0
  3

 72
    65
 73
     0
 40
0.0
  0
LTYPE
  5
80
330
5
100
AcDbSymbolTableRecord
100
AcDbLinetypeTableRecord
  2
CONTINUOUS
 70
     0
  3
Continuous
 72
    65
 73
     0
 40
0.0
  0
LTYPE
  5
81
330
5
100
AcDbSymbolTableRecord
100
AcDbLinetypeTableRecord
  2
DASH
 70
     0
  3
Dash
 72
    65
 73
     2
 40
48.0
 49
24.0
 74
     0
 49
-24.0
 74
     0
  0
LTYPE
  5
82
330
5
100
AcDbSymbolTableRecord
100
AcDbLinetypeTableRecord
  2
DASHDOT
 70
     0
  3
DashDot
 72
    65
 73
     4
 40
48.0
 49
24.0
 74
     0
 49
 -12.0
 74
     0
 49
0.0
 74
     0
 49
 -12.0
 74
     0	
  0
ENDTAB
  0
TABLE
  2
LAYER
  5
2
100
AcDbSymbolTable
 70
4              
  0
LAYER
  5
83
100
AcDbSymbolTableRecord
100
AcDbLayerTableRecord
  2
0
 70
     0
 62
     7
  6
CONTINUOUS
 0
LAYER
  5
84
100
AcDbSymbolTableRecord
100
AcDbLayerTableRecord
 2
Layer0
 70
 64
 62
 7
 6
CONTINUOUS
 0
LAYER
  5
85
100
AcDbSymbolTableRecord
100
AcDbLayerTableRecord
 2
Layer8
 70
 64
 62
 8
 6
CONTINUOUS
 0
LAYER
  5
86
100
AcDbSymbolTableRecord
100
AcDbLayerTableRecord
 2
Layer22
 70
 64
 62
 22
 6
CONTINUOUS
  0
ENDTAB
  0
TABLE
  2
STYLE
  5
3
100
AcDbSymbolTable
 70
1              
 0
STYLE
 5
17
100
AcDbSymbolTableRecord
100
AcDbTextStyleTableRecord
 2
STANDARD
 70
 0
 40
 0.0
 41
 1.0
 50
 0.0
 71
  0
 42
 8.0
 3
 txt
 4

  0
ENDTAB
  0
TABLE
  2
VIEW
  5
5
100
AcDbSymbolTable
 70
     0
  0
ENDTAB
  0
TABLE
  2
UCS
  5
6
100
AcDbSymbolTable
 70
     0
  0
ENDTAB
  0
TABLE
  2
APPID
  5
8
100
AcDbSymbolTable
 70
     1
  0
APPID
  5
16
100
AcDbSymbolTableRecord
100
AcDbRegAppTableRecord
  2
ACAD
 70
     0
  0
ENDTAB
  0
TABLE
  2
DIMSTYLE
  5
9
100
AcDbSymbolTable
 70
     1
  0
DIMSTYLE
105
18
100
AcDbSymbolTableRecord
100
AcDbDimStyleTableRecord
  2
STANDARD
 70
     0
  3

  4

  5

  6

  7

 40
1.0
 41
0.18
 42
0.0625
 43
0.38
 44
0.18
 45
0.0
 46
0.0
 47
0.0
 48
0.0
140
0.18
141
0.09
142
0.0
143
25.4
144
1.0
145
0.0
146
1.0
147
0.09
 71
     0
 72
     0
 73
     1
 74
     1
 75
     0
 76
     0
 77
     0
 78
     0
170
     0
171
     2
172
     0
173
     0
174
     0
175
     0
176
     0
177
     0
178
     0
270
     2
271
     4
272
     4
273
     2
274
     2
340
17
275
     0
280
     0
281
     0
282
     0
283
     1
284
     0
285
     0
286
     0
287
     0
288
     0
  0
ENDTAB
  0
TABLE
  2
BLOCK_RECORD
  5
1
100
AcDbSymbolTable
 70
     0
  0
BLOCK_RECORD
  5
A
100
AcDbSymbolTableRecord
100
AcDbBlockTableRecord
  2
*MODEL_SPACE
  0
BLOCK_RECORD
  5
B
100
AcDbSymbolTableRecord
100
AcDbBlockTableRecord
  2
*PAPER_SPACE
  0
ENDTAB
  0
ENDSEC
  0
SECTION
  2
BLOCKS
  0
BLOCK
  5
D
100
AcDbEntity
  8
0
100
AcDbBlockBegin
  2
*MODEL_SPACE
 70
     0
 10
0.0
 20
0.0
 30
0.0
  3
*MODEL_SPACE
  1

  0
ENDBLK
  5
E
100
AcDbEntity
  8
0
100
AcDbBlockEnd
  0
BLOCK
  5
F
100
AcDbEntity
 67
     1
  8
0
100
AcDbBlockBegin
  2
*PAPER_SPACE
 70
     0
 10
0.0
 20
0.0
 30
0.0
  3
*PAPER_SPACE
  1

  0
ENDBLK
  5
10
100
AcDbEntity
 67
     1
  8
0
100
AcDbBlockEnd
 0
ENDSEC
 0
SECTION
 2
ENTITIES
 0
LINE
 5
87
100
AcDbEntity
 8
Layer8
100
AcDbLine
 39
0.25
 370
106
 10
37.6348
 20
304.762812207031
 30
0.0
 11
31.9738
 21
304.762812207031
 31
0.0
 0
LINE
 5
88
100
AcDbEntity
 8
Layer8
100
AcDbLine
 39
0.25
 370
106
 10
37.7691
 20
427.696412207031
 30
0.0
 11
32.1081
 21
427.696412207031
 31
0.0
 0
LINE
 5
89
100
AcDbEntity
 8
Layer8
100
AcDbLine
 39
0.25
 370
106
 10
74.4064
 20
500.090112207031
 30
0.0
 11
74.4064
 21
494.429112207031
 31
0.0
 0
LINE
 5
8A
100
AcDbEntity
 8
Layer8
100
AcDbLine
 39
0.25
 370
106
 10
88.3853
 20
500.090112207031
 30
0.0
 11
88.3853
 21
494.429112207031
 31
0.0
 0
LINE
 5
8B
100
AcDbEntity
 8
Layer8
100
AcDbLine
 39
0.25
 370
106
 10
69.1682
 20
488.303612207031
 30
0.0
 11
63.5072
 21
488.303612207031
 31
0.0
 0
LINE
 5
8C
100
AcDbEntity
 8
Layer8
100
AcDbLine
 39
0.25
 370
106
 10
69.1682
 20
485.262812207031
 30
0.0
 11
63.5072
 21
485.262812207031
 31
0.0
 0
LINE
 5
8D
100
AcDbEntity
 8
Layer8
100
AcDbLine
 39
0.25
 370
106
 10
73.9665
 20
485.228312207031
 30
0.0
 11
88.4995
 21
485.228312207031
 31
0.0
 0
LINE
 5
8E
100
AcDbEntity
 8
Layer8
100
AcDbLine
 39
0.25
 370
106
 10
73.9665
 20
488.431312207031
 30
0.0
 11
88.4995
 21
488.431312207031
 31
0.0
 0
LINE
 5
8F
100
AcDbEntity
 8
Layer8
100
AcDbLine
 39
0.25
 370
106
 10
74.2285
 20
484.963312207031
 30
0.0
 11
88.2375
 21
484.963312207031
 31
0.0
 0
LINE
 5
90
100
AcDbEntity
 8
Layer8
100
AcDbLine
 39
0.25
 370
106
 10
80.2405
 20
484.361312207031
 30
0.0
 11
80.2405
 21
484.963312207031
 31
0.0
 0
LINE
 5
91
100
AcDbEntity
 8
Layer8
100
AcDbLine
 39
0.25
 370
106
 10
82.2245
 20
484.361312207031
 30
0.0
 11
82.2245
 21
484.963312207031
 31
0.0
 0
LINE
 5
92
100
AcDbEntity
 8
Layer8
100
AcDbLine
 39
0.25
 370
106
 10
80.2485
 20
484.361312207031
 30
0.0
 11
80.2485
 21
484.963312207031
 31
0.0
 0
LINE
 5
93
100
AcDbEntity
 8
Layer8
100
AcDbLine
 39
0.25
 370
106
 10
82.2145
 20
484.361312207031
 30
0.0
 11
82.2145
 21
484.963312207031
 31
0.0
 0
LINE
 5
94
100
AcDbEntity
 8
Layer8
100
AcDbLine
 39
0.25
 370
106
 10
80.2585
 20
484.361312207031
 30
0.0
 11
80.2585
 21
484.963312207031
 31
0.0
 0
LINE
 5
95
100
AcDbEntity
 8
Layer8
100
AcDbLine
 39
0.25
 370
106
 10
82.2065
 20
484.361312207031
 30
0.0
 11
82.2065
 21
484.963312207031
 31
0.0
 0
LINE
 5
96
100
AcDbEntity
 8
Layer8
100
AcDbLine
 39
0.25
 370
106
 10
80.2685
 20
484.361312207031
 30
0.0
 11
80.2685
 21
484.963312207031
 31
0.0
 0
LINE
 5
97
100
AcDbEntity
 8
Layer8
100
AcDbLine
 39
0.25
 370
106
 10
82.1965
 20
484.361312207031
 30
0.0
 11
82.1965
 21
484.963312207031
 31
0.0
 0
LINE
 5
98
100
AcDbEntity
 8
Layer8
100
AcDbLine
 39
0.25
 370
106
 10
80.2765
 20
484.361312207031
 30
0.0
 11
80.2765
 21
484.963312207031
 31
0.0
 0
LINE
 5
99
100
AcDbEntity
 8
Layer8
100
AcDbLine
 39
0.25
 370
106
 10
82.1775
 20
484.361312207031
 30
0.0
 11
82.1775
 21
484.963312207031
 31
0.0
 0
LINE
 5
9A
100
AcDbEntity
 8
Layer8
100
AcDbLine
 39
0.25
 370
106
 10
80.2955
 20
484.361312207031
 30
0.0
 11
80.2955
 21
484.963312207031
 31
0.0
 0
LINE
 5
9B
100
AcDbEntity
 8
Layer8
100
AcDbLine
 39
0.25
 370
106
 10
82.1695
 20
484.361312207031
 30
0.0
 11
82.1695
 21
484.963312207031
 31
0.0
 0
LINE
 5
9C
100
AcDbEntity
 8
Layer8
100
AcDbLine
 39
0.25
 370
106
 10
80.3235
 20
484.361312207031
 30
0.0
 11
80.3235
 21
484.963312207031
 31
0.0
 0
LINE
 5
9D
100
AcDbEntity
 8
Layer8
100
AcDbLine
 39
0.25
 370
106
 10
82.1405
 20
484.361312207031
 30
0.0
 11
82.1405
 21
484.963312207031
 31
0.0
 0
LINE
 5
9E
100
AcDbEntity
 8
Layer8
100
AcDbLine
 39
0.25
 370
106
 10
80.3415
 20
484.361312207031
 30
0.0
 11
80.3415
 21
484.963312207031
 31
0.0
 0
LINE
 5
9F
100
AcDbEntity
 8
Layer8
100
AcDbLine
 39
0.25
 370
106
 10
82.1135
 20
484.361312207031
 30
0.0
 11
82.1135
 21
484.963312207031
 31
0.0
 0
LINE
 5
A0
100
AcDbEntity
 8
Layer8
100
AcDbLine
 39
0.25
 370
106
 10
80.3795
 20
484.361312207031
 30
0.0
 11
80.3795
 21
484.963312207031
 31
0.0
 0
LINE
 5
A1
100
AcDbEntity
 8
Layer8
100
AcDbLine
 39
0.25
 370
106
 10
82.0845
 20
484.361312207031
 30
0.0
 11
82.0845
 21
484.963312207031
 31
0.0
 0
LINE
 5
A2
100
AcDbEntity
 8
Layer8
100
AcDbLine
 39
0.25
 370
106
 10
80.4075
 20
484.361312207031
 30
0.0
 11
80.4075
 21
484.963312207031
 31
0.0
 0
LINE
 5
A3
100
AcDbEntity
 8
Layer8
100
AcDbLine
 39
0.25
 370
106
 10
82.0575
 20
484.361312207031
 30
0.0
 11
82.0575
 21
484.963312207031
 31
0.0
 0
LINE
 5
A4
100
AcDbEntity
 8
Layer8
100
AcDbLine
 39
0.25
 370
106
 10
80.4545
 20
484.361312207031
 30
0.0
 11
80.4545
 21
484.963312207031
 31
0.0
 0
LINE
 5
A5
100
AcDbEntity
 8
Layer8
100
AcDbLine
 39
0.25
 370
106
 10
82.0105
 20
484.361312207031
 30
0.0
 11
82.0105
 21
484.963312207031
 31
0.0
 0
LINE
 5
A6
100
AcDbEntity
 8
Layer8
100
AcDbLine
 39
0.25
 370
106
 10
80.4825
 20
484.361312207031
 30
0.0
 11
80.4825
 21
484.963312207031
 31
0.0
 0
LINE
 5
A7
100
AcDbEntity
 8
Layer8
100
AcDbLine
 39
0.25
 370
106
 10
81.9745
 20
484.361312207031
 30
0.0
 11
81.9745
 21
484.963312207031
 31
0.0
 0
LINE
 5
A8
100
AcDbEntity
 8
Layer8
100
AcDbLine
 39
0.25
 370
106
 10
80.5385
 20
484.361312207031
 30
0.0
 11
80.5385
 21
484.963312207031
 31
0.0
 0
LINE
 5
A9
100
AcDbEntity
 8
Layer8
100
AcDbLine
 39
0.25
 370
106
 10
81.9265
 20
484.361312207031
 30
0.0
 11
81.9265
 21
484.963312207031
 31
0.0
 0
LINE
 5
AA
100
AcDbEntity
 8
Layer8
100
AcDbLine
 39
0.25
 370
106
 10
80.5765
 20
484.361312207031
 30
0.0
 11
80.5765
 21
484.963312207031
 31
0.0
 0
LINE
 5
AB
100
AcDbEntity
 8
Layer8
100
AcDbLine
 39
0.25
 370
106
 10
81.8895
 20
484.361312207031
 30
0.0
 11
81.8895
 21
484.963312207031
 31
0.0
 0
LINE
 5
AC
100
AcDbEntity
 8
Layer8
100
AcDbLine
 39
0.25
 370
106
 10
80.6305
 20
484.361312207031
 30
0.0
 11
80.6305
 21
484.963312207031
 31
0.0
 0
LINE
 5
AD
100
AcDbEntity
 8
Layer8
100
AcDbLine
 39
0.25
 370
106
 10
81.8325
 20
484.361312207031
 30
0.0
 11
81.8325
 21
484.963312207031
 31
0.0
 0
LINE
 5
AE
100
AcDbEntity
 8
Layer8
100
AcDbLine
 39
0.25
 370
106
 10
80.6695
 20
484.361312207031
 30
0.0
 11
80.6695
 21
484.963312207031
 31
0.0
 0
LINE
 5
AF
100
AcDbEntity
 8
Layer8
100
AcDbLine
 39
0.25
 370
106
 10
81.7955
 20
484.361312207031
 30
0.0
 11
81.7955
 21
484.963312207031
 31
0.0
 0
LINE
 5
B0
100
AcDbEntity
 8
Layer8
100
AcDbLine
 39
0.25
 370
106
 10
80.7335
 20
484.361312207031
 30
0.0
 11
80.7335
 21
484.963312207031
 31
0.0
 0
LINE
 5
B1
100
AcDbEntity
 8
Layer8
100
AcDbLine
 39
0.25
 370
106
 10
81.7305
 20
484.361312207031
 30
0.0
 11
81.7305
 21
484.963312207031
 31
0.0
 0
LINE
 5
B2
100
AcDbEntity
 8
Layer8
100
AcDbLine
 39
0.25
 370
106
 10
80.7795
 20
484.361312207031
 30
0.0
 11
80.7795
 21
484.963312207031
 31
0.0
 0
LINE
 5
B3
100
AcDbEntity
 8
Layer8
100
AcDbLine
 39
0.25
 370
106
 10
81.6845
 20
484.361312207031
 30
0.0
 11
81.6845
 21
484.963312207031
 31
0.0
 0
LINE
 5
B4
100
AcDbEntity
 8
Layer8
100
AcDbLine
 39
0.25
 370
106
 10
80.8435
 20
484.361312207031
 30
0.0
 11
80.8435
 21
484.963312207031
 31
0.0
 0
LINE
 5
B5
100
AcDbEntity
 8
Layer8
100
AcDbLine
 39
0.25
 370
106
 10
81.6185
 20
484.361312207031
 30
0.0
 11
81.6185
 21
484.963312207031
 31
0.0
 0
LINE
 5
B6
100
AcDbEntity
 8
Layer8
100
AcDbLine
 39
0.25
 370
106
 10
80.8925
 20
484.361312207031
 30
0.0
 11
80.8925
 21
484.963312207031
 31
0.0
 0
LINE
 5
B7
100
AcDbEntity
 8
Layer8
100
AcDbLine
 39
0.25
 370
106
 10
81.5735
 20
484.361312207031
 30
0.0
 11
81.5735
 21
484.963312207031
 31
0.0
 0
LINE
 5
B8
100
AcDbEntity
 8
Layer8
100
AcDbLine
 39
0.25
 370
106
 10
80.9575
 20
484.361312207031
 30
0.0
 11
80.9575
 21
484.963312207031
 31
0.0
 0
LINE
 5
B9
100
AcDbEntity
 8
Layer8
100
AcDbLine
 39
0.25
 370
106
 10
81.5075
 20
484.361312207031
 30
0.0
 11
81.5075
 21
484.963312207031
 31
0.0
 0
LINE
 5
BA
100
AcDbEntity
 8
Layer8
100
AcDbLine
 39
0.25
 370
106
 10
81.0125
 20
484.361312207031
 30
0.0
 11
81.0125
 21
484.963312207031
 31
0.0
 0
LINE
 5
BB
100
AcDbEntity
 8
Layer8
100
AcDbLine
 39
0.25
 370
106
 10
81.4515
 20
484.361312207031
 30
0.0
 11
81.4515
 21
484.963312207031
 31
0.0
 0
LINE
 5
BC
100
AcDbEntity
 8
Layer8
100
AcDbLine
 39
0.25
 370
106
 10
81.0785
 20
484.361312207031
 30
0.0
 11
81.0785
 21
484.963312207031
 31
0.0
 0
LINE
 5
BD
100
AcDbEntity
 8
Layer8
100
AcDbLine
 39
0.25
 370
106
 10
81.3855
 20
484.361312207031
 30
0.0
 11
81.3855
 21
484.963312207031
 31
0.0
 0
LINE
 5
BE
100
AcDbEntity
 8
Layer8
100
AcDbLine
 39
0.25
 370
106
 10
81.1345
 20
484.361312207031
 30
0.0
 11
81.1345
 21
484.963312207031
 31
0.0
 0
LINE
 5
BF
100
AcDbEntity
 8
Layer8
100
AcDbLine
 39
0.25
 370
106
 10
81.3285
 20
484.361312207031
 30
0.0
 11
81.3285
 21
484.963312207031
 31
0.0
 0
LINE
 5
C0
100
AcDbEntity
 8
Layer8
100
AcDbLine
 39
0.25
 370
106
 10
81.2075
 20
484.361312207031
 30
0.0
 11
81.2075
 21
484.963312207031
 31
0.0
 0
LINE
 5
C1
100
AcDbEntity
 8
Layer8
100
AcDbLine
 39
0.25
 370
106
 10
81.2555
 20
484.361312207031
 30
0.0
 11
81.2555
 21
484.963312207031
 31
0.0
 0
LINE
 5
C2
100
AcDbEntity
 8
Layer8
100
AcDbLine
 39
0.25
 370
106
 10
82.2145
 20
484.361312207031
 30
0.0
 11
82.2145
 21
484.333312207031
 31
0.0
 0
LINE
 5
C3
100
AcDbEntity
 8
Layer8
100
AcDbLine
 39
0.25
 370
106
 10
82.2145
 20
484.333312207031
 30
0.0
 11
82.1965
 21
484.304312207031
 31
0.0
 0
LINE
 5
C4
100
AcDbEntity
 8
Layer8
100
AcDbLine
 39
0.25
 370
106
 10
82.1965
 20
484.304312207031
 30
0.0
 11
82.2065
 21
484.313312207031
 31
0.0
 0
LINE
 5
C5
100
AcDbEntity
 8
Layer8
100
AcDbLine
 39
0.25
 370
106
 10
82.2065
 20
484.313312207031
 30
0.0
 11
82.2245
 21
484.361312207031
 31
0.0
 0
LINE
 5
C6
100
AcDbEntity
 8
Layer8
100
AcDbLine
 39
0.25
 370
106
 10
82.2065
 20
484.361312207031
 30
0.0
 11
82.2145
 21
484.361312207031
 31
0.0
 0
LINE
 5
C7
100
AcDbEntity
 8
Layer8
100
AcDbLine
 39
0.25
 370
106
 10
82.1965
 20
484.361312207031
 30
0.0
 11
82.1965
 21
484.333312207031
 31
0.0
 0
LINE
 5
C8
100
AcDbEntity
 8
Layer8
100
AcDbLine
 39
0.25
 370
106
 10
82.1965
 20
484.333312207031
 30
0.0
 11
82.1775
 21
484.304312207031
 31
0.0
 0
LINE
 5
C9
100
AcDbEntity
 8
Layer8
100
AcDbLine
 39
0.25
 370
106
 10
82.1775
 20
484.304312207031
 30
0.0
 11
82.1865
 21
484.304312207031
 31
0.0
 0
LINE
 5
CA
100
AcDbEntity
 8
Layer8
100
AcDbLine
 39
0.25
 370
106
 10
82.1865
 20
484.304312207031
 30
0.0
 11
82.1865
 21
484.313312207031
 31
0.0
 0
LINE
 5
CB
100
AcDbEntity
 8
Layer8
100
AcDbLine
 39
0.25
 370
106
 10
82.1865
 20
484.313312207031
 30
0.0
 11
82.2065
 21
484.333312207031
 31
0.0
 0
LINE
 5
CC
100
AcDbEntity
 8
Layer8
100
AcDbLine
 39
0.25
 370
106
 10
82.2065
 20
484.333312207031
 30
0.0
 11
82.2065
 21
484.361312207031
 31
0.0
 0
LINE
 5
CD
100
AcDbEntity
 8
Layer8
100
AcDbLine
 39
0.25
 370
106
 10
82.1775
 20
484.361312207031
 30
0.0
 11
82.1965
 21
484.361312207031
 31
0.0
 0
LINE
 5
CE
100
AcDbEntity
 8
Layer8
100
AcDbLine
 39
0.25
 370
106
 10
82.1695
 20
484.361312207031
 30
0.0
 11
82.1485
 21
484.304312207031
 31
0.0
 0
LINE
 5
CF
100
AcDbEntity
 8
Layer8
100
AcDbLine
 39
0.25
 370
106
 10
82.1485
 20
484.304312207031
 30
0.0
 11
82.1585
 21
484.304312207031
 31
0.0
 0
LINE
 5
D0
100
AcDbEntity
 8
Layer8
100
AcDbLine
 39
0.25
 370
106
 10
82.1585
 20
484.304312207031
 30
0.0
 11
82.1775
 21
484.333312207031
 31
0.0
 0
LINE
 5
D1
100
AcDbEntity
 8
Layer8
100
AcDbLine
 39
0.25
 370
106
 10
82.1775
 20
484.333312207031
 30
0.0
 11
82.1775
 21
484.361312207031
 31
0.0
 0
LINE
 5
D2
100
AcDbEntity
 8
Layer8
100
AcDbLine
 39
0.25
 370
106
 10
82.1405
 20
484.361312207031
 30
0.0
 11
82.1695
 21
484.361312207031
 31
0.0
 0
LINE
 5
D3
100
AcDbEntity
 8
Layer8
100
AcDbLine
 39
0.25
 370
106
 10
82.1135
 20
484.361312207031
 30
0.0
 11
82.1135
 21
484.333312207031
 31
0.0
 0
LINE
 5
D4
100
AcDbEntity
 8
Layer8
100
AcDbLine
 39
0.25
 370
106
 10
82.1135
 20
484.333312207031
 30
0.0
 11
82.1045
 21
484.313312207031
 31
0.0
 0
LINE
 5
D5
100
AcDbEntity
 8
Layer8
100
AcDbLine
 39
0.25
 370
106
 10
82.1045
 20
484.313312207031
 30
0.0
 11
82.1045
 21
484.304312207031
 31
0.0
 0
LINE
 5
D6
100
AcDbEntity
 8
Layer8
100
AcDbLine
 39
0.25
 370
106
 10
82.1045
 20
484.304312207031
 30
0.0
 11
82.1135
 21
484.304312207031
 31
0.0
 0
LINE
 5
D7
100
AcDbEntity
 8
Layer8
100
AcDbLine
 39
0.25
 370
106
 10
82.1135
 20
484.304312207031
 30
0.0
 11
82.1405
 21
484.361312207031
 31
0.0
 0
LINE
 5
D8
100
AcDbEntity
 8
Layer8
100
AcDbLine
 39
0.25
 370
106
 10
82.0845
 20
484.361312207031
 30
0.0
 11
82.1135
 21
484.361312207031
 31
0.0
 0
LINE
 5
D9
100
AcDbEntity
 8
Layer8
100
AcDbLine
 39
0.25
 370
106
 10
82.0575
 20
484.361312207031
 30
0.0
 11
82.0385
 21
484.304312207031
 31
0.0
 0
LINE
 5
DA
100
AcDbEntity
 8
Layer8
100
AcDbLine
 39
0.25
 370
106
 10
82.0385
 20
484.304312207031
 30
0.0
 11
82.0575
 21
484.304312207031
 31
0.0
 0
LINE
 5
DB
100
AcDbEntity
 8
Layer8
100
AcDbLine
 39
0.25
 370
106
 10
82.0575
 20
484.304312207031
 30
0.0
 11
82.0675
 21
484.313312207031
 31
0.0
 0
LINE
 5
DC
100
AcDbEntity
 8
Layer8
100
AcDbLine
 39
0.25
 370
106
 10
82.0675
 20
484.313312207031
 30
0.0
 11
82.0845
 21
484.361312207031
 31
0.0
 0
LINE
 5
DD
100
AcDbEntity
 8
Layer8
100
AcDbLine
 39
0.25
 370
106
 10
82.0105
 20
484.361312207031
 30
0.0
 11
82.0575
 21
484.361312207031
 31
0.0
 0
LINE
 5
DE
100
AcDbEntity
 8
Layer8
100
AcDbLine
 39
0.25
 370
106
 10
81.9745
 20
484.361312207031
 30
0.0
 11
81.9745
 21
484.304312207031
 31
0.0
 0
LINE
 5
DF
100
AcDbEntity
 8
Layer8
100
AcDbLine
 39
0.25
 370
106
 10
81.9745
 20
484.304312207031
 30
0.0
 11
81.9825
 21
484.304312207031
 31
0.0
 0
LINE
 5
E0
100
AcDbEntity
 8
Layer8
100
AcDbLine
 39
0.25
 370
106
 10
81.9825
 20
484.304312207031
 30
0.0
 11
82.0105
 21
484.333312207031
 31
0.0
 0
LINE
 5
E1
100
AcDbEntity
 8
Layer8
100
AcDbLine
 39
0.25
 370
106
 10
82.0105
 20
484.333312207031
 30
0.0
 11
82.0105
 21
484.361312207031
 31
0.0
 0
LINE
 5
E2
100
AcDbEntity
 8
Layer8
100
AcDbLine
 39
0.25
 370
106
 10
81.9265
 20
484.361312207031
 30
0.0
 11
81.9745
 21
484.361312207031
 31
0.0
 0
LINE
 5
E3
100
AcDbEntity
 8
Layer8
100
AcDbLine
 39
0.25
 370
106
 10
81.8895
 20
484.361312207031
 30
0.0
 11
81.8895
 21
484.324312207031
 31
0.0
 0
LINE
 5
E4
100
AcDbEntity
 8
Layer8
100
AcDbLine
 39
0.25
 370
106
 10
81.8895
 20
484.324312207031
 30
0.0
 11
81.8795
 21
484.304312207031
 31
0.0
 0
LINE
 5
E5
100
AcDbEntity
 8
Layer8
100
AcDbLine
 39
0.25
 370
106
 10
81.8795
 20
484.304312207031
 30
0.0
 11
81.9065
 21
484.304312207031
 31
0.0
 0
LINE
 5
E6
100
AcDbEntity
 8
Layer8
100
AcDbLine
 39
0.25
 370
106
 10
81.9065
 20
484.304312207031
 30
0.0
 11
81.9065
 21
484.313312207031
 31
0.0
 0
LINE
 5
E7
100
AcDbEntity
 8
Layer8
100
AcDbLine
 39
0.25
 370
106
 10
81.9065
 20
484.313312207031
 30
0.0
 11
81.9265
 21
484.333312207031
 31
0.0
 0
LINE
 5
E8
100
AcDbEntity
 8
Layer8
100
AcDbLine
 39
0.25
 370
106
 10
81.9265
 20
484.333312207031
 30
0.0
 11
81.9265
 21
484.361312207031
 31
0.0
 0
LINE
 5
E9
100
AcDbEntity
 8
Layer8
100
AcDbLine
 39
0.25
 370
106
 10
81.8325
 20
484.361312207031
 30
0.0
 11
81.8895
 21
484.361312207031
 31
0.0
 0
LINE
 5
EA
100
AcDbEntity
 8
Layer8
100
AcDbLine
 39
0.25
 370
106
 10
81.7955
 20
484.361312207031
 30
0.0
 11
81.7865
 21
484.304312207031
 31
0.0
 0
LINE
 5
EB
100
AcDbEntity
 8
Layer8
100
AcDbLine
 39
0.25
 370
106
 10
81.7865
 20
484.304312207031
 30
0.0
 11
81.8155
 21
484.304312207031
 31
0.0
 0
LINE
 5
EC
100
AcDbEntity
 8
Layer8
100
AcDbLine
 39
0.25
 370
106
 10
81.8155
 20
484.304312207031
 30
0.0
 11
81.8325
 21
484.333312207031
 31
0.0
 0
LINE
 5
ED
100
AcDbEntity
 8
Layer8
100
AcDbLine
 39
0.25
 370
106
 10
81.8325
 20
484.333312207031
 30
0.0
 11
81.8325
 21
484.361312207031
 31
0.0
 0
LINE
 5
EE
100
AcDbEntity
 8
Layer8
100
AcDbLine
 39
0.25
 370
106
 10
81.7305
 20
484.361312207031
 30
0.0
 11
81.7955
 21
484.361312207031
 31
0.0
 0
LINE
 5
EF
100
AcDbEntity
 8
Layer8
100
AcDbLine
 39
0.25
 370
106
 10
81.6845
 20
484.361312207031
 30
0.0
 11
81.6845
 21
484.304312207031
 31
0.0
 0
LINE
 5
F0
100
AcDbEntity
 8
Layer8
100
AcDbLine
 39
0.25
 370
106
 10
81.6845
 20
484.304312207031
 30
0.0
 11
81.7135
 21
484.304312207031
 31
0.0
 0
LINE
 5
F1
100
AcDbEntity
 8
Layer8
100
AcDbLine
 39
0.25
 370
106
 10
81.7135
 20
484.304312207031
 30
0.0
 11
81.7305
 21
484.333312207031
 31
0.0
 0
LINE
 5
F2
100
AcDbEntity
 8
Layer8
100
AcDbLine
 39
0.25
 370
106
 10
81.7305
 20
484.333312207031
 30
0.0
 11
81.7305
 21
484.361312207031
 31
0.0
 0
LINE
 5
F3
100
AcDbEntity
 8
Layer8
100
AcDbLine
 39
0.25
 370
106
 10
81.6185
 20
484.361312207031
 30
0.0
 11
81.6845
 21
484.361312207031
 31
0.0
 0
LINE
 5
F4
100
AcDbEntity
 8
Layer8
100
AcDbLine
 39
0.25
 370
106
 10
81.5735
 20
484.361312207031
 30
0.0
 11
81.5735
 21
484.304312207031
 31
0.0
 0
LINE
 5
F5
100
AcDbEntity
 8
Layer8
100
AcDbLine
 39
0.25
 370
106
 10
81.5735
 20
484.304312207031
 30
0.0
 11
81.5915
 21
484.304312207031
 31
0.0
 0
LINE
 5
F6
100
AcDbEntity
 8
Layer8
100
AcDbLine
 39
0.25
 370
106
 10
81.5915
 20
484.304312207031
 30
0.0
 11
81.6085
 21
484.313312207031
 31
0.0
 0
LINE
 5
F7
100
AcDbEntity
 8
Layer8
100
AcDbLine
 39
0.25
 370
106
 10
81.6085
 20
484.313312207031
 30
0.0
 11
81.6185
 21
484.333312207031
 31
0.0
 0
LINE
 5
F8
100
AcDbEntity
 8
Layer8
100
AcDbLine
 39
0.25
 370
106
 10
81.6185
 20
484.333312207031
 30
0.0
 11
81.6185
 21
484.361312207031
 31
0.0
 0
LINE
 5
F9
100
AcDbEntity
 8
Layer8
100
AcDbLine
 39
0.25
 370
106
 10
81.5075
 20
484.361312207031
 30
0.0
 11
81.5735
 21
484.361312207031
 31
0.0
 0
LINE
 5
FA
100
AcDbEntity
 8
Layer8
100
AcDbLine
 39
0.25
 370
106
 10
81.4515
 20
484.361312207031
 30
0.0
 11
81.4515
 21
484.313312207031
 31
0.0
 0
LINE
 5
FB
100
AcDbEntity
 8
Layer8
100
AcDbLine
 39
0.25
 370
106
 10
81.4515
 20
484.313312207031
 30
0.0
 11
81.4595
 21
484.304312207031
 31
0.0
 0
LINE
 5
FC
100
AcDbEntity
 8
Layer8
100
AcDbLine
 39
0.25
 370
106
 10
81.4595
 20
484.304312207031
 30
0.0
 11
81.4785
 21
484.304312207031
 31
0.0
 0
LINE
 5
FD
100
AcDbEntity
 8
Layer8
100
AcDbLine
 39
0.25
 370
106
 10
81.4785
 20
484.304312207031
 30
0.0
 11
81.4885
 21
484.304312207031
 31
0.0
 0
LINE
 5
FE
100
AcDbEntity
 8
Layer8
100
AcDbLine
 39
0.25
 370
106
 10
81.4885
 20
484.304312207031
 30
0.0
 11
81.5075
 21
484.361312207031
 31
0.0
 0
LINE
 5
FF
100
AcDbEntity
 8
Layer8
100
AcDbLine
 39
0.25
 370
106
 10
81.3855
 20
484.361312207031
 30
0.0
 11
81.4515
 21
484.361312207031
 31
0.0
 0
LINE
 5
100
100
AcDbEntity
 8
Layer8
100
AcDbLine
 39
0.25
 370
106
 10
81.3285
 20
484.361312207031
 30
0.0
 11
81.3285
 21
484.313312207031
 31
0.0
 0
LINE
 5
101
100
AcDbEntity
 8
Layer8
100
AcDbLine
 39
0.25
 370
106
 10
81.3285
 20
484.313312207031
 30
0.0
 11
81.3395
 21
484.304312207031
 31
0.0
 0
LINE
 5
102
100
AcDbEntity
 8
Layer8
100
AcDbLine
 39
0.25
 370
106
 10
81.3395
 20
484.304312207031
 30
0.0
 11
81.3565
 21
484.304312207031
 31
0.0
 0
LINE
 5
103
100
AcDbEntity
 8
Layer8
100
AcDbLine
 39
0.25
 370
106
 10
81.3565
 20
484.304312207031
 30
0.0
 11
81.3685
 21
484.304312207031
 31
0.0
 0
LINE
 5
104
100
AcDbEntity
 8
Layer8
100
AcDbLine
 39
0.25
 370
106
 10
81.3685
 20
484.304312207031
 30
0.0
 11
81.3855
 21
484.361312207031
 31
0.0
 0
LINE
 5
105
100
AcDbEntity
 8
Layer8
100
AcDbLine
 39
0.25
 370
106
 10
81.2555
 20
484.361312207031
 30
0.0
 11
81.3285
 21
484.361312207031
 31
0.0
 0
LINE
 5
106
100
AcDbEntity
 8
Layer8
100
AcDbLine
 39
0.25
 370
106
 10
81.2075
 20
484.361312207031
 30
0.0
 11
81.2075
 21
484.313312207031
 31
0.0
 0
LINE
 5
107
100
AcDbEntity
 8
Layer8
100
AcDbLine
 39
0.25
 370
106
 10
81.2075
 20
484.313312207031
 30
0.0
 11
81.2175
 21
484.304312207031
 31
0.0
 0
LINE
 5
108
100
AcDbEntity
 8
Layer8
100
AcDbLine
 39
0.25
 370
106
 10
81.2175
 20
484.304312207031
 30
0.0
 11
81.2365
 21
484.304312207031
 31
0.0
 0
LINE
 5
109
100
AcDbEntity
 8
Layer8
100
AcDbLine
 39
0.25
 370
106
 10
81.2365
 20
484.304312207031
 30
0.0
 11
81.2465
 21
484.304312207031
 31
0.0
 0
LINE
 5
10A
100
AcDbEntity
 8
Layer8
100
AcDbLine
 39
0.25
 370
106
 10
81.2465
 20
484.304312207031
 30
0.0
 11
81.2555
 21
484.324312207031
 31
0.0
 0
LINE
 5
10B
100
AcDbEntity
 8
Layer8
100
AcDbLine
 39
0.25
 370
106
 10
81.2555
 20
484.324312207031
 30
0.0
 11
81.2555
 21
484.361312207031
 31
0.0
 0
LINE
 5
10C
100
AcDbEntity
 8
Layer8
100
AcDbLine
 39
0.25
 370
106
 10
81.1345
 20
484.361312207031
 30
0.0
 11
81.2075
 21
484.361312207031
 31
0.0
 0
LINE
 5
10D
100
AcDbEntity
 8
Layer8
100
AcDbLine
 39
0.25
 370
106
 10
81.0785
 20
484.361312207031
 30
0.0
 11
81.0785
 21
484.333312207031
 31
0.0
 0
LINE
 5
10E
100
AcDbEntity
 8
Layer8
100
AcDbLine
 39
0.25
 370
106
 10
81.0785
 20
484.333312207031
 30
0.0
 11
81.0885
 21
484.313312207031
 31
0.0
 0
LINE
 5
10F
100
AcDbEntity
 8
Layer8
100
AcDbLine
 39
0.25
 370
106
 10
81.0885
 20
484.313312207031
 30
0.0
 11
81.0975
 21
484.304312207031
 31
0.0
 0
LINE
 5
110
100
AcDbEntity
 8
Layer8
100
AcDbLine
 39
0.25
 370
106
 10
81.0975
 20
484.304312207031
 30
0.0
 11
81.1145
 21
484.304312207031
 31
0.0
 0
LINE
 5
111
100
AcDbEntity
 8
Layer8
100
AcDbLine
 39
0.25
 370
106
 10
81.1145
 20
484.304312207031
 30
0.0
 11
81.1245
 21
484.304312207031
 31
0.0
 0
LINE
 5
112
100
AcDbEntity
 8
Layer8
100
AcDbLine
 39
0.25
 370
106
 10
81.1245
 20
484.304312207031
 30
0.0
 11
81.1345
 21
484.324312207031
 31
0.0
 0
LINE
 5
113
100
AcDbEntity
 8
Layer8
100
AcDbLine
 39
0.25
 370
106
 10
81.1345
 20
484.324312207031
 30
0.0
 11
81.1345
 21
484.361312207031
 31
0.0
 0
LINE
 5
114
100
AcDbEntity
 8
Layer8
100
AcDbLine
 39
0.25
 370
106
 10
81.0125
 20
484.361312207031
 30
0.0
 11
81.0785
 21
484.361312207031
 31
0.0
 0
LINE
 5
115
100
AcDbEntity
 8
Layer8
100
AcDbLine
 39
0.25
 370
106
 10
80.9575
 20
484.361312207031
 30
0.0
 11
80.9655
 21
484.313312207031
 31
0.0
 0
LINE
 5
116
100
AcDbEntity
 8
Layer8
100
AcDbLine
 39
0.25
 370
106
 10
80.9655
 20
484.313312207031
 30
0.0
 11
80.9755
 21
484.304312207031
 31
0.0
 0
LINE
 5
117
100
AcDbEntity
 8
Layer8
100
AcDbLine
 39
0.25
 370
106
 10
80.9755
 20
484.304312207031
 30
0.0
 11
80.9925
 21
484.304312207031
 31
0.0
 0
LINE
 5
118
100
AcDbEntity
 8
Layer8
100
AcDbLine
 39
0.25
 370
106
 10
80.9925
 20
484.304312207031
 30
0.0
 11
81.0045
 21
484.304312207031
 31
0.0
 0
LINE
 5
119
100
AcDbEntity
 8
Layer8
100
AcDbLine
 39
0.25
 370
106
 10
81.0045
 20
484.304312207031
 30
0.0
 11
81.0125
 21
484.324312207031
 31
0.0
 0
LINE
 5
11A
100
AcDbEntity
 8
Layer8
100
AcDbLine
 39
0.25
 370
106
 10
81.0125
 20
484.324312207031
 30
0.0
 11
81.0125
 21
484.361312207031
 31
0.0
 0
LINE
 5
11B
100
AcDbEntity
 8
Layer8
100
AcDbLine
 39
0.25
 370
106
 10
80.8925
 20
484.361312207031
 30
0.0
 11
80.9575
 21
484.361312207031
 31
0.0
 0
LINE
 5
11C
100
AcDbEntity
 8
Layer8
100
AcDbLine
 39
0.25
 370
106
 10
80.8435
 20
484.361312207031
 30
0.0
 11
80.8435
 21
484.324312207031
 31
0.0
 0
LINE
 5
11D
100
AcDbEntity
 8
Layer8
100
AcDbLine
 39
0.25
 370
106
 10
80.8435
 20
484.324312207031
 30
0.0
 11
80.8655
 21
484.304312207031
 31
0.0
 0
LINE
 5
11E
100
AcDbEntity
 8
Layer8
100
AcDbLine
 39
0.25
 370
106
 10
80.8655
 20
484.304312207031
 30
0.0
 11
80.8925
 21
484.304312207031
 31
0.0
 0
LINE
 5
11F
100
AcDbEntity
 8
Layer8
100
AcDbLine
 39
0.25
 370
106
 10
80.8925
 20
484.304312207031
 30
0.0
 11
80.8925
 21
484.361312207031
 31
0.0
 0
LINE
 5
120
100
AcDbEntity
 8
Layer8
100
AcDbLine
 39
0.25
 370
106
 10
80.7795
 20
484.361312207031
 30
0.0
 11
80.8435
 21
484.361312207031
 31
0.0
 0
LINE
 5
121
100
AcDbEntity
 8
Layer8
100
AcDbLine
 39
0.25
 370
106
 10
80.7335
 20
484.361312207031
 30
0.0
 11
80.7335
 21
484.333312207031
 31
0.0
 0
LINE
 5
122
100
AcDbEntity
 8
Layer8
100
AcDbLine
 39
0.25
 370
106
 10
80.7335
 20
484.333312207031
 30
0.0
 11
80.7505
 21
484.304312207031
 31
0.0
 0
LINE
 5
123
100
AcDbEntity
 8
Layer8
100
AcDbLine
 39
0.25
 370
106
 10
80.7505
 20
484.304312207031
 30
0.0
 11
80.7795
 21
484.304312207031
 31
0.0
 0
LINE
 5
124
100
AcDbEntity
 8
Layer8
100
AcDbLine
 39
0.25
 370
106
 10
80.7795
 20
484.304312207031
 30
0.0
 11
80.7795
 21
484.361312207031
 31
0.0
 0
LINE
 5
125
100
AcDbEntity
 8
Layer8
100
AcDbLine
 39
0.25
 370
106
 10
80.6695
 20
484.361312207031
 30
0.0
 11
80.7335
 21
484.361312207031
 31
0.0
 0
LINE
 5
126
100
AcDbEntity
 8
Layer8
100
AcDbLine
 39
0.25
 370
106
 10
80.6305
 20
484.361312207031
 30
0.0
 11
80.6305
 21
484.333312207031
 31
0.0
 0
LINE
 5
127
100
AcDbEntity
 8
Layer8
100
AcDbLine
 39
0.25
 370
106
 10
80.6305
 20
484.333312207031
 30
0.0
 11
80.6405
 21
484.313312207031
 31
0.0
 0
LINE
 5
128
100
AcDbEntity
 8
Layer8
100
AcDbLine
 39
0.25
 370
106
 10
80.6405
 20
484.313312207031
 30
0.0
 11
80.6595
 21
484.304312207031
 31
0.0
 0
LINE
 5
129
100
AcDbEntity
 8
Layer8
100
AcDbLine
 39
0.25
 370
106
 10
80.6595
 20
484.304312207031
 30
0.0
 11
80.6775
 21
484.304312207031
 31
0.0
 0
LINE
 5
12A
100
AcDbEntity
 8
Layer8
100
AcDbLine
 39
0.25
 370
106
 10
80.6775
 20
484.304312207031
 30
0.0
 11
80.6695
 21
484.361312207031
 31
0.0
 0
LINE
 5
12B
100
AcDbEntity
 8
Layer8
100
AcDbLine
 39
0.25
 370
106
 10
80.5765
 20
484.361312207031
 30
0.0
 11
80.6305
 21
484.361312207031
 31
0.0
 0
LINE
 5
12C
100
AcDbEntity
 8
Layer8
100
AcDbLine
 39
0.25
 370
106
 10
80.5385
 20
484.361312207031
 30
0.0
 11
80.5385
 21
484.333312207031
 31
0.0
 0
LINE
 5
12D
100
AcDbEntity
 8
Layer8
100
AcDbLine
 39
0.25
 370
106
 10
80.5385
 20
484.333312207031
 30
0.0
 11
80.5475
 21
484.313312207031
 31
0.0
 0
LINE
 5
12E
100
AcDbEntity
 8
Layer8
100
AcDbLine
 39
0.25
 370
106
 10
80.5475
 20
484.313312207031
 30
0.0
 11
80.5565
 21
484.304312207031
 31
0.0
 0
LINE
 5
12F
100
AcDbEntity
 8
Layer8
100
AcDbLine
 39
0.25
 370
106
 10
80.5565
 20
484.304312207031
 30
0.0
 11
80.5765
 21
484.304312207031
 31
0.0
 0
LINE
 5
130
100
AcDbEntity
 8
Layer8
100
AcDbLine
 39
0.25
 370
106
 10
80.5765
 20
484.304312207031
 30
0.0
 11
80.5765
 21
484.361312207031
 31
0.0
 0
LINE
 5
131
100
AcDbEntity
 8
Layer8
100
AcDbLine
 39
0.25
 370
106
 10
80.4825
 20
484.361312207031
 30
0.0
 11
80.5385
 21
484.361312207031
 31
0.0
 0
LINE
 5
132
100
AcDbEntity
 8
Layer8
100
AcDbLine
 39
0.25
 370
106
 10
80.4545
 20
484.361312207031
 30
0.0
 11
80.4545
 21
484.333312207031
 31
0.0
 0
LINE
 5
133
100
AcDbEntity
 8
Layer8
100
AcDbLine
 39
0.25
 370
106
 10
80.4545
 20
484.333312207031
 30
0.0
 11
80.4715
 21
484.304312207031
 31
0.0
 0
LINE
 5
134
100
AcDbEntity
 8
Layer8
100
AcDbLine
 39
0.25
 370
106
 10
80.4715
 20
484.304312207031
 30
0.0
 11
80.4825
 21
484.304312207031
 31
0.0
 0
LINE
 5
135
100
AcDbEntity
 8
Layer8
100
AcDbLine
 39
0.25
 370
106
 10
80.4825
 20
484.304312207031
 30
0.0
 11
80.4915
 21
484.304312207031
 31
0.0
 0
LINE
 5
136
100
AcDbEntity
 8
Layer8
100
AcDbLine
 39
0.25
 370
106
 10
80.4915
 20
484.304312207031
 30
0.0
 11
80.4915
 21
484.324312207031
 31
0.0
 0
LINE
 5
137
100
AcDbEntity
 8
Layer8
100
AcDbLine
 39
0.25
 370
106
 10
80.4915
 20
484.324312207031
 30
0.0
 11
80.4825
 21
484.361312207031
 31
0.0
 0
LINE
 5
138
100
AcDbEntity
 8
Layer8
100
AcDbLine
 39
0.25
 370
106
 10
80.4075
 20
484.361312207031
 30
0.0
 11
80.4545
 21
484.361312207031
 31
0.0
 0
LINE
 5
139
100
AcDbEntity
 8
Layer8
100
AcDbLine
 39
0.25
 370
106
 10
80.3795
 20
484.361312207031
 30
0.0
 11
80.3895
 21
484.324312207031
 31
0.0
 0
LINE
 5
13A
100
AcDbEntity
 8
Layer8
100
AcDbLine
 39
0.25
 370
106
 10
80.3895
 20
484.324312207031
 30
0.0
 11
80.4075
 21
484.304312207031
 31
0.0
 0
LINE
 5
13B
100
AcDbEntity
 8
Layer8
100
AcDbLine
 39
0.25
 370
106
 10
80.4075
 20
484.304312207031
 30
0.0
 11
80.4175
 21
484.304312207031
 31
0.0
 0
LINE
 5
13C
100
AcDbEntity
 8
Layer8
100
AcDbLine
 39
0.25
 370
106
 10
80.4175
 20
484.304312207031
 30
0.0
 11
80.4255
 21
484.304312207031
 31
0.0
 0
LINE
 5
13D
100
AcDbEntity
 8
Layer8
100
AcDbLine
 39
0.25
 370
106
 10
80.4255
 20
484.304312207031
 30
0.0
 11
80.4075
 21
484.361312207031
 31
0.0
 0
LINE
 5
13E
100
AcDbEntity
 8
Layer8
100
AcDbLine
 39
0.25
 370
106
 10
80.3415
 20
484.361312207031
 30
0.0
 11
80.3795
 21
484.361312207031
 31
0.0
 0
LINE
 5
13F
100
AcDbEntity
 8
Layer8
100
AcDbLine
 39
0.25
 370
106
 10
80.3235
 20
484.361312207031
 30
0.0
 11
80.3235
 21
484.333312207031
 31
0.0
 0
LINE
 5
140
100
AcDbEntity
 8
Layer8
100
AcDbLine
 39
0.25
 370
106
 10
80.3235
 20
484.333312207031
 30
0.0
 11
80.3525
 21
484.304312207031
 31
0.0
 0
LINE
 5
141
100
AcDbEntity
 8
Layer8
100
AcDbLine
 39
0.25
 370
106
 10
80.3525
 20
484.304312207031
 30
0.0
 11
80.3625
 21
484.304312207031
 31
0.0
 0
LINE
 5
142
100
AcDbEntity
 8
Layer8
100
AcDbLine
 39
0.25
 370
106
 10
80.3625
 20
484.304312207031
 30
0.0
 11
80.3625
 21
484.324312207031
 31
0.0
 0
LINE
 5
143
100
AcDbEntity
 8
Layer8
100
AcDbLine
 39
0.25
 370
106
 10
80.3625
 20
484.324312207031
 30
0.0
 11
80.3525
 21
484.333312207031
 31
0.0
 0
LINE
 5
144
100
AcDbEntity
 8
Layer8
100
AcDbLine
 39
0.25
 370
106
 10
80.3525
 20
484.333312207031
 30
0.0
 11
80.3525
 21
484.353312207031
 31
0.0
 0
LINE
 5
145
100
AcDbEntity
 8
Layer8
100
AcDbLine
 39
0.25
 370
106
 10
80.3525
 20
484.353312207031
 30
0.0
 11
80.3415
 21
484.361312207031
 31
0.0
 0
LINE
 5
146
100
AcDbEntity
 8
Layer8
100
AcDbLine
 39
0.25
 370
106
 10
80.2955
 20
484.361312207031
 30
0.0
 11
80.3235
 21
484.361312207031
 31
0.0
 0
LINE
 5
147
100
AcDbEntity
 8
Layer8
100
AcDbLine
 39
0.25
 370
106
 10
80.2765
 20
484.361312207031
 30
0.0
 11
80.3055
 21
484.304312207031
 31
0.0
 0
LINE
 5
148
100
AcDbEntity
 8
Layer8
100
AcDbLine
 39
0.25
 370
106
 10
80.3055
 20
484.304312207031
 30
0.0
 11
80.3135
 21
484.304312207031
 31
0.0
 0
LINE
 5
149
100
AcDbEntity
 8
Layer8
100
AcDbLine
 39
0.25
 370
106
 10
80.3135
 20
484.304312207031
 30
0.0
 11
80.3135
 21
484.313312207031
 31
0.0
 0
LINE
 5
14A
100
AcDbEntity
 8
Layer8
100
AcDbLine
 39
0.25
 370
106
 10
80.3135
 20
484.313312207031
 30
0.0
 11
80.2955
 21
484.361312207031
 31
0.0
 0
LINE
 5
14B
100
AcDbEntity
 8
Layer8
100
AcDbLine
 39
0.25
 370
106
 10
80.2685
 20
484.361312207031
 30
0.0
 11
80.2765
 21
484.361312207031
 31
0.0
 0
LINE
 5
14C
100
AcDbEntity
 8
Layer8
100
AcDbLine
 39
0.25
 370
106
 10
80.2585
 20
484.361312207031
 30
0.0
 11
80.2585
 21
484.333312207031
 31
0.0
 0
LINE
 5
14D
100
AcDbEntity
 8
Layer8
100
AcDbLine
 39
0.25
 370
106
 10
80.2585
 20
484.333312207031
 30
0.0
 11
80.2765
 21
484.304312207031
 31
0.0
 0
LINE
 5
14E
100
AcDbEntity
 8
Layer8
100
AcDbLine
 39
0.25
 370
106
 10
80.2765
 20
484.304312207031
 30
0.0
 11
80.2855
 21
484.304312207031
 31
0.0
 0
LINE
 5
14F
100
AcDbEntity
 8
Layer8
100
AcDbLine
 39
0.25
 370
106
 10
80.2855
 20
484.304312207031
 30
0.0
 11
80.2685
 21
484.333312207031
 31
0.0
 0
LINE
 5
150
100
AcDbEntity
 8
Layer8
100
AcDbLine
 39
0.25
 370
106
 10
80.2685
 20
484.333312207031
 30
0.0
 11
80.2685
 21
484.361312207031
 31
0.0
 0
LINE
 5
151
100
AcDbEntity
 8
Layer8
100
AcDbLine
 39
0.25
 370
106
 10
80.2485
 20
484.361312207031
 30
0.0
 11
80.2585
 21
484.361312207031
 31
0.0
 0
LINE
 5
152
100
AcDbEntity
 8
Layer8
100
AcDbLine
 39
0.25
 370
106
 10
80.2405
 20
484.361312207031
 30
0.0
 11
80.2485
 21
484.324312207031
 31
0.0
 0
LINE
 5
153
100
AcDbEntity
 8
Layer8
100
AcDbLine
 39
0.25
 370
106
 10
80.2485
 20
484.324312207031
 30
0.0
 11
80.2685
 21
484.304312207031
 31
0.0
 0
LINE
 5
154
100
AcDbEntity
 8
Layer8
100
AcDbLine
 39
0.25
 370
106
 10
80.2685
 20
484.304312207031
 30
0.0
 11
80.2485
 21
484.333312207031
 31
0.0
 0
LINE
 5
155
100
AcDbEntity
 8
Layer8
100
AcDbLine
 39
0.25
 370
106
 10
80.2485
 20
484.333312207031
 30
0.0
 11
80.2485
 21
484.361312207031
 31
0.0
 0
LINE
 5
156
100
AcDbEntity
 8
Layer8
100
AcDbLine
 39
0.25
 370
106
 10
82.1585
 20
484.295312207031
 30
0.0
 11
80.3055
 21
484.295312207031
 31
0.0
 0
LINE
 5
157
100
AcDbEntity
 8
Layer8
100
AcDbLine
 39
0.25
 370
106
 10
81.5255
 20
467.897312207031
 30
0.0
 11
81.5255
 21
484.295312207031
 31
0.0
 0
LINE
 5
158
100
AcDbEntity
 8
Layer8
100
AcDbLine
 39
0.25
 370
106
 10
80.9375
 20
484.295312207031
 30
0.0
 11
80.9375
 21
467.370312207031
 31
0.0
 0
LINE
 5
159
100
AcDbEntity
 8
Layer8
100
AcDbLine
 39
0.25
 370
106
 10
80.9395
 20
467.504312207031
 30
0.0
 11
80.9395
 21
429.852312207031
 31
0.0
 0
LINE
 5
15A
100
AcDbEntity
 8
Layer8
100
AcDbLine
 39
0.25
 370
106
 10
81.5255
 20
429.852312207031
 30
0.0
 11
81.5255
 21
467.953312207031
 31
0.0
 0
LINE
 5
15B
100
AcDbEntity
 8
Layer8
100
AcDbLine
 39
0.25
 370
106
 10
88.4995
 20
485.228312207031
 30
0.0
 11
88.4995
 21
488.431312207031
 31
0.0
 0
LINE
 5
15C
100
AcDbEntity
 8
Layer8
100
AcDbLine
 39
0.25
 370
106
 10
73.9665
 20
488.431312207031
 30
0.0
 11
73.9665
 21
485.228312207031
 31
0.0
 0
ARC
 5
15D
100
AcDbEntity
 8
Layer8
100
AcDbCircle
 39
0.25
 370
106
 10
88.2319231916865
 20
485.226827121189
 30
0.0
 40
0.267580929436333
100
AcDbArc
 50
-57.0403843483837
 51
0.317995710596749
 0
LINE
 5
15E
100
AcDbEntity
 8
Layer8
100
AcDbLine
 39
0.25
 370
106
 10
88.2375
 20
484.963312207031
 30
0.0
 11
88.3775
 21
485.002312207031
 31
0.0
 0
LINE
 5
15F
100
AcDbEntity
 8
Layer8
100
AcDbLine
 39
0.25
 370
106
 10
73.9665
 20
485.228312207031
 30
0.0
 11
73.9665
 21
485.171312207031
 31
0.0
 0
LINE
 5
160
100
AcDbEntity
 8
Layer8
100
AcDbLine
 39
0.25
 370
106
 10
73.9665
 20
485.171312207031
 30
0.0
 11
74.0405
 21
485.040312207031
 31
0.0
 0
LINE
 5
161
100
AcDbEntity
 8
Layer8
100
AcDbLine
 39
0.25
 370
106
 10
74.0405
 20
485.040312207031
 30
0.0
 11
74.1255
 21
484.983312207031
 31
0.0
 0
LINE
 5
162
100
AcDbEntity
 8
Layer8
100
AcDbLine
 39
0.25
 370
106
 10
74.1255
 20
484.983312207031
 30
0.0
 11
74.2285
 21
484.963312207031
 31
0.0
 0
LINE
 5
163
100
AcDbEntity
 8
Layer8
100
AcDbLine
 39
0.25
 370
106
 10
80.2405
 20
484.963312207031
 30
0.0
 11
80.2405
 21
484.361312207031
 31
0.0
 0
LINE
 5
164
100
AcDbEntity
 8
Layer8
100
AcDbLine
 39
0.25
 370
106
 10
82.2245
 20
484.361312207031
 30
0.0
 11
82.2245
 21
484.963312207031
 31
0.0
 0
LINE
 5
165
100
AcDbEntity
 8
Layer8
100
AcDbLine
 39
0.25
 370
106
 10
82.1585
 20
484.295312207031
 30
0.0
 11
82.1965
 21
484.304312207031
 31
0.0
 0
LINE
 5
166
100
AcDbEntity
 8
Layer8
100
AcDbLine
 39
0.25
 370
106
 10
80.2405
 20
484.361312207031
 30
0.0
 11
80.2405
 21
484.343312207031
 31
0.0
 0
LINE
 5
167
100
AcDbEntity
 8
Layer8
100
AcDbLine
 39
0.25
 370
106
 10
80.2405
 20
484.343312207031
 30
0.0
 11
80.2585
 21
484.313312207031
 31
0.0
 0
LINE
 5
168
100
AcDbEntity
 8
Layer8
100
AcDbLine
 39
0.25
 370
106
 10
80.2585
 20
484.313312207031
 30
0.0
 11
80.2855
 21
484.295312207031
 31
0.0
 0
LINE
 5
169
100
AcDbEntity
 8
Layer8
100
AcDbLine
 39
0.25
 370
106
 10
80.2855
 20
484.295312207031
 30
0.0
 11
80.3055
 21
484.295312207031
 31
0.0
 0
LINE
 5
16A
100
AcDbEntity
 8
Layer8
100
AcDbLine
 39
0.25
 370
106
 10
80.3367
 20
424.675112207031
 30
0.0
 11
80.1897
 21
420.758612207031
 31
0.0
 0
LINE
 5
16B
100
AcDbEntity
 8
Layer8
100
AcDbLine
 39
0.25
 370
106
 10
80.1897
 20
420.758612207031
 30
0.0
 11
79.9232625
 21
419.765049707031
 31
0.0
 0
LINE
 5
16C
100
AcDbEntity
 8
Layer8
100
AcDbLine
 39
0.25
 370
106
 10
79.9232625
 20
419.765049707031
 30
0.0
 11
79.4127
 21
418.663112207031
 31
0.0
 0
LINE
 5
16D
100
AcDbEntity
 8
Layer8
100
AcDbLine
 39
0.25
 370
106
 10
79.4127
 20
418.663112207031
 30
0.0
 11
78.6637
 21
418.663112207031
 31
0.0
 0
LINE
 5
16E
100
AcDbEntity
 8
Layer8
100
AcDbLine
 39
0.25
 370
106
 10
78.6637
 20
418.663112207031
 30
0.0
 11
78.6637
 21
427.391112207031
 31
0.0
 0
LINE
 5
16F
100
AcDbEntity
 8
Layer8
100
AcDbLine
 39
0.25
 370
106
 10
78.6637
 20
427.391112207031
 30
0.0
 11
80.3367
 21
427.391112207031
 31
0.0
 0
LINE
 5
170
100
AcDbEntity
 8
Layer8
100
AcDbLine
 39
0.25
 370
106
 10
80.3367
 20
427.391112207031
 30
0.0
 11
80.3367
 21
424.675112207031
 31
0.0
 0
ARC
 5
171
100
AcDbEntity
 8
Layer8
100
AcDbCircle
 39
0.25
 370
106
 10
113.857312423247
 20
425.690439980398
 30
0.0
 40
31.6782962727131
100
AcDbArc
 50
176.922555185291
 51
-170.310098657335
 0
LINE
 5
172
100
AcDbEntity
 8
Layer8
100
AcDbLine
 39
0.25
 370
106
 10
83.8947
 20
418.663112207031
 30
0.0
 11
83.1417
 21
418.663112207031
 31
0.0
 0
LINE
 5
173
100
AcDbEntity
 8
Layer8
100
AcDbLine
 39
0.25
 370
106
 10
83.1417
 20
418.663112207031
 30
0.0
 11
82.630965625
 21
420.358487207031
 31
0.0
 0
LINE
 5
174
100
AcDbEntity
 8
Layer8
100
AcDbLine
 39
0.25
 370
106
 10
82.2247
 20
427.391112207031
 30
0.0
 11
83.8847
 21
427.397112207031
 31
0.0
 0
LINE
 5
175
100
AcDbEntity
 8
Layer8
100
AcDbLine
 39
0.25
 370
106
 10
83.8847
 20
427.397112207031
 30
0.0
 11
83.8947
 21
418.663112207031
 31
0.0
 0
LINE
 5
176
100
AcDbEntity
 8
Layer8
100
AcDbLine
 39
0.25
 370
106
 10
79.5777
 20
415.150112207031
 30
0.0
 11
80.007246875
 21
413.447159082031
 31
0.0
 0
LINE
 5
177
100
AcDbEntity
 8
Layer8
100
AcDbLine
 39
0.25
 370
106
 10
80.007246875
 20
413.447159082031
 30
0.0
 11
80.237575
 21
411.598987207031
 31
0.0
 0
LINE
 5
178
100
AcDbEntity
 8
Layer8
100
AcDbLine
 39
0.25
 370
106
 10
80.237575
 20
411.598987207031
 30
0.0
 11
80.3527
 21
406.356112207031
 31
0.0
 0
LINE
 5
179
100
AcDbEntity
 8
Layer8
100
AcDbLine
 39
0.25
 370
106
 10
80.3527
 20
406.356112207031
 30
0.0
 11
78.6247
 21
406.356112207031
 31
0.0
 0
LINE
 5
17A
100
AcDbEntity
 8
Layer8
100
AcDbLine
 39
0.25
 370
106
 10
78.6247
 20
406.356112207031
 30
0.0
 11
78.6177
 21
415.150112207031
 31
0.0
 0
LINE
 5
17B
100
AcDbEntity
 8
Layer8
100
AcDbLine
 39
0.25
 370
106
 10
78.6177
 20
415.150112207031
 30
0.0
 11
79.5777
 21
415.150112207031
 31
0.0
 0
LWPOLYLINE
 5
17C
100
AcDbEntity
 8
Layer8
100
AcDbPolyline
 39
0.25
 370
106
 90
5              
 70
 1
 43
0.0
 10
84.1987
 20
418.438112207031
 10
78.3837
 20
418.431112207031
 10
78.6637
 20
418.663112207031
 10
83.8947
 20
418.663112207031
 10
84.1987
 20
418.438112207031
 0
LINE
 5
17D
100
AcDbEntity
 8
Layer8
100
AcDbLine
 39
0.25
 370
106
 10
83.9667
 20
406.365112207031
 30
0.0
 11
82.2447
 21
406.356112207031
 31
0.0
 0
LINE
 5
17E
100
AcDbEntity
 8
Layer8
100
AcDbLine
 39
0.25
 370
106
 10
82.2447
 20
406.356112207031
 30
0.0
 11
82.3512
 21
412.988987207031
 31
0.0
 0
LINE
 5
17F
100
AcDbEntity
 8
Layer8
100
AcDbLine
 39
0.25
 370
106
 10
82.3512
 20
412.988987207031
 30
0.0
 11
82.9827
 21
415.155112207031
 31
0.0
 0
LINE
 5
180
100
AcDbEntity
 8
Layer8
100
AcDbLine
 39
0.25
 370
106
 10
82.9827
 20
415.155112207031
 30
0.0
 11
83.9577
 21
415.155112207031
 31
0.0
 0
LINE
 5
181
100
AcDbEntity
 8
Layer8
100
AcDbLine
 39
0.25
 370
106
 10
83.9577
 20
415.155112207031
 30
0.0
 11
83.9667
 21
406.365112207031
 31
0.0
 0
LINE
 5
182
100
AcDbEntity
 8
Layer8
100
AcDbLine
 39
0.25
 370
106
 10
84.2847
 20
415.762112207031
 30
0.0
 11
84.2347
 21
415.345112207031
 31
0.0
 0
LINE
 5
183
100
AcDbEntity
 8
Layer8
100
AcDbLine
 39
0.25
 370
106
 10
84.2347
 20
415.345112207031
 30
0.0
 11
83.9577
 21
415.155112207031
 31
0.0
 0
LINE
 5
184
100
AcDbEntity
 8
Layer8
100
AcDbLine
 39
0.25
 370
106
 10
83.9577
 20
415.155112207031
 30
0.0
 11
78.6177
 21
415.150112207031
 31
0.0
 0
LINE
 5
185
100
AcDbEntity
 8
Layer8
100
AcDbLine
 39
0.25
 370
106
 10
78.6177
 20
415.150112207031
 30
0.0
 11
78.3467
 21
415.335112207031
 31
0.0
 0
LINE
 5
186
100
AcDbEntity
 8
Layer8
100
AcDbLine
 39
0.25
 370
106
 10
78.3467
 20
415.335112207031
 30
0.0
 11
78.1577
 21
416.871112207031
 31
0.0
 0
LINE
 5
187
100
AcDbEntity
 8
Layer8
100
AcDbLine
 39
0.25
 370
106
 10
78.1577
 20
416.871112207031
 30
0.0
 11
84.4247
 21
416.881112207031
 31
0.0
 0
LINE
 5
188
100
AcDbEntity
 8
Layer8
100
AcDbLine
 39
0.25
 370
106
 10
84.4247
 20
416.881112207031
 30
0.0
 11
84.2847
 21
415.762112207031
 31
0.0
 0
LINE
 5
189
100
AcDbEntity
 8
Layer8
100
AcDbLine
 39
0.25
 370
106
 10
78.1577
 20
416.871112207031
 30
0.0
 11
78.3837
 21
418.431112207031
 31
0.0
 0
LINE
 5
18A
100
AcDbEntity
 8
Layer8
100
AcDbLine
 39
0.25
 370
106
 10
78.3837
 20
418.431112207031
 30
0.0
 11
84.1987
 21
418.438112207031
 31
0.0
 0
LINE
 5
18B
100
AcDbEntity
 8
Layer8
100
AcDbLine
 39
0.25
 370
106
 10
84.1987
 20
418.438112207031
 30
0.0
 11
84.4247
 21
416.881112207031
 31
0.0
 0
LINE
 5
18C
100
AcDbEntity
 8
Layer8
100
AcDbLine
 39
0.25
 370
106
 10
84.4247
 20
416.881112207031
 30
0.0
 11
78.1577
 21
416.871112207031
 31
0.0
 0
LINE
 5
18D
100
AcDbEntity
 8
Layer8
100
AcDbLine
 39
0.25
 370
106
 10
78.3837
 20
418.431112207031
 30
0.0
 11
78.1577
 21
416.871112207031
 31
0.0
 0
LINE
 5
18E
100
AcDbEntity
 8
Layer8
100
AcDbLine
 39
0.25
 370
106
 10
78.1577
 20
416.871112207031
 30
0.0
 11
78.2957
 21
415.755112207031
 31
0.0
 0
LINE
 5
18F
100
AcDbEntity
 8
Layer8
100
AcDbLine
 39
0.25
 370
106
 10
78.2957
 20
415.755112207031
 30
0.0
 11
58.9447
 21
415.742112207031
 31
0.0
 0
LINE
 5
190
100
AcDbEntity
 8
Layer8
100
AcDbLine
 39
0.25
 370
106
 10
58.9447
 20
415.742112207031
 30
0.0
 11
59.0937
 21
416.859112207031
 31
0.0
 0
LINE
 5
191
100
AcDbEntity
 8
Layer8
100
AcDbLine
 39
0.25
 370
106
 10
59.0937
 20
416.859112207031
 30
0.0
 11
58.8687
 21
418.415112207031
 31
0.0
 0
LINE
 5
192
100
AcDbEntity
 8
Layer8
100
AcDbLine
 39
0.25
 370
106
 10
58.8687
 20
418.415112207031
 30
0.0
 11
78.3837
 21
418.431112207031
 31
0.0
 0
LWPOLYLINE
 5
193
100
AcDbEntity
 8
Layer8
100
AcDbPolyline
 39
0.25
 370
106
 90
5              
 70
 1
 43
0.0
 10
58.5607
 20
427.374112207031
 10
58.5707
 20
418.636112207031
 10
53.3507
 20
418.633112207031
 10
53.3457
 20
427.365112207031
 10
58.5607
 20
427.374112207031
 0
LWPOLYLINE
 5
194
100
AcDbEntity
 8
Layer8
100
AcDbPolyline
 39
0.25
 370
106
 90
5              
 70
 1
 43
0.0
 10
58.6347
 20
415.134112207031
 10
58.6427
 20
406.339112207031
 10
53.2997
 20
406.333112207031
 10
53.2897
 20
415.129112207031
 10
58.6347
 20
415.134112207031
 0
LINE
 5
195
100
AcDbEntity
 8
Layer8
100
AcDbLine
 39
0.25
 370
106
 10
103.2867
 20
416.896112207031
 30
0.0
 11
103.4257
 21
415.778112207031
 31
0.0
 0
LINE
 5
196
100
AcDbEntity
 8
Layer8
100
AcDbLine
 39
0.25
 370
106
 10
103.4257
 20
415.778112207031
 30
0.0
 11
84.2847
 21
415.762112207031
 31
0.0
 0
LINE
 5
197
100
AcDbEntity
 8
Layer8
100
AcDbLine
 39
0.25
 370
106
 10
84.2847
 20
415.762112207031
 30
0.0
 11
84.4247
 21
416.881112207031
 31
0.0
 0
LINE
 5
198
100
AcDbEntity
 8
Layer8
100
AcDbLine
 39
0.25
 370
106
 10
84.4247
 20
416.881112207031
 30
0.0
 11
84.1987
 21
418.438112207031
 31
0.0
 0
LINE
 5
199
100
AcDbEntity
 8
Layer8
100
AcDbLine
 39
0.25
 370
106
 10
84.1987
 20
418.438112207031
 30
0.0
 11
103.5057
 21
418.452112207031
 31
0.0
 0
LINE
 5
19A
100
AcDbEntity
 8
Layer8
100
AcDbLine
 39
0.25
 370
106
 10
103.5057
 20
418.452112207031
 30
0.0
 11
103.2867
 21
416.896112207031
 31
0.0
 0
LINE
 5
19B
100
AcDbEntity
 8
Layer8
100
AcDbLine
 39
0.25
 370
106
 10
52.8287
 20
416.849112207031
 30
0.0
 11
53.0147
 21
418.385112207031
 31
0.0
 0
LINE
 5
19C
100
AcDbEntity
 8
Layer8
100
AcDbLine
 39
0.25
 370
106
 10
53.0147
 20
418.385112207031
 30
0.0
 11
53.3507
 21
418.633112207031
 31
0.0
 0
LINE
 5
19D
100
AcDbEntity
 8
Layer8
100
AcDbLine
 39
0.25
 370
106
 10
53.3507
 20
418.633112207031
 30
0.0
 11
58.5827
 21
418.636112207031
 31
0.0
 0
LINE
 5
19E
100
AcDbEntity
 8
Layer8
100
AcDbLine
 39
0.25
 370
106
 10
58.5827
 20
418.636112207031
 30
0.0
 11
58.8877
 21
418.385112207031
 31
0.0
 0
LINE
 5
19F
100
AcDbEntity
 8
Layer8
100
AcDbLine
 39
0.25
 370
106
 10
58.8877
 20
418.385112207031
 30
0.0
 11
59.0937
 21
416.859112207031
 31
0.0
 0
LINE
 5
1A0
100
AcDbEntity
 8
Layer8
100
AcDbLine
 39
0.25
 370
106
 10
59.0937
 20
416.859112207031
 30
0.0
 11
52.8287
 21
416.849112207031
 31
0.0
 0
LWPOLYLINE
 5
1A1
100
AcDbEntity
 8
Layer8
100
AcDbPolyline
 39
0.25
 370
106
 90
5              
 70
 1
 43
0.0
 10
109.0137
 20
427.412112207031
 10
109.0257
 20
418.683112207031
 10
103.7957
 20
418.673112207031
 10
103.7887
 20
427.412112207031
 10
109.0137
 20
427.412112207031
 0
LWPOLYLINE
 5
1A2
100
AcDbEntity
 8
Layer8
100
AcDbPolyline
 39
0.25
 370
106
 90
5              
 70
 1
 43
0.0
 10
109.0867
 20
415.175112207031
 10
109.0967
 20
406.375112207031
 10
103.7537
 20
406.375112207031
 10
103.7467
 20
415.170112207031
 10
109.0867
 20
415.175112207031
 0
LINE
 5
1A3
100
AcDbEntity
 8
Layer8
100
AcDbLine
 39
0.25
 370
106
 10
58.9447
 20
415.742112207031
 30
0.0
 11
58.9007
 21
415.321112207031
 31
0.0
 0
LINE
 5
1A4
100
AcDbEntity
 8
Layer8
100
AcDbLine
 39
0.25
 370
106
 10
58.9007
 20
415.321112207031
 30
0.0
 11
58.6347
 21
415.134112207031
 31
0.0
 0
LINE
 5
1A5
100
AcDbEntity
 8
Layer8
100
AcDbLine
 39
0.25
 370
106
 10
58.6347
 20
415.134112207031
 30
0.0
 11
53.2897
 21
415.129112207031
 31
0.0
 0
LINE
 5
1A6
100
AcDbEntity
 8
Layer8
100
AcDbLine
 39
0.25
 370
106
 10
53.2897
 20
415.129112207031
 30
0.0
 11
53.0227
 21
415.314112207031
 31
0.0
 0
LINE
 5
1A7
100
AcDbEntity
 8
Layer8
100
AcDbLine
 39
0.25
 370
106
 10
53.0227
 20
415.314112207031
 30
0.0
 11
52.8287
 21
416.849112207031
 31
0.0
 0
LINE
 5
1A8
100
AcDbEntity
 8
Layer8
100
AcDbLine
 39
0.25
 370
106
 10
52.8287
 20
416.849112207031
 30
0.0
 11
59.0937
 21
416.859112207031
 31
0.0
 0
LINE
 5
1A9
100
AcDbEntity
 8
Layer8
100
AcDbLine
 39
0.25
 370
106
 10
59.0937
 20
416.859112207031
 30
0.0
 11
58.9447
 21
415.742112207031
 31
0.0
 0
LINE
 5
1AA
100
AcDbEntity
 8
Layer8
100
AcDbLine
 39
0.25
 370
106
 10
103.2867
 20
416.896112207031
 30
0.0
 11
103.4677
 21
418.421112207031
 31
0.0
 0
LINE
 5
1AB
100
AcDbEntity
 8
Layer8
100
AcDbLine
 39
0.25
 370
106
 10
103.4677
 20
418.421112207031
 30
0.0
 11
103.7957
 21
418.673112207031
 31
0.0
 0
LINE
 5
1AC
100
AcDbEntity
 8
Layer8
100
AcDbLine
 39
0.25
 370
106
 10
103.7957
 20
418.673112207031
 30
0.0
 11
109.0257
 21
418.683112207031
 31
0.0
 0
LINE
 5
1AD
100
AcDbEntity
 8
Layer8
100
AcDbLine
 39
0.25
 370
106
 10
109.0257
 20
418.683112207031
 30
0.0
 11
109.3477
 21
418.431112207031
 31
0.0
 0
LINE
 5
1AE
100
AcDbEntity
 8
Layer8
100
AcDbLine
 39
0.25
 370
106
 10
109.3477
 20
418.431112207031
 30
0.0
 11
109.5467
 21
416.896112207031
 31
0.0
 0
LINE
 5
1AF
100
AcDbEntity
 8
Layer8
100
AcDbLine
 39
0.25
 370
106
 10
109.5467
 20
416.896112207031
 30
0.0
 11
103.2867
 21
416.896112207031
 31
0.0
 0
LINE
 5
1B0
100
AcDbEntity
 8
Layer8
100
AcDbLine
 39
0.25
 370
106
 10
109.3517
 20
415.367112207031
 30
0.0
 11
109.0867
 21
415.175112207031
 31
0.0
 0
LINE
 5
1B1
100
AcDbEntity
 8
Layer8
100
AcDbLine
 39
0.25
 370
106
 10
109.0867
 20
415.175112207031
 30
0.0
 11
103.7467
 21
415.170112207031
 31
0.0
 0
LINE
 5
1B2
100
AcDbEntity
 8
Layer8
100
AcDbLine
 39
0.25
 370
106
 10
103.7467
 20
415.170112207031
 30
0.0
 11
103.4707
 21
415.357112207031
 31
0.0
 0
LINE
 5
1B3
100
AcDbEntity
 8
Layer8
100
AcDbLine
 39
0.25
 370
106
 10
103.4707
 20
415.357112207031
 30
0.0
 11
103.2867
 21
416.896112207031
 31
0.0
 0
LINE
 5
1B4
100
AcDbEntity
 8
Layer8
100
AcDbLine
 39
0.25
 370
106
 10
103.2867
 20
416.896112207031
 30
0.0
 11
109.5467
 21
416.896112207031
 31
0.0
 0
LINE
 5
1B5
100
AcDbEntity
 8
Layer8
100
AcDbLine
 39
0.25
 370
106
 10
109.5467
 20
416.896112207031
 30
0.0
 11
109.3517
 21
415.367112207031
 31
0.0
 0
LINE
 5
1B6
100
AcDbEntity
 8
Layer8
100
AcDbLine
 39
0.25
 370
106
 10
78.3987
 20
393.044112207031
 30
0.0
 11
78.6437
 21
393.262112207031
 31
0.0
 0
LINE
 5
1B7
100
AcDbEntity
 8
Layer8
100
AcDbLine
 39
0.25
 370
106
 10
78.6437
 20
393.262112207031
 30
0.0
 11
83.8747
 21
393.262112207031
 31
0.0
 0
LINE
 5
1B8
100
AcDbEntity
 8
Layer8
100
AcDbLine
 39
0.25
 370
106
 10
83.8747
 20
393.262112207031
 30
0.0
 11
84.1827
 21
393.019112207031
 31
0.0
 0
LINE
 5
1B9
100
AcDbEntity
 8
Layer8
100
AcDbLine
 39
0.25
 370
106
 10
84.1827
 20
393.019112207031
 30
0.0
 11
84.3797
 21
391.475112207031
 31
0.0
 0
LINE
 5
1BA
100
AcDbEntity
 8
Layer8
100
AcDbLine
 39
0.25
 370
106
 10
84.3797
 20
391.475112207031
 30
0.0
 11
78.1717
 21
391.475112207031
 31
0.0
 0
LINE
 5
1BB
100
AcDbEntity
 8
Layer8
100
AcDbLine
 39
0.25
 370
106
 10
78.1717
 20
391.475112207031
 30
0.0
 11
78.3987
 21
393.044112207031
 31
0.0
 0
LINE
 5
1BC
100
AcDbEntity
 8
Layer8
100
AcDbLine
 39
0.25
 370
106
 10
78.1717
 20
391.475112207031
 30
0.0
 11
78.3167
 21
390.356112207031
 31
0.0
 0
LINE
 5
1BD
100
AcDbEntity
 8
Layer8
100
AcDbLine
 39
0.25
 370
106
 10
78.3167
 20
390.356112207031
 30
0.0
 11
58.9707
 21
390.341112207031
 31
0.0
 0
LINE
 5
1BE
100
AcDbEntity
 8
Layer8
100
AcDbLine
 39
0.25
 370
106
 10
58.9707
 20
390.341112207031
 30
0.0
 11
59.1157
 21
391.459112207031
 31
0.0
 0
LINE
 5
1BF
100
AcDbEntity
 8
Layer8
100
AcDbLine
 39
0.25
 370
106
 10
59.1157
 20
391.459112207031
 30
0.0
 11
58.8877
 21
393.025112207031
 31
0.0
 0
LINE
 5
1C0
100
AcDbEntity
 8
Layer8
100
AcDbLine
 39
0.25
 370
106
 10
58.8877
 20
393.025112207031
 30
0.0
 11
78.3987
 21
393.044112207031
 31
0.0
 0
LINE
 5
1C1
100
AcDbEntity
 8
Layer8
100
AcDbLine
 39
0.25
 370
106
 10
78.3987
 20
393.044112207031
 30
0.0
 11
78.1717
 21
391.475112207031
 31
0.0
 0
LWPOLYLINE
 5
1C2
100
AcDbEntity
 8
Layer8
100
AcDbPolyline
 39
0.25
 370
106
 90
5              
 70
 1
 43
0.0
 10
58.5827
 20
401.985112207031
 10
58.5887
 20
393.249112207031
 10
53.3707
 20
393.243112207031
 10
53.3707
 20
401.975112207031
 10
58.5827
 20
401.985112207031
 0
LWPOLYLINE
 5
1C3
100
AcDbEntity
 8
Layer8
100
AcDbPolyline
 39
0.25
 370
106
 90
5              
 70
 1
 43
0.0
 10
58.6547
 20
389.743112207031
 10
58.6647
 20
380.949112207031
 10
53.3207
 20
380.943112207031
 10
53.3137
 20
389.739112207031
 10
58.6547
 20
389.743112207031
 0
LINE
 5
1C4
100
AcDbEntity
 8
Layer8
100
AcDbLine
 39
0.25
 370
106
 10
103.3027
 20
391.505112207031
 30
0.0
 11
103.4447
 21
390.388112207031
 31
0.0
 0
LINE
 5
1C5
100
AcDbEntity
 8
Layer8
100
AcDbLine
 39
0.25
 370
106
 10
103.4447
 20
390.388112207031
 30
0.0
 11
84.3057
 21
390.362112207031
 31
0.0
 0
LINE
 5
1C6
100
AcDbEntity
 8
Layer8
100
AcDbLine
 39
0.25
 370
106
 10
84.3057
 20
390.362112207031
 30
0.0
 11
84.4407
 21
391.481112207031
 31
0.0
 0
LINE
 5
1C7
100
AcDbEntity
 8
Layer8
100
AcDbLine
 39
0.25
 370
106
 10
84.4407
 20
391.481112207031
 30
0.0
 11
84.2187
 21
393.044112207031
 31
0.0
 0
LINE
 5
1C8
100
AcDbEntity
 8
Layer8
100
AcDbLine
 39
0.25
 370
106
 10
84.2187
 20
393.044112207031
 30
0.0
 11
103.5257
 21
393.057112207031
 31
0.0
 0
LINE
 5
1C9
100
AcDbEntity
 8
Layer8
100
AcDbLine
 39
0.25
 370
106
 10
103.5257
 20
393.057112207031
 30
0.0
 11
103.3027
 21
391.505112207031
 31
0.0
 0
LINE
 5
1CA
100
AcDbEntity
 8
Layer8
100
AcDbLine
 39
0.25
 370
106
 10
52.8487
 20
391.459112207031
 30
0.0
 11
53.0317
 21
392.995112207031
 31
0.0
 0
LINE
 5
1CB
100
AcDbEntity
 8
Layer8
100
AcDbLine
 39
0.25
 370
106
 10
53.0317
 20
392.995112207031
 30
0.0
 11
53.3707
 21
393.243112207031
 31
0.0
 0
LINE
 5
1CC
100
AcDbEntity
 8
Layer8
100
AcDbLine
 39
0.25
 370
106
 10
53.3707
 20
393.243112207031
 30
0.0
 11
58.6017
 21
393.249112207031
 31
0.0
 0
LINE
 5
1CD
100
AcDbEntity
 8
Layer8
100
AcDbLine
 39
0.25
 370
106
 10
58.6017
 20
393.249112207031
 30
0.0
 11
58.9167
 21
392.995112207031
 31
0.0
 0
LINE
 5
1CE
100
AcDbEntity
 8
Layer8
100
AcDbLine
 39
0.25
 370
106
 10
58.9167
 20
392.995112207031
 30
0.0
 11
59.1157
 21
391.469112207031
 31
0.0
 0
LINE
 5
1CF
100
AcDbEntity
 8
Layer8
100
AcDbLine
 39
0.25
 370
106
 10
59.1157
 20
391.469112207031
 30
0.0
 11
52.8487
 21
391.459112207031
 31
0.0
 0
LWPOLYLINE
 5
1D0
100
AcDbEntity
 8
Layer8
100
AcDbPolyline
 39
0.25
 370
106
 90
5              
 70
 1
 43
0.0
 10
83.8447
 20
402.001112207031
 10
83.8547
 20
393.262112207031
 10
78.6437
 20
393.262112207031
 10
78.6277
 20
401.990112207031
 10
83.8447
 20
402.001112207031
 0
LWPOLYLINE
 5
1D1
100
AcDbEntity
 8
Layer8
100
AcDbPolyline
 39
0.25
 370
106
 90
5              
 70
 1
 43
0.0
 10
83.9167
 20
389.775112207031
 10
83.9267
 20
380.981112207031
 10
78.5877
 20
380.976112207031
 10
78.5817
 20
389.765112207031
 10
83.9167
 20
389.775112207031
 0
LINE
 5
1D2
100
AcDbEntity
 8
Layer8
100
AcDbLine
 39
0.25
 370
106
 10
58.9627
 20
390.351112207031
 30
0.0
 11
58.9197
 21
389.931112207031
 31
0.0
 0
LINE
 5
1D3
100
AcDbEntity
 8
Layer8
100
AcDbLine
 39
0.25
 370
106
 10
58.9197
 20
389.931112207031
 30
0.0
 11
58.6547
 21
389.743112207031
 31
0.0
 0
LINE
 5
1D4
100
AcDbEntity
 8
Layer8
100
AcDbLine
 39
0.25
 370
106
 10
58.6547
 20
389.743112207031
 30
0.0
 11
53.3137
 21
389.739112207031
 31
0.0
 0
LINE
 5
1D5
100
AcDbEntity
 8
Layer8
100
AcDbLine
 39
0.25
 370
106
 10
53.3137
 20
389.739112207031
 30
0.0
 11
53.0387
 21
389.924112207031
 31
0.0
 0
LINE
 5
1D6
100
AcDbEntity
 8
Layer8
100
AcDbLine
 39
0.25
 370
106
 10
53.0387
 20
389.924112207031
 30
0.0
 11
52.8487
 21
391.459112207031
 31
0.0
 0
LINE
 5
1D7
100
AcDbEntity
 8
Layer8
100
AcDbLine
 39
0.25
 370
106
 10
52.8487
 20
391.459112207031
 30
0.0
 11
59.1157
 21
391.469112207031
 31
0.0
 0
LINE
 5
1D8
100
AcDbEntity
 8
Layer8
100
AcDbLine
 39
0.25
 370
106
 10
59.1157
 20
391.469112207031
 30
0.0
 11
58.9627
 21
390.351112207031
 31
0.0
 0
LINE
 5
1D9
100
AcDbEntity
 8
Layer8
100
AcDbLine
 39
0.25
 370
106
 10
78.3567
 20
393.019112207031
 30
0.0
 11
78.1717
 21
391.475112207031
 31
0.0
 0
LINE
 5
1DA
100
AcDbEntity
 8
Layer8
100
AcDbLine
 39
0.25
 370
106
 10
78.1717
 20
391.475112207031
 30
0.0
 11
78.1107
 21
391.475112207031
 31
0.0
 0
LINE
 5
1DB
100
AcDbEntity
 8
Layer8
100
AcDbLine
 39
0.25
 370
106
 10
78.1107
 20
391.475112207031
 30
0.0
 11
78.2957
 21
393.019112207031
 31
0.0
 0
LINE
 5
1DC
100
AcDbEntity
 8
Layer8
100
AcDbLine
 39
0.25
 370
106
 10
78.2957
 20
393.019112207031
 30
0.0
 11
78.3987
 21
393.044112207031
 31
0.0
 0
LINE
 5
1DD
100
AcDbEntity
 8
Layer8
100
AcDbLine
 39
0.25
 370
106
 10
78.3987
 20
393.044112207031
 30
0.0
 11
78.3567
 21
393.019112207031
 31
0.0
 0
LWPOLYLINE
 5
1DE
100
AcDbEntity
 8
Layer8
100
AcDbPolyline
 39
0.25
 370
106
 90
5              
 70
 1
 43
0.0
 10
78.3167
 20
390.356112207031
 10
78.2557
 20
390.356112207031
 10
78.1107
 20
391.475112207031
 10
78.1717
 20
391.475112207031
 10
78.3167
 20
390.356112207031
 0
LWPOLYLINE
 5
1DF
100
AcDbEntity
 8
Layer8
100
AcDbPolyline
 39
0.25
 370
106
 90
5              
 70
 1
 43
0.0
 10
109.0357
 20
402.021112207031
 10
109.0457
 20
393.284112207031
 10
103.8137
 20
393.284112207031
 10
103.8087
 20
402.021112207031
 10
109.0357
 20
402.021112207031
 0
LWPOLYLINE
 5
1E0
100
AcDbEntity
 8
Layer8
100
AcDbPolyline
 39
0.25
 370
106
 90
5              
 70
 1
 43
0.0
 10
109.1067
 20
389.785112207031
 10
109.1167
 20
380.986112207031
 10
103.7737
 20
380.986112207031
 10
103.7637
 20
389.779112207031
 10
109.1067
 20
389.785112207031
 0
LINE
 5
1E1
100
AcDbEntity
 8
Layer8
100
AcDbLine
 39
0.25
 370
106
 10
84.2447
 20
390.362112207031
 30
0.0
 11
84.1827
 21
389.955112207031
 31
0.0
 0
LINE
 5
1E2
100
AcDbEntity
 8
Layer8
100
AcDbLine
 39
0.25
 370
106
 10
84.1827
 20
389.955112207031
 30
0.0
 11
83.9167
 21
389.775112207031
 31
0.0
 0
LINE
 5
1E3
100
AcDbEntity
 8
Layer8
100
AcDbLine
 39
0.25
 370
106
 10
83.9167
 20
389.775112207031
 30
0.0
 11
78.5817
 21
389.765112207031
 31
0.0
 0
LINE
 5
1E4
100
AcDbEntity
 8
Layer8
100
AcDbLine
 39
0.25
 370
106
 10
78.5817
 20
389.765112207031
 30
0.0
 11
78.2957
 21
389.955112207031
 31
0.0
 0
LINE
 5
1E5
100
AcDbEntity
 8
Layer8
100
AcDbLine
 39
0.25
 370
106
 10
78.2957
 20
389.955112207031
 30
0.0
 11
78.1717
 21
391.475112207031
 31
0.0
 0
LINE
 5
1E6
100
AcDbEntity
 8
Layer8
100
AcDbLine
 39
0.25
 370
106
 10
78.1717
 20
391.475112207031
 30
0.0
 11
84.3797
 21
391.475112207031
 31
0.0
 0
LINE
 5
1E7
100
AcDbEntity
 8
Layer8
100
AcDbLine
 39
0.25
 370
106
 10
84.3797
 20
391.475112207031
 30
0.0
 11
84.2447
 21
390.362112207031
 31
0.0
 0
LINE
 5
1E8
100
AcDbEntity
 8
Layer8
100
AcDbLine
 39
0.25
 370
106
 10
103.3027
 20
391.505112207031
 30
0.0
 11
103.4857
 21
393.029112207031
 31
0.0
 0
LINE
 5
1E9
100
AcDbEntity
 8
Layer8
100
AcDbLine
 39
0.25
 370
106
 10
103.4857
 20
393.029112207031
 30
0.0
 11
103.8137
 21
393.284112207031
 31
0.0
 0
LINE
 5
1EA
100
AcDbEntity
 8
Layer8
100
AcDbLine
 39
0.25
 370
106
 10
103.8137
 20
393.284112207031
 30
0.0
 11
109.0457
 21
393.284112207031
 31
0.0
 0
LINE
 5
1EB
100
AcDbEntity
 8
Layer8
100
AcDbLine
 39
0.25
 370
106
 10
109.0457
 20
393.284112207031
 30
0.0
 11
109.3617
 21
393.044112207031
 31
0.0
 0
LINE
 5
1EC
100
AcDbEntity
 8
Layer8
100
AcDbLine
 39
0.25
 370
106
 10
109.3617
 20
393.044112207031
 30
0.0
 11
109.5687
 21
391.505112207031
 31
0.0
 0
LINE
 5
1ED
100
AcDbEntity
 8
Layer8
100
AcDbLine
 39
0.25
 370
106
 10
109.5687
 20
391.505112207031
 30
0.0
 11
103.3027
 21
391.505112207031
 31
0.0
 0
LINE
 5
1EE
100
AcDbEntity
 8
Layer8
100
AcDbLine
 39
0.25
 370
106
 10
109.3747
 20
389.975112207031
 30
0.0
 11
109.1067
 21
389.785112207031
 31
0.0
 0
LINE
 5
1EF
100
AcDbEntity
 8
Layer8
100
AcDbLine
 39
0.25
 370
106
 10
109.1067
 20
389.785112207031
 30
0.0
 11
103.7637
 21
389.779112207031
 31
0.0
 0
LINE
 5
1F0
100
AcDbEntity
 8
Layer8
100
AcDbLine
 39
0.25
 370
106
 10
103.7637
 20
389.779112207031
 30
0.0
 11
103.4957
 21
389.965112207031
 31
0.0
 0
LINE
 5
1F1
100
AcDbEntity
 8
Layer8
100
AcDbLine
 39
0.25
 370
106
 10
103.4957
 20
389.965112207031
 30
0.0
 11
103.3027
 21
391.505112207031
 31
0.0
 0
LINE
 5
1F2
100
AcDbEntity
 8
Layer8
100
AcDbLine
 39
0.25
 370
106
 10
103.3027
 20
391.505112207031
 30
0.0
 11
109.5687
 21
391.505112207031
 31
0.0
 0
LINE
 5
1F3
100
AcDbEntity
 8
Layer8
100
AcDbLine
 39
0.25
 370
106
 10
109.5687
 20
391.505112207031
 30
0.0
 11
109.3747
 21
389.975112207031
 31
0.0
 0
ARC
 5
1F4
100
AcDbEntity
 8
Layer8
100
AcDbCircle
 39
0.25
 370
106
 10
89.0321824285391
 20
421.995657200831
 30
0.0
 40
6.79888759985709
100
AcDbArc
 50
178.074342278253
 51
-150.867150798599
 0
LINE
 5
1F5
100
AcDbEntity
 8
Layer8
100
AcDbLine
 39
0.25
 370
106
 10
79.4604
 20
418.685712207031
 30
0.0
 11
79.96268125
 21
420.378259082031
 31
0.0
 0
LINE
 5
1F6
100
AcDbEntity
 8
Layer8
100
AcDbLine
 39
0.25
 370
106
 10
79.96268125
 20
420.378259082031
 30
0.0
 11
80.23115
 21
422.357587207031
 31
0.0
 0
LINE
 5
1F7
100
AcDbEntity
 8
Layer8
100
AcDbLine
 39
0.25
 370
106
 10
80.23115
 20
422.357587207031
 30
0.0
 11
80.3584
 21
424.687712207031
 31
0.0
 0
LINE
 5
1F8
100
AcDbEntity
 8
Layer8
100
AcDbLine
 39
0.25
 370
106
 10
80.3584
 20
424.687712207031
 30
0.0
 11
80.3584
 21
429.523712207031
 31
0.0
 0
LINE
 5
1F9
100
AcDbEntity
 8
Layer8
100
AcDbLine
 39
0.25
 370
106
 10
80.3584
 20
429.523712207031
 30
0.0
 11
82.1984
 21
429.523712207031
 31
0.0
 0
LINE
 5
1FA
100
AcDbEntity
 8
Layer8
100
AcDbLine
 39
0.25
 370
106
 10
82.1984
 20
429.523712207031
 30
0.0
 11
82.237134375
 21
422.224118457031
 31
0.0
 0
LINE
 5
1FB
100
AcDbEntity
 8
Layer8
100
AcDbLine
 39
0.25
 370
106
 10
83.0934
 20
418.685712207031
 30
0.0
 11
79.4604
 21
418.685712207031
 31
0.0
 0
LINE
 5
1FC
100
AcDbEntity
 8
Layer8
100
AcDbLine
 39
0.25
 370
106
 10
79.2584
 20
418.453712207031
 30
0.0
 11
79.3744
 21
418.685712207031
 31
0.0
 0
LINE
 5
1FD
100
AcDbEntity
 8
Layer8
100
AcDbLine
 39
0.25
 370
106
 10
79.3744
 20
418.685712207031
 30
0.0
 11
83.0804
 21
418.685712207031
 31
0.0
 0
LINE
 5
1FE
100
AcDbEntity
 8
Layer8
100
AcDbLine
 39
0.25
 370
106
 10
83.0804
 20
418.685712207031
 30
0.0
 11
83.1884
 21
418.453712207031
 31
0.0
 0
LINE
 5
1FF
100
AcDbEntity
 8
Layer8
100
AcDbLine
 39
0.25
 370
106
 10
83.1884
 20
418.453712207031
 30
0.0
 11
79.2584
 21
418.453712207031
 31
0.0
 0
LINE
 5
200
100
AcDbEntity
 8
Layer8
100
AcDbLine
 39
0.25
 370
106
 10
80.3704
 20
409.544712207031
 30
0.0
 11
80.246775
 21
413.016087207031
 31
0.0
 0
LINE
 5
201
100
AcDbEntity
 8
Layer8
100
AcDbLine
 39
0.25
 370
106
 10
80.246775
 20
413.016087207031
 30
0.0
 11
79.6334
 21
415.181712207031
 31
0.0
 0
LINE
 5
202
100
AcDbEntity
 8
Layer8
100
AcDbLine
 39
0.25
 370
106
 10
79.6334
 20
415.181712207031
 30
0.0
 11
82.9434
 21
415.181712207031
 31
0.0
 0
LINE
 5
203
100
AcDbEntity
 8
Layer8
100
AcDbLine
 39
0.25
 370
106
 10
82.9434
 20
415.181712207031
 30
0.0
 11
82.532696875
 21
413.480384082031
 31
0.0
 0
LINE
 5
204
100
AcDbEntity
 8
Layer8
100
AcDbLine
 39
0.25
 370
106
 10
82.532696875
 20
413.480384082031
 30
0.0
 11
82.232540625
 21
410.151977832031
 31
0.0
 0
LINE
 5
205
100
AcDbEntity
 8
Layer8
100
AcDbLine
 39
0.25
 370
106
 10
82.232540625
 20
410.151977832031
 30
0.0
 11
82.2224
 21
402.048712207031
 31
0.0
 0
LINE
 5
206
100
AcDbEntity
 8
Layer8
100
AcDbLine
 39
0.25
 370
106
 10
82.2224
 20
402.048712207031
 30
0.0
 11
80.3704
 21
402.039712207031
 31
0.0
 0
LINE
 5
207
100
AcDbEntity
 8
Layer8
100
AcDbLine
 39
0.25
 370
106
 10
80.3704
 20
402.039712207031
 30
0.0
 11
80.3704
 21
409.544712207031
 31
0.0
 0
LINE
 5
208
100
AcDbEntity
 8
Layer8
100
AcDbLine
 39
0.25
 370
106
 10
80.3367
 20
373.576012207031
 30
0.0
 11
80.1897
 21
369.660262207031
 31
0.0
 0
LINE
 5
209
100
AcDbEntity
 8
Layer8
100
AcDbLine
 39
0.25
 370
106
 10
80.1897
 20
369.660262207031
 30
0.0
 11
79.9232625
 21
368.664543457031
 31
0.0
 0
LINE
 5
20A
100
AcDbEntity
 8
Layer8
100
AcDbLine
 39
0.25
 370
106
 10
79.9232625
 20
368.664543457031
 30
0.0
 11
79.4127
 21
367.558012207031
 31
0.0
 0
LINE
 5
20B
100
AcDbEntity
 8
Layer8
100
AcDbLine
 39
0.25
 370
106
 10
79.4127
 20
367.558012207031
 30
0.0
 11
78.6637
 21
367.558012207031
 31
0.0
 0
LINE
 5
20C
100
AcDbEntity
 8
Layer8
100
AcDbLine
 39
0.25
 370
106
 10
78.6637
 20
367.558012207031
 30
0.0
 11
78.6637
 21
376.286012207031
 31
0.0
 0
LINE
 5
20D
100
AcDbEntity
 8
Layer8
100
AcDbLine
 39
0.25
 370
106
 10
78.6637
 20
376.286012207031
 30
0.0
 11
80.3367
 21
376.296012207031
 31
0.0
 0
LINE
 5
20E
100
AcDbEntity
 8
Layer8
100
AcDbLine
 39
0.25
 370
106
 10
80.3367
 20
376.296012207031
 30
0.0
 11
80.3367
 21
373.576012207031
 31
0.0
 0
LINE
 5
20F
100
AcDbEntity
 8
Layer8
100
AcDbLine
 39
0.25
 370
106
 10
83.8947
 20
367.558012207031
 30
0.0
 11
83.1417
 21
367.558012207031
 31
0.0
 0
LINE
 5
210
100
AcDbEntity
 8
Layer8
100
AcDbLine
 39
0.25
 370
106
 10
83.1417
 20
367.558012207031
 30
0.0
 11
82.630965625
 21
369.257699707031
 31
0.0
 0
LINE
 5
211
100
AcDbEntity
 8
Layer8
100
AcDbLine
 39
0.25
 370
106
 10
82.630965625
 20
369.257699707031
 30
0.0
 11
82.245496875
 21
372.888824707031
 31
0.0
 0
LINE
 5
212
100
AcDbEntity
 8
Layer8
100
AcDbLine
 39
0.25
 370
106
 10
82.245496875
 20
372.888824707031
 30
0.0
 11
82.2247
 21
376.296012207031
 31
0.0
 0
LINE
 5
213
100
AcDbEntity
 8
Layer8
100
AcDbLine
 39
0.25
 370
106
 10
82.2247
 20
376.296012207031
 30
0.0
 11
83.8847
 21
376.296012207031
 31
0.0
 0
LINE
 5
214
100
AcDbEntity
 8
Layer8
100
AcDbLine
 39
0.25
 370
106
 10
83.8847
 20
376.296012207031
 30
0.0
 11
83.8947
 21
367.558012207031
 31
0.0
 0
LINE
 5
215
100
AcDbEntity
 8
Layer8
100
AcDbLine
 39
0.25
 370
106
 10
79.5777
 20
364.055012207031
 30
0.0
 11
80.007246875
 21
362.351637207031
 31
0.0
 0
LINE
 5
216
100
AcDbEntity
 8
Layer8
100
AcDbLine
 39
0.25
 370
106
 10
80.007246875
 20
362.351637207031
 30
0.0
 11
80.237575
 21
360.503512207031
 31
0.0
 0
LINE
 5
217
100
AcDbEntity
 8
Layer8
100
AcDbLine
 39
0.25
 370
106
 10
80.237575
 20
360.503512207031
 30
0.0
 11
80.3527
 21
355.255012207031
 31
0.0
 0
LINE
 5
218
100
AcDbEntity
 8
Layer8
100
AcDbLine
 39
0.25
 370
106
 10
80.3527
 20
355.255012207031
 30
0.0
 11
78.6247
 21
355.255012207031
 31
0.0
 0
LINE
 5
219
100
AcDbEntity
 8
Layer8
100
AcDbLine
 39
0.25
 370
106
 10
78.6247
 20
355.255012207031
 30
0.0
 11
78.6177
 21
364.055012207031
 31
0.0
 0
LINE
 5
21A
100
AcDbEntity
 8
Layer8
100
AcDbLine
 39
0.25
 370
106
 10
78.6177
 20
364.055012207031
 30
0.0
 11
79.5777
 21
364.055012207031
 31
0.0
 0
LWPOLYLINE
 5
21B
100
AcDbEntity
 8
Layer8
100
AcDbPolyline
 39
0.25
 370
106
 90
5              
 70
 1
 43
0.0
 10
84.1987
 20
367.336012207031
 10
78.3837
 20
367.331012207031
 10
78.6637
 20
367.558012207031
 10
83.8947
 20
367.558012207031
 10
84.1987
 20
367.336012207031
 0
LINE
 5
21C
100
AcDbEntity
 8
Layer8
100
AcDbLine
 39
0.25
 370
106
 10
83.9667
 20
355.260012207031
 30
0.0
 11
82.2447
 21
355.255012207031
 31
0.0
 0
LINE
 5
21D
100
AcDbEntity
 8
Layer8
100
AcDbLine
 39
0.25
 370
106
 10
82.2447
 20
355.255012207031
 30
0.0
 11
82.3512
 21
361.888762207031
 31
0.0
 0
LINE
 5
21E
100
AcDbEntity
 8
Layer8
100
AcDbLine
 39
0.25
 370
106
 10
82.3512
 20
361.888762207031
 30
0.0
 11
82.9827
 21
364.055012207031
 31
0.0
 0
LINE
 5
21F
100
AcDbEntity
 8
Layer8
100
AcDbLine
 39
0.25
 370
106
 10
82.9827
 20
364.055012207031
 30
0.0
 11
83.9577
 21
364.055012207031
 31
0.0
 0
LINE
 5
220
100
AcDbEntity
 8
Layer8
100
AcDbLine
 39
0.25
 370
106
 10
83.9577
 20
364.055012207031
 30
0.0
 11
83.9667
 21
355.260012207031
 31
0.0
 0
LINE
 5
221
100
AcDbEntity
 8
Layer8
100
AcDbLine
 39
0.25
 370
106
 10
84.2847
 20
364.663012207031
 30
0.0
 11
84.2347
 21
364.241012207031
 31
0.0
 0
LINE
 5
222
100
AcDbEntity
 8
Layer8
100
AcDbLine
 39
0.25
 370
106
 10
84.2347
 20
364.241012207031
 30
0.0
 11
83.9577
 21
364.055012207031
 31
0.0
 0
LINE
 5
223
100
AcDbEntity
 8
Layer8
100
AcDbLine
 39
0.25
 370
106
 10
83.9577
 20
364.055012207031
 30
0.0
 11
78.6177
 21
364.055012207031
 31
0.0
 0
LINE
 5
224
100
AcDbEntity
 8
Layer8
100
AcDbLine
 39
0.25
 370
106
 10
78.6177
 20
364.055012207031
 30
0.0
 11
78.3467
 21
364.234012207031
 31
0.0
 0
LINE
 5
225
100
AcDbEntity
 8
Layer8
100
AcDbLine
 39
0.25
 370
106
 10
78.3467
 20
364.234012207031
 30
0.0
 11
78.1577
 21
365.771012207031
 31
0.0
 0
LINE
 5
226
100
AcDbEntity
 8
Layer8
100
AcDbLine
 39
0.25
 370
106
 10
78.1577
 20
365.771012207031
 30
0.0
 11
84.4247
 21
365.780012207031
 31
0.0
 0
LINE
 5
227
100
AcDbEntity
 8
Layer8
100
AcDbLine
 39
0.25
 370
106
 10
84.4247
 20
365.780012207031
 30
0.0
 11
84.2847
 21
364.663012207031
 31
0.0
 0
LINE
 5
228
100
AcDbEntity
 8
Layer8
100
AcDbLine
 39
0.25
 370
106
 10
78.1577
 20
365.771012207031
 30
0.0
 11
78.3837
 21
367.331012207031
 31
0.0
 0
LINE
 5
229
100
AcDbEntity
 8
Layer8
100
AcDbLine
 39
0.25
 370
106
 10
78.3837
 20
367.331012207031
 30
0.0
 11
84.1987
 21
367.336012207031
 31
0.0
 0
LINE
 5
22A
100
AcDbEntity
 8
Layer8
100
AcDbLine
 39
0.25
 370
106
 10
84.1987
 20
367.336012207031
 30
0.0
 11
84.4247
 21
365.780012207031
 31
0.0
 0
LINE
 5
22B
100
AcDbEntity
 8
Layer8
100
AcDbLine
 39
0.25
 370
106
 10
84.4247
 20
365.780012207031
 30
0.0
 11
78.1577
 21
365.771012207031
 31
0.0
 0
LINE
 5
22C
100
AcDbEntity
 8
Layer8
100
AcDbLine
 39
0.25
 370
106
 10
78.3837
 20
367.331012207031
 30
0.0
 11
78.1577
 21
365.771012207031
 31
0.0
 0
LINE
 5
22D
100
AcDbEntity
 8
Layer8
100
AcDbLine
 39
0.25
 370
106
 10
78.1577
 20
365.771012207031
 30
0.0
 11
78.2957
 21
364.653012207031
 31
0.0
 0
LINE
 5
22E
100
AcDbEntity
 8
Layer8
100
AcDbLine
 39
0.25
 370
106
 10
78.2957
 20
364.653012207031
 30
0.0
 11
58.9447
 21
364.637012207031
 31
0.0
 0
LINE
 5
22F
100
AcDbEntity
 8
Layer8
100
AcDbLine
 39
0.25
 370
106
 10
58.9447
 20
364.637012207031
 30
0.0
 11
59.0937
 21
365.756012207031
 31
0.0
 0
LINE
 5
230
100
AcDbEntity
 8
Layer8
100
AcDbLine
 39
0.25
 370
106
 10
59.0937
 20
365.756012207031
 30
0.0
 11
58.8687
 21
367.316012207031
 31
0.0
 0
LINE
 5
231
100
AcDbEntity
 8
Layer8
100
AcDbLine
 39
0.25
 370
106
 10
58.8687
 20
367.316012207031
 30
0.0
 11
78.3837
 21
367.331012207031
 31
0.0
 0
LWPOLYLINE
 5
232
100
AcDbEntity
 8
Layer8
100
AcDbPolyline
 39
0.25
 370
106
 90
5              
 70
 1
 43
0.0
 10
58.5607
 20
376.276012207031
 10
58.5707
 20
367.538012207031
 10
53.3507
 20
367.538012207031
 10
53.3457
 20
376.276012207031
 10
58.5607
 20
376.276012207031
 0
LWPOLYLINE
 5
233
100
AcDbEntity
 8
Layer8
100
AcDbPolyline
 39
0.25
 370
106
 90
5              
 70
 1
 43
0.0
 10
58.6347
 20
364.035012207031
 10
58.6427
 20
355.240012207031
 10
53.2997
 20
355.237012207031
 10
53.2897
 20
364.035012207031
 10
58.6347
 20
364.035012207031
 0
LINE
 5
234
100
AcDbEntity
 8
Layer8
100
AcDbLine
 39
0.25
 370
106
 10
103.2867
 20
365.790012207031
 30
0.0
 11
103.4257
 21
364.674012207031
 31
0.0
 0
LINE
 5
235
100
AcDbEntity
 8
Layer8
100
AcDbLine
 39
0.25
 370
106
 10
103.4257
 20
364.674012207031
 30
0.0
 11
84.2847
 21
364.663012207031
 31
0.0
 0
LINE
 5
236
100
AcDbEntity
 8
Layer8
100
AcDbLine
 39
0.25
 370
106
 10
84.2847
 20
364.663012207031
 30
0.0
 11
84.4247
 21
365.780012207031
 31
0.0
 0
LINE
 5
237
100
AcDbEntity
 8
Layer8
100
AcDbLine
 39
0.25
 370
106
 10
84.4247
 20
365.780012207031
 30
0.0
 11
84.1987
 21
367.336012207031
 31
0.0
 0
LINE
 5
238
100
AcDbEntity
 8
Layer8
100
AcDbLine
 39
0.25
 370
106
 10
84.1987
 20
367.336012207031
 30
0.0
 11
103.5057
 21
367.353012207031
 31
0.0
 0
LINE
 5
239
100
AcDbEntity
 8
Layer8
100
AcDbLine
 39
0.25
 370
106
 10
103.5057
 20
367.353012207031
 30
0.0
 11
103.2867
 21
365.790012207031
 31
0.0
 0
LINE
 5
23A
100
AcDbEntity
 8
Layer8
100
AcDbLine
 39
0.25
 370
106
 10
52.8287
 20
365.751012207031
 30
0.0
 11
53.0147
 21
367.286012207031
 31
0.0
 0
LINE
 5
23B
100
AcDbEntity
 8
Layer8
100
AcDbLine
 39
0.25
 370
106
 10
53.0147
 20
367.286012207031
 30
0.0
 11
53.3507
 21
367.538012207031
 31
0.0
 0
LINE
 5
23C
100
AcDbEntity
 8
Layer8
100
AcDbLine
 39
0.25
 370
106
 10
53.3507
 20
367.538012207031
 30
0.0
 11
58.5827
 21
367.538012207031
 31
0.0
 0
LINE
 5
23D
100
AcDbEntity
 8
Layer8
100
AcDbLine
 39
0.25
 370
106
 10
58.5827
 20
367.538012207031
 30
0.0
 11
58.8877
 21
367.297012207031
 31
0.0
 0
LINE
 5
23E
100
AcDbEntity
 8
Layer8
100
AcDbLine
 39
0.25
 370
106
 10
58.8877
 20
367.297012207031
 30
0.0
 11
59.0937
 21
365.756012207031
 31
0.0
 0
LINE
 5
23F
100
AcDbEntity
 8
Layer8
100
AcDbLine
 39
0.25
 370
106
 10
59.0937
 20
365.756012207031
 30
0.0
 11
52.8287
 21
365.751012207031
 31
0.0
 0
LWPOLYLINE
 5
240
100
AcDbEntity
 8
Layer8
100
AcDbPolyline
 39
0.25
 370
106
 90
5              
 70
 1
 43
0.0
 10
109.0137
 20
376.317012207031
 10
109.0257
 20
367.585012207031
 10
103.7957
 20
367.573012207031
 10
103.7887
 20
376.312012207031
 10
109.0137
 20
376.317012207031
 0
LWPOLYLINE
 5
241
100
AcDbEntity
 8
Layer8
100
AcDbPolyline
 39
0.25
 370
106
 90
5              
 70
 1
 43
0.0
 10
109.0867
 20
364.075012207031
 10
109.0967
 20
355.277012207031
 10
103.7537
 20
355.277012207031
 10
103.7467
 20
364.070012207031
 10
109.0867
 20
364.075012207031
 0
LINE
 5
242
100
AcDbEntity
 8
Layer8
100
AcDbLine
 39
0.25
 370
106
 10
58.9447
 20
364.637012207031
 30
0.0
 11
58.9007
 21
364.220012207031
 31
0.0
 0
LINE
 5
243
100
AcDbEntity
 8
Layer8
100
AcDbLine
 39
0.25
 370
106
 10
58.9007
 20
364.220012207031
 30
0.0
 11
58.6347
 21
364.035012207031
 31
0.0
 0
LINE
 5
244
100
AcDbEntity
 8
Layer8
100
AcDbLine
 39
0.25
 370
106
 10
58.6347
 20
364.035012207031
 30
0.0
 11
53.2897
 21
364.035012207031
 31
0.0
 0
LINE
 5
245
100
AcDbEntity
 8
Layer8
100
AcDbLine
 39
0.25
 370
106
 10
53.2897
 20
364.035012207031
 30
0.0
 11
53.0227
 21
364.220012207031
 31
0.0
 0
LINE
 5
246
100
AcDbEntity
 8
Layer8
100
AcDbLine
 39
0.25
 370
106
 10
53.0227
 20
364.220012207031
 30
0.0
 11
52.8287
 21
365.751012207031
 31
0.0
 0
LINE
 5
247
100
AcDbEntity
 8
Layer8
100
AcDbLine
 39
0.25
 370
106
 10
52.8287
 20
365.751012207031
 30
0.0
 11
59.0937
 21
365.756012207031
 31
0.0
 0
LINE
 5
248
100
AcDbEntity
 8
Layer8
100
AcDbLine
 39
0.25
 370
106
 10
59.0937
 20
365.756012207031
 30
0.0
 11
58.9447
 21
364.637012207031
 31
0.0
 0
LINE
 5
249
100
AcDbEntity
 8
Layer8
100
AcDbLine
 39
0.25
 370
106
 10
103.2867
 20
365.790012207031
 30
0.0
 11
103.4677
 21
367.321012207031
 31
0.0
 0
LINE
 5
24A
100
AcDbEntity
 8
Layer8
100
AcDbLine
 39
0.25
 370
106
 10
103.4677
 20
367.321012207031
 30
0.0
 11
103.7957
 21
367.573012207031
 31
0.0
 0
LINE
 5
24B
100
AcDbEntity
 8
Layer8
100
AcDbLine
 39
0.25
 370
106
 10
103.7957
 20
367.573012207031
 30
0.0
 11
109.0257
 21
367.585012207031
 31
0.0
 0
LINE
 5
24C
100
AcDbEntity
 8
Layer8
100
AcDbLine
 39
0.25
 370
106
 10
109.0257
 20
367.585012207031
 30
0.0
 11
109.3477
 21
367.331012207031
 31
0.0
 0
LINE
 5
24D
100
AcDbEntity
 8
Layer8
100
AcDbLine
 39
0.25
 370
106
 10
109.3477
 20
367.331012207031
 30
0.0
 11
109.5467
 21
365.790012207031
 31
0.0
 0
LINE
 5
24E
100
AcDbEntity
 8
Layer8
100
AcDbLine
 39
0.25
 370
106
 10
109.5467
 20
365.790012207031
 30
0.0
 11
103.2867
 21
365.790012207031
 31
0.0
 0
LINE
 5
24F
100
AcDbEntity
 8
Layer8
100
AcDbLine
 39
0.25
 370
106
 10
109.3517
 20
364.267012207031
 30
0.0
 11
109.0867
 21
364.075012207031
 31
0.0
 0
LINE
 5
250
100
AcDbEntity
 8
Layer8
100
AcDbLine
 39
0.25
 370
106
 10
109.0867
 20
364.075012207031
 30
0.0
 11
103.7467
 21
364.070012207031
 31
0.0
 0
LINE
 5
251
100
AcDbEntity
 8
Layer8
100
AcDbLine
 39
0.25
 370
106
 10
103.7467
 20
364.070012207031
 30
0.0
 11
103.4707
 21
364.256012207031
 31
0.0
 0
LINE
 5
252
100
AcDbEntity
 8
Layer8
100
AcDbLine
 39
0.25
 370
106
 10
103.4707
 20
364.256012207031
 30
0.0
 11
103.2867
 21
365.790012207031
 31
0.0
 0
LINE
 5
253
100
AcDbEntity
 8
Layer8
100
AcDbLine
 39
0.25
 370
106
 10
103.2867
 20
365.790012207031
 30
0.0
 11
109.5467
 21
365.790012207031
 31
0.0
 0
LINE
 5
254
100
AcDbEntity
 8
Layer8
100
AcDbLine
 39
0.25
 370
106
 10
109.5467
 20
365.790012207031
 30
0.0
 11
109.3517
 21
364.267012207031
 31
0.0
 0
LINE
 5
255
100
AcDbEntity
 8
Layer8
100
AcDbLine
 39
0.25
 370
106
 10
78.3987
 20
341.943012207031
 30
0.0
 11
78.6437
 21
342.165012207031
 31
0.0
 0
LINE
 5
256
100
AcDbEntity
 8
Layer8
100
AcDbLine
 39
0.25
 370
106
 10
78.6437
 20
342.165012207031
 30
0.0
 11
83.8747
 21
342.165012207031
 31
0.0
 0
LINE
 5
257
100
AcDbEntity
 8
Layer8
100
AcDbLine
 39
0.25
 370
106
 10
83.8747
 20
342.165012207031
 30
0.0
 11
84.1827
 21
341.919012207031
 31
0.0
 0
LINE
 5
258
100
AcDbEntity
 8
Layer8
100
AcDbLine
 39
0.25
 370
106
 10
84.1827
 20
341.919012207031
 30
0.0
 11
84.3797
 21
340.377012207031
 31
0.0
 0
LINE
 5
259
100
AcDbEntity
 8
Layer8
100
AcDbLine
 39
0.25
 370
106
 10
84.3797
 20
340.377012207031
 30
0.0
 11
78.1717
 21
340.377012207031
 31
0.0
 0
LINE
 5
25A
100
AcDbEntity
 8
Layer8
100
AcDbLine
 39
0.25
 370
106
 10
78.1717
 20
340.377012207031
 30
0.0
 11
78.3987
 21
341.943012207031
 31
0.0
 0
LINE
 5
25B
100
AcDbEntity
 8
Layer8
100
AcDbLine
 39
0.25
 370
106
 10
78.1717
 20
340.377012207031
 30
0.0
 11
78.3167
 21
339.259012207031
 31
0.0
 0
LINE
 5
25C
100
AcDbEntity
 8
Layer8
100
AcDbLine
 39
0.25
 370
106
 10
78.3167
 20
339.259012207031
 30
0.0
 11
58.9707
 21
339.243012207031
 31
0.0
 0
LINE
 5
25D
100
AcDbEntity
 8
Layer8
100
AcDbLine
 39
0.25
 370
106
 10
58.9707
 20
339.243012207031
 30
0.0
 11
59.1157
 21
340.362012207031
 31
0.0
 0
LINE
 5
25E
100
AcDbEntity
 8
Layer8
100
AcDbLine
 39
0.25
 370
106
 10
59.1157
 20
340.362012207031
 30
0.0
 11
58.8877
 21
341.926012207031
 31
0.0
 0
LINE
 5
25F
100
AcDbEntity
 8
Layer8
100
AcDbLine
 39
0.25
 370
106
 10
58.8877
 20
341.926012207031
 30
0.0
 11
78.3987
 21
341.943012207031
 31
0.0
 0
LINE
 5
260
100
AcDbEntity
 8
Layer8
100
AcDbLine
 39
0.25
 370
106
 10
78.3987
 20
341.943012207031
 30
0.0
 11
78.1717
 21
340.377012207031
 31
0.0
 0
LWPOLYLINE
 5
261
100
AcDbEntity
 8
Layer8
100
AcDbPolyline
 39
0.25
 370
106
 90
5              
 70
 1
 43
0.0
 10
58.5827
 20
350.886012207031
 10
58.5887
 20
342.148012207031
 10
53.3707
 20
342.142012207031
 10
53.3707
 20
350.876012207031
 10
58.5827
 20
350.886012207031
 0
LWPOLYLINE
 5
262
100
AcDbEntity
 8
Layer8
100
AcDbPolyline
 39
0.25
 370
106
 90
5              
 70
 1
 43
0.0
 10
58.6547
 20
338.647012207031
 10
58.6647
 20
329.851012207031
 10
53.3207
 20
329.846012207031
 10
53.3137
 20
338.634012207031
 10
58.6547
 20
338.647012207031
 0
LINE
 5
263
100
AcDbEntity
 8
Layer8
100
AcDbLine
 39
0.25
 370
106
 10
103.3027
 20
340.402012207031
 30
0.0
 11
103.4447
 21
339.283012207031
 31
0.0
 0
LINE
 5
264
100
AcDbEntity
 8
Layer8
100
AcDbLine
 39
0.25
 370
106
 10
103.4447
 20
339.283012207031
 30
0.0
 11
84.3057
 21
339.263012207031
 31
0.0
 0
LINE
 5
265
100
AcDbEntity
 8
Layer8
100
AcDbLine
 39
0.25
 370
106
 10
84.3057
 20
339.263012207031
 30
0.0
 11
84.4407
 21
340.390012207031
 31
0.0
 0
LINE
 5
266
100
AcDbEntity
 8
Layer8
100
AcDbLine
 39
0.25
 370
106
 10
84.4407
 20
340.390012207031
 30
0.0
 11
84.2187
 21
341.943012207031
 31
0.0
 0
LINE
 5
267
100
AcDbEntity
 8
Layer8
100
AcDbLine
 39
0.25
 370
106
 10
84.2187
 20
341.943012207031
 30
0.0
 11
103.5257
 21
341.962012207031
 31
0.0
 0
LINE
 5
268
100
AcDbEntity
 8
Layer8
100
AcDbLine
 39
0.25
 370
106
 10
103.5257
 20
341.962012207031
 30
0.0
 11
103.3027
 21
340.402012207031
 31
0.0
 0
LINE
 5
269
100
AcDbEntity
 8
Layer8
100
AcDbLine
 39
0.25
 370
106
 10
52.8487
 20
340.362012207031
 30
0.0
 11
53.0317
 21
341.896012207031
 31
0.0
 0
LINE
 5
26A
100
AcDbEntity
 8
Layer8
100
AcDbLine
 39
0.25
 370
106
 10
53.0317
 20
341.896012207031
 30
0.0
 11
53.3707
 21
342.142012207031
 31
0.0
 0
LINE
 5
26B
100
AcDbEntity
 8
Layer8
100
AcDbLine
 39
0.25
 370
106
 10
53.3707
 20
342.142012207031
 30
0.0
 11
58.6017
 21
342.148012207031
 31
0.0
 0
LINE
 5
26C
100
AcDbEntity
 8
Layer8
100
AcDbLine
 39
0.25
 370
106
 10
58.6017
 20
342.148012207031
 30
0.0
 11
58.9167
 21
341.896012207031
 31
0.0
 0
LINE
 5
26D
100
AcDbEntity
 8
Layer8
100
AcDbLine
 39
0.25
 370
106
 10
58.9167
 20
341.896012207031
 30
0.0
 11
59.1157
 21
340.364012207031
 31
0.0
 0
LINE
 5
26E
100
AcDbEntity
 8
Layer8
100
AcDbLine
 39
0.25
 370
106
 10
59.1157
 20
340.364012207031
 30
0.0
 11
52.8487
 21
340.362012207031
 31
0.0
 0
LWPOLYLINE
 5
26F
100
AcDbEntity
 8
Layer8
100
AcDbPolyline
 39
0.25
 370
106
 90
5              
 70
 1
 43
0.0
 10
83.8447
 20
350.896012207031
 10
83.8547
 20
342.165012207031
 10
78.6437
 20
342.165012207031
 10
78.6277
 20
350.896012207031
 10
83.8447
 20
350.896012207031
 0
LWPOLYLINE
 5
270
100
AcDbEntity
 8
Layer8
100
AcDbPolyline
 39
0.25
 370
106
 90
5              
 70
 1
 43
0.0
 10
83.9167
 20
338.670012207031
 10
83.9267
 20
329.881012207031
 10
78.5877
 20
329.871012207031
 10
78.5817
 20
338.664012207031
 10
83.9167
 20
338.670012207031
 0
LINE
 5
271
100
AcDbEntity
 8
Layer8
100
AcDbLine
 39
0.25
 370
106
 10
58.9627
 20
339.247012207031
 30
0.0
 11
58.9197
 21
338.830012207031
 31
0.0
 0
LINE
 5
272
100
AcDbEntity
 8
Layer8
100
AcDbLine
 39
0.25
 370
106
 10
58.9197
 20
338.830012207031
 30
0.0
 11
58.6547
 21
338.647012207031
 31
0.0
 0
LINE
 5
273
100
AcDbEntity
 8
Layer8
100
AcDbLine
 39
0.25
 370
106
 10
58.6547
 20
338.647012207031
 30
0.0
 11
53.3137
 21
338.634012207031
 31
0.0
 0
LINE
 5
274
100
AcDbEntity
 8
Layer8
100
AcDbLine
 39
0.25
 370
106
 10
53.3137
 20
338.634012207031
 30
0.0
 11
53.0387
 21
338.825012207031
 31
0.0
 0
LINE
 5
275
100
AcDbEntity
 8
Layer8
100
AcDbLine
 39
0.25
 370
106
 10
53.0387
 20
338.825012207031
 30
0.0
 11
52.8487
 21
340.362012207031
 31
0.0
 0
LINE
 5
276
100
AcDbEntity
 8
Layer8
100
AcDbLine
 39
0.25
 370
106
 10
52.8487
 20
340.362012207031
 30
0.0
 11
59.1157
 21
340.364012207031
 31
0.0
 0
LINE
 5
277
100
AcDbEntity
 8
Layer8
100
AcDbLine
 39
0.25
 370
106
 10
59.1157
 20
340.364012207031
 30
0.0
 11
58.9627
 21
339.247012207031
 31
0.0
 0
LINE
 5
278
100
AcDbEntity
 8
Layer8
100
AcDbLine
 39
0.25
 370
106
 10
78.3567
 20
341.919012207031
 30
0.0
 11
78.1717
 21
340.377012207031
 31
0.0
 0
LINE
 5
279
100
AcDbEntity
 8
Layer8
100
AcDbLine
 39
0.25
 370
106
 10
78.1717
 20
340.377012207031
 30
0.0
 11
78.1107
 21
340.377012207031
 31
0.0
 0
LINE
 5
27A
100
AcDbEntity
 8
Layer8
100
AcDbLine
 39
0.25
 370
106
 10
78.1107
 20
340.377012207031
 30
0.0
 11
78.2957
 21
341.919012207031
 31
0.0
 0
LINE
 5
27B
100
AcDbEntity
 8
Layer8
100
AcDbLine
 39
0.25
 370
106
 10
78.2957
 20
341.919012207031
 30
0.0
 11
78.3167
 21
341.943012207031
 31
0.0
 0
LINE
 5
27C
100
AcDbEntity
 8
Layer8
100
AcDbLine
 39
0.25
 370
106
 10
78.3167
 20
341.943012207031
 30
0.0
 11
78.3987
 21
341.943012207031
 31
0.0
 0
LINE
 5
27D
100
AcDbEntity
 8
Layer8
100
AcDbLine
 39
0.25
 370
106
 10
78.3987
 20
341.943012207031
 30
0.0
 11
78.3567
 21
341.919012207031
 31
0.0
 0
LWPOLYLINE
 5
27E
100
AcDbEntity
 8
Layer8
100
AcDbPolyline
 39
0.25
 370
106
 90
5              
 70
 1
 43
0.0
 10
78.3167
 20
339.259012207031
 10
78.2557
 20
339.259012207031
 10
78.1107
 20
340.377012207031
 10
78.1717
 20
340.377012207031
 10
78.3167
 20
339.259012207031
 0
LWPOLYLINE
 5
27F
100
AcDbEntity
 8
Layer8
100
AcDbPolyline
 39
0.25
 370
106
 90
5              
 70
 1
 43
0.0
 10
109.0357
 20
350.922012207031
 10
109.0457
 20
342.185012207031
 10
103.8137
 20
342.185012207031
 10
103.8087
 20
350.922012207031
 10
109.0357
 20
350.922012207031
 0
LWPOLYLINE
 5
280
100
AcDbEntity
 8
Layer8
100
AcDbPolyline
 39
0.25
 370
106
 90
5              
 70
 1
 43
0.0
 10
109.1067
 20
338.687012207031
 10
109.1167
 20
329.886012207031
 10
103.7737
 20
329.886012207031
 10
103.7637
 20
338.683012207031
 10
109.1067
 20
338.687012207031
 0
LINE
 5
281
100
AcDbEntity
 8
Layer8
100
AcDbLine
 39
0.25
 370
106
 10
84.2447
 20
339.263012207031
 30
0.0
 11
84.1827
 21
338.852012207031
 31
0.0
 0
LINE
 5
282
100
AcDbEntity
 8
Layer8
100
AcDbLine
 39
0.25
 370
106
 10
84.1827
 20
338.852012207031
 30
0.0
 11
83.9167
 21
338.670012207031
 31
0.0
 0
LINE
 5
283
100
AcDbEntity
 8
Layer8
100
AcDbLine
 39
0.25
 370
106
 10
83.9167
 20
338.670012207031
 30
0.0
 11
78.5817
 21
338.664012207031
 31
0.0
 0
LINE
 5
284
100
AcDbEntity
 8
Layer8
100
AcDbLine
 39
0.25
 370
106
 10
78.5817
 20
338.664012207031
 30
0.0
 11
78.2957
 21
338.852012207031
 31
0.0
 0
LINE
 5
285
100
AcDbEntity
 8
Layer8
100
AcDbLine
 39
0.25
 370
106
 10
78.2957
 20
338.852012207031
 30
0.0
 11
78.1717
 21
340.377012207031
 31
0.0
 0
LINE
 5
286
100
AcDbEntity
 8
Layer8
100
AcDbLine
 39
0.25
 370
106
 10
78.1717
 20
340.377012207031
 30
0.0
 11
84.3797
 21
340.377012207031
 31
0.0
 0
LINE
 5
287
100
AcDbEntity
 8
Layer8
100
AcDbLine
 39
0.25
 370
106
 10
84.3797
 20
340.377012207031
 30
0.0
 11
84.2447
 21
339.263012207031
 31
0.0
 0
LINE
 5
288
100
AcDbEntity
 8
Layer8
100
AcDbLine
 39
0.25
 370
106
 10
103.3027
 20
340.402012207031
 30
0.0
 11
103.4857
 21
341.932012207031
 31
0.0
 0
LINE
 5
289
100
AcDbEntity
 8
Layer8
100
AcDbLine
 39
0.25
 370
106
 10
103.4857
 20
341.932012207031
 30
0.0
 11
103.8137
 21
342.185012207031
 31
0.0
 0
LINE
 5
28A
100
AcDbEntity
 8
Layer8
100
AcDbLine
 39
0.25
 370
106
 10
103.8137
 20
342.185012207031
 30
0.0
 11
109.0457
 21
342.185012207031
 31
0.0
 0
LINE
 5
28B
100
AcDbEntity
 8
Layer8
100
AcDbLine
 39
0.25
 370
106
 10
109.0457
 20
342.185012207031
 30
0.0
 11
109.3617
 21
341.943012207031
 31
0.0
 0
LINE
 5
28C
100
AcDbEntity
 8
Layer8
100
AcDbLine
 39
0.25
 370
106
 10
109.3617
 20
341.943012207031
 30
0.0
 11
109.5687
 21
340.412012207031
 31
0.0
 0
LINE
 5
28D
100
AcDbEntity
 8
Layer8
100
AcDbLine
 39
0.25
 370
106
 10
109.5687
 20
340.412012207031
 30
0.0
 11
103.3027
 21
340.402012207031
 31
0.0
 0
LINE
 5
28E
100
AcDbEntity
 8
Layer8
100
AcDbLine
 39
0.25
 370
106
 10
109.3747
 20
338.876012207031
 30
0.0
 11
109.1067
 21
338.687012207031
 31
0.0
 0
LINE
 5
28F
100
AcDbEntity
 8
Layer8
100
AcDbLine
 39
0.25
 370
106
 10
109.1067
 20
338.687012207031
 30
0.0
 11
103.7637
 21
338.683012207031
 31
0.0
 0
LINE
 5
290
100
AcDbEntity
 8
Layer8
100
AcDbLine
 39
0.25
 370
106
 10
103.7637
 20
338.683012207031
 30
0.0
 11
103.4957
 21
338.867012207031
 31
0.0
 0
LINE
 5
291
100
AcDbEntity
 8
Layer8
100
AcDbLine
 39
0.25
 370
106
 10
103.4957
 20
338.867012207031
 30
0.0
 11
103.3027
 21
340.402012207031
 31
0.0
 0
LINE
 5
292
100
AcDbEntity
 8
Layer8
100
AcDbLine
 39
0.25
 370
106
 10
103.3027
 20
340.402012207031
 30
0.0
 11
109.5687
 21
340.412012207031
 31
0.0
 0
LINE
 5
293
100
AcDbEntity
 8
Layer8
100
AcDbLine
 39
0.25
 370
106
 10
109.5687
 20
340.412012207031
 30
0.0
 11
109.3747
 21
338.876012207031
 31
0.0
 0
ARC
 5
294
100
AcDbEntity
 8
Layer8
100
AcDbCircle
 39
0.25
 370
106
 10
92.0691062552433
 20
371.614845230436
 30
0.0
 40
9.83884429071509
100
AcDbArc
 50
178.243626624036
 51
-155.821296114597
 0
LINE
 5
295
100
AcDbEntity
 8
Layer8
100
AcDbLine
 39
0.25
 370
106
 10
79.4604
 20
367.585012207031
 30
0.0
 11
79.96268125
 21
369.657527832031
 31
0.0
 0
LINE
 5
296
100
AcDbEntity
 8
Layer8
100
AcDbLine
 39
0.25
 370
106
 10
79.96268125
 20
369.657527832031
 30
0.0
 11
80.23115
 21
372.078887207031
 31
0.0
 0
LINE
 5
297
100
AcDbEntity
 8
Layer8
100
AcDbLine
 39
0.25
 370
106
 10
80.23115
 20
372.078887207031
 30
0.0
 11
80.3584
 21
374.928012207031
 31
0.0
 0
LINE
 5
298
100
AcDbEntity
 8
Layer8
100
AcDbLine
 39
0.25
 370
106
 10
80.3584
 20
374.928012207031
 30
0.0
 11
80.3534
 21
380.836012207031
 31
0.0
 0
LINE
 5
299
100
AcDbEntity
 8
Layer8
100
AcDbLine
 39
0.25
 370
106
 10
80.3534
 20
380.836012207031
 30
0.0
 11
82.1984
 21
380.836012207031
 31
0.0
 0
LINE
 5
29A
100
AcDbEntity
 8
Layer8
100
AcDbLine
 39
0.25
 370
106
 10
82.1984
 20
380.836012207031
 30
0.0
 11
82.234884375
 21
371.916402832031
 31
0.0
 0
LINE
 5
29B
100
AcDbEntity
 8
Layer8
100
AcDbLine
 39
0.25
 370
106
 10
83.0934
 20
367.585012207031
 30
0.0
 11
79.4604
 21
367.585012207031
 31
0.0
 0
LINE
 5
29C
100
AcDbEntity
 8
Layer8
100
AcDbLine
 39
0.25
 370
106
 10
79.2584
 20
367.360012207031
 30
0.0
 11
79.3744
 21
367.585012207031
 31
0.0
 0
LINE
 5
29D
100
AcDbEntity
 8
Layer8
100
AcDbLine
 39
0.25
 370
106
 10
79.3744
 20
367.585012207031
 30
0.0
 11
83.0804
 21
367.585012207031
 31
0.0
 0
LINE
 5
29E
100
AcDbEntity
 8
Layer8
100
AcDbLine
 39
0.25
 370
106
 10
83.0804
 20
367.585012207031
 30
0.0
 11
83.1884
 21
367.366012207031
 31
0.0
 0
LINE
 5
29F
100
AcDbEntity
 8
Layer8
100
AcDbLine
 39
0.25
 370
106
 10
83.1884
 20
367.366012207031
 30
0.0
 11
79.2584
 21
367.360012207031
 31
0.0
 0
LINE
 5
2A0
100
AcDbEntity
 8
Layer8
100
AcDbLine
 39
0.25
 370
106
 10
80.3704
 20
358.448012207031
 30
0.0
 11
80.246775
 21
361.924262207031
 31
0.0
 0
LINE
 5
2A1
100
AcDbEntity
 8
Layer8
100
AcDbLine
 39
0.25
 370
106
 10
80.246775
 20
361.924262207031
 30
0.0
 11
79.6334
 21
364.088012207031
 31
0.0
 0
LINE
 5
2A2
100
AcDbEntity
 8
Layer8
100
AcDbLine
 39
0.25
 370
106
 10
79.6334
 20
364.088012207031
 30
0.0
 11
82.9434
 21
364.088012207031
 31
0.0
 0
LINE
 5
2A3
100
AcDbEntity
 8
Layer8
100
AcDbLine
 39
0.25
 370
106
 10
82.9434
 20
364.088012207031
 30
0.0
 11
82.532696875
 21
362.386996582031
 31
0.0
 0
LINE
 5
2A4
100
AcDbEntity
 8
Layer8
100
AcDbLine
 39
0.25
 370
106
 10
82.532696875
 20
362.386996582031
 30
0.0
 11
82.232540625
 21
359.059965332031
 31
0.0
 0
LINE
 5
2A5
100
AcDbEntity
 8
Layer8
100
AcDbLine
 39
0.25
 370
106
 10
82.232540625
 20
359.059965332031
 30
0.0
 11
82.2224
 21
350.946012207031
 31
0.0
 0
LINE
 5
2A6
100
AcDbEntity
 8
Layer8
100
AcDbLine
 39
0.25
 370
106
 10
82.2224
 20
350.946012207031
 30
0.0
 11
80.3704
 21
350.946012207031
 31
0.0
 0
LINE
 5
2A7
100
AcDbEntity
 8
Layer8
100
AcDbLine
 39
0.25
 370
106
 10
80.3704
 20
350.946012207031
 30
0.0
 11
80.3704
 21
358.448012207031
 31
0.0
 0
LINE
 5
2A8
100
AcDbEntity
 8
Layer8
100
AcDbLine
 39
0.25
 370
106
 10
80.3363
 20
321.761812207031
 30
0.0
 11
80.189425
 21
317.856312207031
 31
0.0
 0
LINE
 5
2A9
100
AcDbEntity
 8
Layer8
100
AcDbLine
 39
0.25
 370
106
 10
80.189425
 20
317.856312207031
 30
0.0
 11
79.923284375
 21
316.863280957031
 31
0.0
 0
LINE
 5
2AA
100
AcDbEntity
 8
Layer8
100
AcDbLine
 39
0.25
 370
106
 10
79.923284375
 20
316.863280957031
 30
0.0
 11
79.4133
 21
315.759812207031
 31
0.0
 0
LINE
 5
2AB
100
AcDbEntity
 8
Layer8
100
AcDbLine
 39
0.25
 370
106
 10
79.4133
 20
315.759812207031
 30
0.0
 11
78.6643
 21
315.759812207031
 31
0.0
 0
LINE
 5
2AC
100
AcDbEntity
 8
Layer8
100
AcDbLine
 39
0.25
 370
106
 10
78.6643
 20
315.759812207031
 30
0.0
 11
78.6643
 21
324.473812207031
 31
0.0
 0
LINE
 5
2AD
100
AcDbEntity
 8
Layer8
100
AcDbLine
 39
0.25
 370
106
 10
78.6643
 20
324.473812207031
 30
0.0
 11
80.3363
 21
324.473812207031
 31
0.0
 0
LINE
 5
2AE
100
AcDbEntity
 8
Layer8
100
AcDbLine
 39
0.25
 370
106
 10
80.3363
 20
324.473812207031
 30
0.0
 11
80.3363
 21
321.761812207031
 31
0.0
 0
ARC
 5
2AF
100
AcDbEntity
 8
Layer8
100
AcDbCircle
 39
0.25
 370
106
 10
113.760857910439
 20
322.776639829536
 30
0.0
 40
31.5811938786612
100
AcDbArc
 50
176.919442607753
 51
-170.300234697816
 0
LINE
 5
2B0
100
AcDbEntity
 8
Layer8
100
AcDbLine
 39
0.25
 370
106
 10
83.8943
 20
315.769812207031
 30
0.0
 11
83.1423
 21
315.759812207031
 31
0.0
 0
LINE
 5
2B1
100
AcDbEntity
 8
Layer8
100
AcDbLine
 39
0.25
 370
106
 10
83.1423
 20
315.759812207031
 30
0.0
 11
82.63114375
 21
317.455671582031
 31
0.0
 0
LINE
 5
2B2
100
AcDbEntity
 8
Layer8
100
AcDbLine
 39
0.25
 370
106
 10
82.2253
 20
324.473812207031
 30
0.0
 11
83.8863
 21
324.473812207031
 31
0.0
 0
LINE
 5
2B3
100
AcDbEntity
 8
Layer8
100
AcDbLine
 39
0.25
 370
106
 10
83.8863
 20
324.473812207031
 30
0.0
 11
83.8943
 21
315.769812207031
 31
0.0
 0
LINE
 5
2B4
100
AcDbEntity
 8
Layer8
100
AcDbLine
 39
0.25
 370
106
 10
82.3793
 20
303.497812207031
 30
0.0
 11
78.6243
 21
303.491812207031
 31
0.0
 0
LINE
 5
2B5
100
AcDbEntity
 8
Layer8
100
AcDbLine
 39
0.25
 370
106
 10
78.6243
 20
303.491812207031
 30
0.0
 11
78.6183
 21
312.267812207031
 31
0.0
 0
LINE
 5
2B6
100
AcDbEntity
 8
Layer8
100
AcDbLine
 39
0.25
 370
106
 10
78.6183
 20
312.267812207031
 30
0.0
 11
79.5783
 21
312.267812207031
 31
0.0
 0
LWPOLYLINE
 5
2B7
100
AcDbEntity
 8
Layer8
100
AcDbPolyline
 39
0.25
 370
106
 90
5              
 70
 1
 43
0.0
 10
84.1993
 20
315.538812207031
 10
78.3833
 20
315.538812207031
 10
78.6643
 20
315.759812207031
 10
83.8943
 20
315.769812207031
 10
84.1993
 20
315.538812207031
 0
LINE
 5
2B8
100
AcDbEntity
 8
Layer8
100
AcDbLine
 39
0.25
 370
106
 10
82.9823
 20
312.267812207031
 30
0.0
 11
83.9573
 21
312.267812207031
 31
0.0
 0
LINE
 5
2B9
100
AcDbEntity
 8
Layer8
100
AcDbLine
 39
0.25
 370
106
 10
83.9573
 20
312.267812207031
 30
0.0
 11
83.9663
 21
303.497812207031
 31
0.0
 0
LINE
 5
2BA
100
AcDbEntity
 8
Layer8
100
AcDbLine
 39
0.25
 370
106
 10
83.9663
 20
303.497812207031
 30
0.0
 11
82.2443
 21
303.497812207031
 31
0.0
 0
LINE
 5
2BB
100
AcDbEntity
 8
Layer8
100
AcDbLine
 39
0.25
 370
106
 10
84.2853
 20
312.868812207031
 30
0.0
 11
84.2343
 21
312.461812207031
 31
0.0
 0
LINE
 5
2BC
100
AcDbEntity
 8
Layer8
100
AcDbLine
 39
0.25
 370
106
 10
84.2343
 20
312.461812207031
 30
0.0
 11
83.9573
 21
312.267812207031
 31
0.0
 0
LINE
 5
2BD
100
AcDbEntity
 8
Layer8
100
AcDbLine
 39
0.25
 370
106
 10
83.9573
 20
312.267812207031
 30
0.0
 11
78.6183
 21
312.267812207031
 31
0.0
 0
LINE
 5
2BE
100
AcDbEntity
 8
Layer8
100
AcDbLine
 39
0.25
 370
106
 10
78.6183
 20
312.267812207031
 30
0.0
 11
78.3483
 21
312.451812207031
 31
0.0
 0
LINE
 5
2BF
100
AcDbEntity
 8
Layer8
100
AcDbLine
 39
0.25
 370
106
 10
78.3483
 20
312.451812207031
 30
0.0
 11
78.1573
 21
313.983812207031
 31
0.0
 0
LINE
 5
2C0
100
AcDbEntity
 8
Layer8
100
AcDbLine
 39
0.25
 370
106
 10
78.1573
 20
313.983812207031
 30
0.0
 11
84.4243
 21
313.983812207031
 31
0.0
 0
LINE
 5
2C1
100
AcDbEntity
 8
Layer8
100
AcDbLine
 39
0.25
 370
106
 10
84.4243
 20
313.983812207031
 30
0.0
 11
84.2853
 21
312.868812207031
 31
0.0
 0
LINE
 5
2C2
100
AcDbEntity
 8
Layer8
100
AcDbLine
 39
0.25
 370
106
 10
78.1573
 20
313.983812207031
 30
0.0
 11
78.3833
 21
315.538812207031
 31
0.0
 0
LINE
 5
2C3
100
AcDbEntity
 8
Layer8
100
AcDbLine
 39
0.25
 370
106
 10
78.3833
 20
315.538812207031
 30
0.0
 11
84.1993
 21
315.538812207031
 31
0.0
 0
LINE
 5
2C4
100
AcDbEntity
 8
Layer8
100
AcDbLine
 39
0.25
 370
106
 10
84.1993
 20
315.538812207031
 30
0.0
 11
84.4243
 21
313.983812207031
 31
0.0
 0
LINE
 5
2C5
100
AcDbEntity
 8
Layer8
100
AcDbLine
 39
0.25
 370
106
 10
84.4243
 20
313.983812207031
 30
0.0
 11
78.1573
 21
313.983812207031
 31
0.0
 0
LINE
 5
2C6
100
AcDbEntity
 8
Layer8
100
AcDbLine
 39
0.25
 370
106
 10
78.3833
 20
315.538812207031
 30
0.0
 11
78.1573
 21
313.983812207031
 31
0.0
 0
LINE
 5
2C7
100
AcDbEntity
 8
Layer8
100
AcDbLine
 39
0.25
 370
106
 10
78.1573
 20
313.983812207031
 30
0.0
 11
78.2963
 21
312.868812207031
 31
0.0
 0
LINE
 5
2C8
100
AcDbEntity
 8
Layer8
100
AcDbLine
 39
0.25
 370
106
 10
78.2963
 20
312.868812207031
 30
0.0
 11
58.9443
 21
312.857812207031
 31
0.0
 0
LINE
 5
2C9
100
AcDbEntity
 8
Layer8
100
AcDbLine
 39
0.25
 370
106
 10
58.9443
 20
312.857812207031
 30
0.0
 11
59.0933
 21
313.973812207031
 31
0.0
 0
LINE
 5
2CA
100
AcDbEntity
 8
Layer8
100
AcDbLine
 39
0.25
 370
106
 10
59.0933
 20
313.973812207031
 30
0.0
 11
58.8683
 21
315.517812207031
 31
0.0
 0
LINE
 5
2CB
100
AcDbEntity
 8
Layer8
100
AcDbLine
 39
0.25
 370
106
 10
58.8683
 20
315.517812207031
 30
0.0
 11
78.3833
 21
315.538812207031
 31
0.0
 0
LWPOLYLINE
 5
2CC
100
AcDbEntity
 8
Layer8
100
AcDbPolyline
 39
0.25
 370
106
 90
5              
 70
 1
 43
0.0
 10
58.5623
 20
324.449812207031
 10
58.5723
 20
315.745812207031
 10
53.3503
 20
315.739812207031
 10
53.3453
 20
324.449812207031
 10
58.5623
 20
324.449812207031
 0
LWPOLYLINE
 5
2CD
100
AcDbEntity
 8
Layer8
100
AcDbPolyline
 39
0.25
 370
106
 90
5              
 70
 1
 43
0.0
 10
58.6343
 20
312.251812207031
 10
58.6443
 20
303.475812207031
 10
53.2993
 20
303.475812207031
 10
53.2903
 20
312.247812207031
 10
58.6343
 20
312.251812207031
 0
LINE
 5
2CE
100
AcDbEntity
 8
Layer8
100
AcDbLine
 39
0.25
 370
106
 10
103.2863
 20
314.007812207031
 30
0.0
 11
103.4253
 21
312.883812207031
 31
0.0
 0
LINE
 5
2CF
100
AcDbEntity
 8
Layer8
100
AcDbLine
 39
0.25
 370
106
 10
103.4253
 20
312.883812207031
 30
0.0
 11
84.2853
 21
312.868812207031
 31
0.0
 0
LINE
 5
2D0
100
AcDbEntity
 8
Layer8
100
AcDbLine
 39
0.25
 370
106
 10
84.2853
 20
312.868812207031
 30
0.0
 11
84.4243
 21
313.983812207031
 31
0.0
 0
LINE
 5
2D1
100
AcDbEntity
 8
Layer8
100
AcDbLine
 39
0.25
 370
106
 10
84.4243
 20
313.983812207031
 30
0.0
 11
84.1993
 21
315.538812207031
 31
0.0
 0
LINE
 5
2D2
100
AcDbEntity
 8
Layer8
100
AcDbLine
 39
0.25
 370
106
 10
84.1993
 20
315.538812207031
 30
0.0
 11
103.5053
 21
315.556812207031
 31
0.0
 0
LINE
 5
2D3
100
AcDbEntity
 8
Layer8
100
AcDbLine
 39
0.25
 370
106
 10
103.5053
 20
315.556812207031
 30
0.0
 11
103.2863
 21
314.007812207031
 31
0.0
 0
LINE
 5
2D4
100
AcDbEntity
 8
Layer8
100
AcDbLine
 39
0.25
 370
106
 10
52.8293
 20
313.961812207031
 30
0.0
 11
53.0143
 21
315.487812207031
 31
0.0
 0
LINE
 5
2D5
100
AcDbEntity
 8
Layer8
100
AcDbLine
 39
0.25
 370
106
 10
53.0143
 20
315.487812207031
 30
0.0
 11
53.3503
 21
315.739812207031
 31
0.0
 0
LINE
 5
2D6
100
AcDbEntity
 8
Layer8
100
AcDbLine
 39
0.25
 370
106
 10
53.3503
 20
315.739812207031
 30
0.0
 11
58.5823
 21
315.745812207031
 31
0.0
 0
LINE
 5
2D7
100
AcDbEntity
 8
Layer8
100
AcDbLine
 39
0.25
 370
106
 10
58.5823
 20
315.745812207031
 30
0.0
 11
58.8893
 21
315.491812207031
 31
0.0
 0
LINE
 5
2D8
100
AcDbEntity
 8
Layer8
100
AcDbLine
 39
0.25
 370
106
 10
58.8893
 20
315.491812207031
 30
0.0
 11
59.0933
 21
313.973812207031
 31
0.0
 0
LINE
 5
2D9
100
AcDbEntity
 8
Layer8
100
AcDbLine
 39
0.25
 370
106
 10
59.0933
 20
313.973812207031
 30
0.0
 11
52.8293
 21
313.961812207031
 31
0.0
 0
LWPOLYLINE
 5
2DA
100
AcDbEntity
 8
Layer8
100
AcDbPolyline
 39
0.25
 370
106
 90
5              
 70
 1
 43
0.0
 10
109.0153
 20
324.494812207031
 10
109.0253
 20
315.782812207031
 10
103.7953
 20
315.782812207031
 10
103.7883
 20
324.484812207031
 10
109.0153
 20
324.494812207031
 0
LWPOLYLINE
 5
2DB
100
AcDbEntity
 8
Layer8
100
AcDbPolyline
 39
0.25
 370
106
 90
5              
 70
 1
 43
0.0
 10
109.0863
 20
312.287812207031
 10
109.0963
 20
303.517812207031
 10
103.7533
 20
303.513812207031
 10
103.7463
 20
312.287812207031
 10
109.0863
 20
312.287812207031
 0
LINE
 5
2DC
100
AcDbEntity
 8
Layer8
100
AcDbLine
 39
0.25
 370
106
 10
58.9443
 20
312.857812207031
 30
0.0
 11
58.9013
 21
312.437812207031
 31
0.0
 0
LINE
 5
2DD
100
AcDbEntity
 8
Layer8
100
AcDbLine
 39
0.25
 370
106
 10
58.9013
 20
312.437812207031
 30
0.0
 11
58.6343
 21
312.251812207031
 31
0.0
 0
LINE
 5
2DE
100
AcDbEntity
 8
Layer8
100
AcDbLine
 39
0.25
 370
106
 10
58.6343
 20
312.251812207031
 30
0.0
 11
53.2903
 21
312.247812207031
 31
0.0
 0
LINE
 5
2DF
100
AcDbEntity
 8
Layer8
100
AcDbLine
 39
0.25
 370
106
 10
53.2903
 20
312.247812207031
 30
0.0
 11
53.0223
 21
312.431812207031
 31
0.0
 0
LINE
 5
2E0
100
AcDbEntity
 8
Layer8
100
AcDbLine
 39
0.25
 370
106
 10
53.0223
 20
312.431812207031
 30
0.0
 11
52.8293
 21
313.961812207031
 31
0.0
 0
LINE
 5
2E1
100
AcDbEntity
 8
Layer8
100
AcDbLine
 39
0.25
 370
106
 10
52.8293
 20
313.961812207031
 30
0.0
 11
59.0933
 21
313.973812207031
 31
0.0
 0
LINE
 5
2E2
100
AcDbEntity
 8
Layer8
100
AcDbLine
 39
0.25
 370
106
 10
59.0933
 20
313.973812207031
 30
0.0
 11
58.9443
 21
312.857812207031
 31
0.0
 0
LINE
 5
2E3
100
AcDbEntity
 8
Layer8
100
AcDbLine
 39
0.25
 370
106
 10
103.2863
 20
314.007812207031
 30
0.0
 11
103.4673
 21
315.527812207031
 31
0.0
 0
LINE
 5
2E4
100
AcDbEntity
 8
Layer8
100
AcDbLine
 39
0.25
 370
106
 10
103.4673
 20
315.527812207031
 30
0.0
 11
103.7953
 21
315.782812207031
 31
0.0
 0
LINE
 5
2E5
100
AcDbEntity
 8
Layer8
100
AcDbLine
 39
0.25
 370
106
 10
103.7953
 20
315.782812207031
 30
0.0
 11
109.0253
 21
315.782812207031
 31
0.0
 0
LINE
 5
2E6
100
AcDbEntity
 8
Layer8
100
AcDbLine
 39
0.25
 370
106
 10
109.0253
 20
315.782812207031
 30
0.0
 11
109.3493
 21
315.527812207031
 31
0.0
 0
LINE
 5
2E7
100
AcDbEntity
 8
Layer8
100
AcDbLine
 39
0.25
 370
106
 10
109.3493
 20
315.527812207031
 30
0.0
 11
109.5483
 21
314.007812207031
 31
0.0
 0
LINE
 5
2E8
100
AcDbEntity
 8
Layer8
100
AcDbLine
 39
0.25
 370
106
 10
109.5483
 20
314.007812207031
 30
0.0
 11
103.2863
 21
314.007812207031
 31
0.0
 0
LINE
 5
2E9
100
AcDbEntity
 8
Layer8
100
AcDbLine
 39
0.25
 370
106
 10
109.3533
 20
312.471812207031
 30
0.0
 11
109.0863
 21
312.287812207031
 31
0.0
 0
LINE
 5
2EA
100
AcDbEntity
 8
Layer8
100
AcDbLine
 39
0.25
 370
106
 10
109.0863
 20
312.287812207031
 30
0.0
 11
103.7463
 21
312.287812207031
 31
0.0
 0
LINE
 5
2EB
100
AcDbEntity
 8
Layer8
100
AcDbLine
 39
0.25
 370
106
 10
103.7463
 20
312.287812207031
 30
0.0
 11
103.4703
 21
312.471812207031
 31
0.0
 0
LINE
 5
2EC
100
AcDbEntity
 8
Layer8
100
AcDbLine
 39
0.25
 370
106
 10
103.4703
 20
312.471812207031
 30
0.0
 11
103.2863
 21
314.007812207031
 31
0.0
 0
LINE
 5
2ED
100
AcDbEntity
 8
Layer8
100
AcDbLine
 39
0.25
 370
106
 10
103.2863
 20
314.007812207031
 30
0.0
 11
109.5483
 21
314.007812207031
 31
0.0
 0
LINE
 5
2EE
100
AcDbEntity
 8
Layer8
100
AcDbLine
 39
0.25
 370
106
 10
109.5483
 20
314.007812207031
 30
0.0
 11
109.3533
 21
312.471812207031
 31
0.0
 0
ARC
 5
2EF
100
AcDbEntity
 8
Layer8
100
AcDbCircle
 39
0.25
 370
106
 10
92.9451584431201
 20
320.084435855112
 30
0.0
 40
10.7385747949037
100
AcDbArc
 50
178.314245116294
 51
-156.587666799476
 0
LINE
 5
2F0
100
AcDbEntity
 8
Layer8
100
AcDbLine
 39
0.25
 370
106
 10
79.3647
 20
315.817512207031
 30
0.0
 11
79.87985625
 21
318.010699707031
 31
0.0
 0
LINE
 5
2F1
100
AcDbEntity
 8
Layer8
100
AcDbLine
 39
0.25
 370
106
 10
79.87985625
 20
318.010699707031
 30
0.0
 11
80.1552
 21
320.571762207031
 31
0.0
 0
LINE
 5
2F2
100
AcDbEntity
 8
Layer8
100
AcDbLine
 39
0.25
 370
106
 10
80.1552
 20
320.571762207031
 30
0.0
 11
80.2857
 21
323.584512207031
 31
0.0
 0
LINE
 5
2F3
100
AcDbEntity
 8
Layer8
100
AcDbLine
 39
0.25
 370
106
 10
80.2857
 20
323.584512207031
 30
0.0
 11
80.2797
 21
329.830512207031
 31
0.0
 0
LINE
 5
2F4
100
AcDbEntity
 8
Layer8
100
AcDbLine
 39
0.25
 370
106
 10
80.2797
 20
329.830512207031
 30
0.0
 11
82.1677
 21
329.830512207031
 31
0.0
 0
LINE
 5
2F5
100
AcDbEntity
 8
Layer8
100
AcDbLine
 39
0.25
 370
106
 10
82.1677
 20
329.830512207031
 30
0.0
 11
82.21123125
 21
320.400340332031
 31
0.0
 0
LINE
 5
2F6
100
AcDbEntity
 8
Layer8
100
AcDbLine
 39
0.25
 370
106
 10
83.0907
 20
315.817512207031
 30
0.0
 11
79.3647
 21
315.817512207031
 31
0.0
 0
LINE
 5
2F7
100
AcDbEntity
 8
Layer8
100
AcDbLine
 39
0.25
 370
106
 10
79.157
 20
315.596112207031
 30
0.0
 11
79.276
 21
315.818112207031
 31
0.0
 0
LINE
 5
2F8
100
AcDbEntity
 8
Layer8
100
AcDbLine
 39
0.25
 370
106
 10
79.276
 20
315.818112207031
 30
0.0
 11
83.076
 21
315.818112207031
 31
0.0
 0
LINE
 5
2F9
100
AcDbEntity
 8
Layer8
100
AcDbLine
 39
0.25
 370
106
 10
83.076
 20
315.818112207031
 30
0.0
 11
83.188
 21
315.596112207031
 31
0.0
 0
LINE
 5
2FA
100
AcDbEntity
 8
Layer8
100
AcDbLine
 39
0.25
 370
106
 10
83.188
 20
315.596112207031
 30
0.0
 11
79.157
 21
315.596112207031
 31
0.0
 0
LINE
 5
2FB
100
AcDbEntity
 8
Layer8
100
AcDbLine
 39
0.25
 370
106
 10
109.1966
 20
149.738212207031
 30
0.0
 11
109.1966
 21
155.399212207031
 31
0.0
 0
LINE
 5
2FC
100
AcDbEntity
 8
Layer8
100
AcDbLine
 39
0.25
 370
106
 10
51.8125
 20
149.738212207031
 30
0.0
 11
51.8125
 21
155.399212207031
 31
0.0
 0
LINE
 5
2FD
100
AcDbEntity
 8
Layer8
100
AcDbLine
 39
0.25
 370
106
 10
67.7523
 20
216.208312207031
 30
0.0
 11
69.0083
 21
218.356312207031
 31
0.0
 0
LINE
 5
2FE
100
AcDbEntity
 8
Layer8
100
AcDbLine
 39
0.25
 370
106
 10
82.7503
 20
195.801012207031
 30
0.0
 11
79.8673
 21
195.801012207031
 31
0.0
 0
LINE
 5
2FF
100
AcDbEntity
 8
Layer8
100
AcDbLine
 39
0.25
 370
106
 10
93.5872
 20
218.332312207031
 30
0.0
 11
94.8192
 21
216.208312207031
 31
0.0
 0
CIRCLE
 5
300
100
AcDbEntity
 8
Layer8
100
AcDbCircle
 39
0.25
 370
106
 10
81.2603
 20
181.316112207031
 30
0.0
 40
2.59225000000001
 370
106
 0
CIRCLE
 5
301
100
AcDbEntity
 8
Layer8
100
AcDbCircle
 39
0.25
 370
106
 10
81.2603
 20
181.316112207031
 30
0.0
 40
2.59225000000001
 370
106
 0
CIRCLE
 5
302
100
AcDbEntity
 8
Layer8
100
AcDbCircle
 39
0.25
 370
106
 10
81.2602
 20
181.319612207031
 30
0.0
 40
2.99900000000001
 370
106
 0
CIRCLE
 5
303
100
AcDbEntity
 8
Layer8
100
AcDbCircle
 39
0.25
 370
106
 10
81.2627
 20
181.317112207031
 30
0.0
 40
2.18450000000001
 370
106
 0
CIRCLE
 5
304
100
AcDbEntity
 8
Layer8
100
AcDbCircle
 39
0.25
 370
106
 10
81.2602
 20
181.319612207031
 30
0.0
 40
2.99900000000001
 370
106
 0
CIRCLE
 5
305
100
AcDbEntity
 8
Layer8
100
AcDbCircle
 39
0.25
 370
106
 10
81.2627
 20
181.317112207031
 30
0.0
 40
2.18450000000001
 370
106
 0
CIRCLE
 5
306
100
AcDbEntity
 8
Layer8
100
AcDbCircle
 39
0.25
 370
106
 10
81.2627
 20
181.317212207031
 30
0.0
 40
2.18424999999999
 370
106
 0
CIRCLE
 5
307
100
AcDbEntity
 8
Layer8
100
AcDbCircle
 39
0.25
 370
106
 10
81.2627
 20
181.317212207031
 30
0.0
 40
2.18424999999999
 370
106
 0
CIRCLE
 5
308
100
AcDbEntity
 8
Layer8
100
AcDbCircle
 39
0.25
 370
106
 10
106.751321875
 20
224.623585644531
 30
0.0
 40
2.57444140625
 370
106
 0
CIRCLE
 5
309
100
AcDbEntity
 8
Layer8
100
AcDbCircle
 39
0.25
 370
106
 10
106.751321875
 20
224.623585644531
 30
0.0
 40
2.57444140625
 370
106
 0
CIRCLE
 5
30A
100
AcDbEntity
 8
Layer8
100
AcDbCircle
 39
0.25
 370
106
 10
106.7512
 20
224.626827832031
 30
0.0
 40
2.9781875
 370
106
 0
CIRCLE
 5
30B
100
AcDbEntity
 8
Layer8
100
AcDbCircle
 39
0.25
 370
106
 10
106.75410625
 20
224.622999707031
 30
0.0
 40
2.16931249999999
 370
106
 0
CIRCLE
 5
30C
100
AcDbEntity
 8
Layer8
100
AcDbCircle
 39
0.25
 370
106
 10
106.7512
 20
224.626827832031
 30
0.0
 40
2.9781875
 370
106
 0
CIRCLE
 5
30D
100
AcDbEntity
 8
Layer8
100
AcDbCircle
 39
0.25
 370
106
 10
106.75410625
 20
224.622999707031
 30
0.0
 40
2.16931249999999
 370
106
 0
ARC
 5
30E
100
AcDbEntity
 8
Layer8
100
AcDbCircle
 39
0.25
 370
106
 10
81.2586979800461
 20
181.366783582192
 30
0.0
 40
3.15503963857991
100
AcDbArc
 50
53.8873191787555
 51
123.371931211636
 0
ARC
 5
30F
100
AcDbEntity
 8
Layer8
100
AcDbCircle
 39
0.25
 370
106
 10
81.2586979800461
 20
181.366783582192
 30
0.0
 40
3.15503963857991
100
AcDbArc
 50
53.8873191787555
 51
123.371931211636
 0
ARC
 5
310
100
AcDbEntity
 8
Layer8
100
AcDbCircle
 39
0.25
 370
106
 10
81.2586979800461
 20
181.366783582192
 30
0.0
 40
3.15503963857991
100
AcDbArc
 50
53.8873191787555
 51
123.371931211636
 0
ARC
 5
311
100
AcDbEntity
 8
Layer8
100
AcDbCircle
 39
0.25
 370
106
 10
81.2586979800461
 20
181.366783582192
 30
0.0
 40
3.15503963857991
100
AcDbArc
 50
53.8873191787555
 51
123.371931211636
 0
LINE
 5
312
100
AcDbEntity
 8
Layer8
100
AcDbLine
 39
0.25
 370
106
 10
83.1182
 20
183.915612207031
 30
0.0
 11
82.7502
 21
185.746612207031
 31
0.0
 0
LINE
 5
313
100
AcDbEntity
 8
Layer8
100
AcDbLine
 39
0.25
 370
106
 10
82.7502
 20
185.746612207031
 30
0.0
 11
82.7502
 21
195.810612207031
 31
0.0
 0
LINE
 5
314
100
AcDbEntity
 8
Layer8
100
AcDbLine
 39
0.25
 370
106
 10
82.7502
 20
195.810612207031
 30
0.0
 11
79.8662
 21
195.810612207031
 31
0.0
 0
LINE
 5
315
100
AcDbEntity
 8
Layer8
100
AcDbLine
 39
0.25
 370
106
 10
79.8662
 20
195.810612207031
 30
0.0
 11
79.8662
 21
185.746612207031
 31
0.0
 0
LINE
 5
316
100
AcDbEntity
 8
Layer8
100
AcDbLine
 39
0.25
 370
106
 10
79.8662
 20
185.746612207031
 30
0.0
 11
79.5232
 21
184.001612207031
 31
0.0
 0
LINE
 5
317
100
AcDbEntity
 8
Layer8
100
AcDbLine
 39
0.25
 370
106
 10
83.1182
 20
183.915612207031
 30
0.0
 11
82.7502
 21
185.746612207031
 31
0.0
 0
LINE
 5
318
100
AcDbEntity
 8
Layer8
100
AcDbLine
 39
0.25
 370
106
 10
82.7502
 20
185.746612207031
 30
0.0
 11
82.7502
 21
195.810612207031
 31
0.0
 0
LINE
 5
319
100
AcDbEntity
 8
Layer8
100
AcDbLine
 39
0.25
 370
106
 10
82.7502
 20
195.810612207031
 30
0.0
 11
79.8662
 21
195.810612207031
 31
0.0
 0
LINE
 5
31A
100
AcDbEntity
 8
Layer8
100
AcDbLine
 39
0.25
 370
106
 10
79.8662
 20
195.810612207031
 30
0.0
 11
79.8662
 21
185.746612207031
 31
0.0
 0
LINE
 5
31B
100
AcDbEntity
 8
Layer8
100
AcDbLine
 39
0.25
 370
106
 10
79.8662
 20
185.746612207031
 30
0.0
 11
79.5232
 21
184.001612207031
 31
0.0
 0
LINE
 5
31C
100
AcDbEntity
 8
Layer8
100
AcDbLine
 39
0.25
 370
106
 10
83.1182
 20
183.915612207031
 30
0.0
 11
82.7502
 21
185.746612207031
 31
0.0
 0
LINE
 5
31D
100
AcDbEntity
 8
Layer8
100
AcDbLine
 39
0.25
 370
106
 10
82.7502
 20
185.746612207031
 30
0.0
 11
82.7502
 21
195.810612207031
 31
0.0
 0
LINE
 5
31E
100
AcDbEntity
 8
Layer8
100
AcDbLine
 39
0.25
 370
106
 10
82.7502
 20
195.810612207031
 30
0.0
 11
79.8662
 21
195.810612207031
 31
0.0
 0
LINE
 5
31F
100
AcDbEntity
 8
Layer8
100
AcDbLine
 39
0.25
 370
106
 10
79.8662
 20
195.810612207031
 30
0.0
 11
79.8662
 21
185.746612207031
 31
0.0
 0
LINE
 5
320
100
AcDbEntity
 8
Layer8
100
AcDbLine
 39
0.25
 370
106
 10
79.8662
 20
185.746612207031
 30
0.0
 11
79.5232
 21
184.001612207031
 31
0.0
 0
LINE
 5
321
100
AcDbEntity
 8
Layer8
100
AcDbLine
 39
0.25
 370
106
 10
83.1182
 20
183.915612207031
 30
0.0
 11
82.7502
 21
185.746612207031
 31
0.0
 0
LINE
 5
322
100
AcDbEntity
 8
Layer8
100
AcDbLine
 39
0.25
 370
106
 10
82.7502
 20
185.746612207031
 30
0.0
 11
82.7502
 21
195.810612207031
 31
0.0
 0
LINE
 5
323
100
AcDbEntity
 8
Layer8
100
AcDbLine
 39
0.25
 370
106
 10
82.7502
 20
195.810612207031
 30
0.0
 11
79.8662
 21
195.810612207031
 31
0.0
 0
LINE
 5
324
100
AcDbEntity
 8
Layer8
100
AcDbLine
 39
0.25
 370
106
 10
79.8662
 20
195.810612207031
 30
0.0
 11
79.8662
 21
185.746612207031
 31
0.0
 0
LINE
 5
325
100
AcDbEntity
 8
Layer8
100
AcDbLine
 39
0.25
 370
106
 10
79.8662
 20
185.746612207031
 30
0.0
 11
79.5232
 21
184.001612207031
 31
0.0
 0
CIRCLE
 5
326
100
AcDbEntity
 8
Layer8
100
AcDbCircle
 39
0.25
 370
106
 10
106.751321875
 20
224.623585644531
 30
0.0
 40
2.57444140625
 370
106
 0
CIRCLE
 5
327
100
AcDbEntity
 8
Layer8
100
AcDbCircle
 39
0.25
 370
106
 10
106.751321875
 20
224.623585644531
 30
0.0
 40
2.57444140625
 370
106
 0
CIRCLE
 5
328
100
AcDbEntity
 8
Layer8
100
AcDbCircle
 39
0.25
 370
106
 10
106.7512
 20
224.626827832031
 30
0.0
 40
2.9781875
 370
106
 0
CIRCLE
 5
329
100
AcDbEntity
 8
Layer8
100
AcDbCircle
 39
0.25
 370
106
 10
106.75410625
 20
224.622999707031
 30
0.0
 40
2.16931249999999
 370
106
 0
CIRCLE
 5
32A
100
AcDbEntity
 8
Layer8
100
AcDbCircle
 39
0.25
 370
106
 10
106.7512
 20
224.626827832031
 30
0.0
 40
2.9781875
 370
106
 0
CIRCLE
 5
32B
100
AcDbEntity
 8
Layer8
100
AcDbCircle
 39
0.25
 370
106
 10
106.75410625
 20
224.622999707031
 30
0.0
 40
2.16931249999999
 370
106
 0
LINE
 5
32C
100
AcDbEntity
 8
Layer8
100
AcDbLine
 39
0.25
 370
106
 10
103.971
 20
223.043212207031
 30
0.0
 11
103.616875
 21
223.986212207031
 31
0.0
 0
LINE
 5
32D
100
AcDbEntity
 8
Layer8
100
AcDbLine
 39
0.25
 370
106
 10
103.616875
 20
223.986212207031
 30
0.0
 11
103.577
 21
224.962212207031
 31
0.0
 0
LINE
 5
32E
100
AcDbEntity
 8
Layer8
100
AcDbLine
 39
0.25
 370
106
 10
103.577
 20
224.962212207031
 30
0.0
 11
102.541015625
 21
223.974321582031
 31
0.0
 0
LINE
 5
32F
100
AcDbEntity
 8
Layer8
100
AcDbLine
 39
0.25
 370
106
 10
102.541015625
 20
223.974321582031
 30
0.0
 11
93.591
 21
218.341212207031
 31
0.0
 0
LINE
 5
330
100
AcDbEntity
 8
Layer8
100
AcDbLine
 39
0.25
 370
106
 10
93.591
 20
218.341212207031
 30
0.0
 11
94.84
 21
216.248212207031
 31
0.0
 0
LINE
 5
331
100
AcDbEntity
 8
Layer8
100
AcDbLine
 39
0.25
 370
106
 10
94.84
 20
216.248212207031
 30
0.0
 11
103.592
 21
221.223212207031
 31
0.0
 0
LINE
 5
332
100
AcDbEntity
 8
Layer8
100
AcDbLine
 39
0.25
 370
106
 10
103.592
 20
221.223212207031
 30
0.0
 11
105.283
 21
221.789212207031
 31
0.0
 0
LINE
 5
333
100
AcDbEntity
 8
Layer8
100
AcDbLine
 39
0.25
 370
106
 10
105.283
 20
221.789212207031
 30
0.0
 11
104.543
 21
222.312337207031
 31
0.0
 0
LINE
 5
334
100
AcDbEntity
 8
Layer8
100
AcDbLine
 39
0.25
 370
106
 10
104.543
 20
222.312337207031
 30
0.0
 11
103.971
 21
223.043212207031
 31
0.0
 0
LINE
 5
335
100
AcDbEntity
 8
Layer8
100
AcDbLine
 39
0.25
 370
106
 10
103.971
 20
223.043212207031
 30
0.0
 11
103.616875
 21
223.986212207031
 31
0.0
 0
LINE
 5
336
100
AcDbEntity
 8
Layer8
100
AcDbLine
 39
0.25
 370
106
 10
103.616875
 20
223.986212207031
 30
0.0
 11
103.577
 21
224.962212207031
 31
0.0
 0
LINE
 5
337
100
AcDbEntity
 8
Layer8
100
AcDbLine
 39
0.25
 370
106
 10
103.577
 20
224.962212207031
 30
0.0
 11
102.541015625
 21
223.974321582031
 31
0.0
 0
LINE
 5
338
100
AcDbEntity
 8
Layer8
100
AcDbLine
 39
0.25
 370
106
 10
102.541015625
 20
223.974321582031
 30
0.0
 11
93.591
 21
218.341212207031
 31
0.0
 0
LINE
 5
339
100
AcDbEntity
 8
Layer8
100
AcDbLine
 39
0.25
 370
106
 10
93.591
 20
218.341212207031
 30
0.0
 11
94.84
 21
216.248212207031
 31
0.0
 0
LINE
 5
33A
100
AcDbEntity
 8
Layer8
100
AcDbLine
 39
0.25
 370
106
 10
94.84
 20
216.248212207031
 30
0.0
 11
103.592
 21
221.223212207031
 31
0.0
 0
LINE
 5
33B
100
AcDbEntity
 8
Layer8
100
AcDbLine
 39
0.25
 370
106
 10
103.592
 20
221.223212207031
 30
0.0
 11
105.283
 21
221.789212207031
 31
0.0
 0
LINE
 5
33C
100
AcDbEntity
 8
Layer8
100
AcDbLine
 39
0.25
 370
106
 10
105.283
 20
221.789212207031
 30
0.0
 11
104.543
 21
222.312337207031
 31
0.0
 0
LINE
 5
33D
100
AcDbEntity
 8
Layer8
100
AcDbLine
 39
0.25
 370
106
 10
104.543
 20
222.312337207031
 30
0.0
 11
103.971
 21
223.043212207031
 31
0.0
 0
CIRCLE
 5
33E
100
AcDbEntity
 8
Layer8
100
AcDbCircle
 39
0.25
 370
106
 10
56.0182375
 20
224.622634082031
 30
0.0
 40
2.571125
 370
106
 0
CIRCLE
 5
33F
100
AcDbEntity
 8
Layer8
100
AcDbCircle
 39
0.25
 370
106
 10
56.0182375
 20
224.622634082031
 30
0.0
 40
2.571125
 370
106
 0
CIRCLE
 5
340
100
AcDbEntity
 8
Layer8
100
AcDbCircle
 39
0.25
 370
106
 10
56.019546875
 20
224.623555957031
 30
0.0
 40
2.97282031249999
 370
106
 0
CIRCLE
 5
341
100
AcDbEntity
 8
Layer8
100
AcDbCircle
 39
0.25
 370
106
 10
56.018984375
 20
224.623134082031
 30
0.0
 40
2.16580468750001
 370
106
 0
CIRCLE
 5
342
100
AcDbEntity
 8
Layer8
100
AcDbCircle
 39
0.25
 370
106
 10
56.019546875
 20
224.623555957031
 30
0.0
 40
2.97282031249999
 370
106
 0
CIRCLE
 5
343
100
AcDbEntity
 8
Layer8
100
AcDbCircle
 39
0.25
 370
106
 10
56.018984375
 20
224.623134082031
 30
0.0
 40
2.16580468750001
 370
106
 0
LINE
 5
344
100
AcDbEntity
 8
Layer8
100
AcDbLine
 39
0.25
 370
106
 10
58.7777
 20
223.004112207031
 30
0.0
 11
58.13895
 21
222.226737207031
 31
0.0
 0
LINE
 5
345
100
AcDbEntity
 8
Layer8
100
AcDbLine
 39
0.25
 370
106
 10
58.13895
 20
222.226737207031
 30
0.0
 11
57.3157
 21
221.711112207031
 31
0.0
 0
LINE
 5
346
100
AcDbEntity
 8
Layer8
100
AcDbLine
 39
0.25
 370
106
 10
57.3157
 20
221.711112207031
 30
0.0
 11
58.250325
 21
221.466737207031
 31
0.0
 0
LINE
 5
347
100
AcDbEntity
 8
Layer8
100
AcDbLine
 39
0.25
 370
106
 10
58.250325
 20
221.466737207031
 30
0.0
 11
59.0807
 21
221.097112207031
 31
0.0
 0
LINE
 5
348
100
AcDbEntity
 8
Layer8
100
AcDbLine
 39
0.25
 370
106
 10
59.0807
 20
221.097112207031
 30
0.0
 11
67.7577
 21
216.213112207031
 31
0.0
 0
LINE
 5
349
100
AcDbEntity
 8
Layer8
100
AcDbLine
 39
0.25
 370
106
 10
67.7577
 20
216.213112207031
 30
0.0
 11
68.9997
 21
218.347112207031
 31
0.0
 0
LINE
 5
34A
100
AcDbEntity
 8
Layer8
100
AcDbLine
 39
0.25
 370
106
 10
68.9997
 20
218.347112207031
 30
0.0
 11
60.5427
 21
223.589112207031
 31
0.0
 0
LINE
 5
34B
100
AcDbEntity
 8
Layer8
100
AcDbLine
 39
0.25
 370
106
 10
60.5427
 20
223.589112207031
 30
0.0
 11
59.2117
 21
224.770112207031
 31
0.0
 0
LINE
 5
34C
100
AcDbEntity
 8
Layer8
100
AcDbLine
 39
0.25
 370
106
 10
59.2117
 20
224.770112207031
 30
0.0
 11
59.1312
 21
223.867987207031
 31
0.0
 0
LINE
 5
34D
100
AcDbEntity
 8
Layer8
100
AcDbLine
 39
0.25
 370
106
 10
59.1312
 20
223.867987207031
 30
0.0
 11
58.7777
 21
223.004112207031
 31
0.0
 0
LINE
 5
34E
100
AcDbEntity
 8
Layer8
100
AcDbLine
 39
0.25
 370
106
 10
58.7777
 20
223.004112207031
 30
0.0
 11
58.13895
 21
222.226737207031
 31
0.0
 0
LINE
 5
34F
100
AcDbEntity
 8
Layer8
100
AcDbLine
 39
0.25
 370
106
 10
58.13895
 20
222.226737207031
 30
0.0
 11
57.3157
 21
221.711112207031
 31
0.0
 0
LINE
 5
350
100
AcDbEntity
 8
Layer8
100
AcDbLine
 39
0.25
 370
106
 10
57.3157
 20
221.711112207031
 30
0.0
 11
58.250325
 21
221.466737207031
 31
0.0
 0
LINE
 5
351
100
AcDbEntity
 8
Layer8
100
AcDbLine
 39
0.25
 370
106
 10
58.250325
 20
221.466737207031
 30
0.0
 11
59.0807
 21
221.097112207031
 31
0.0
 0
LINE
 5
352
100
AcDbEntity
 8
Layer8
100
AcDbLine
 39
0.25
 370
106
 10
59.0807
 20
221.097112207031
 30
0.0
 11
67.7577
 21
216.213112207031
 31
0.0
 0
LINE
 5
353
100
AcDbEntity
 8
Layer8
100
AcDbLine
 39
0.25
 370
106
 10
67.7577
 20
216.213112207031
 30
0.0
 11
68.9997
 21
218.347112207031
 31
0.0
 0
LINE
 5
354
100
AcDbEntity
 8
Layer8
100
AcDbLine
 39
0.25
 370
106
 10
68.9997
 20
218.347112207031
 30
0.0
 11
60.5427
 21
223.589112207031
 31
0.0
 0
LINE
 5
355
100
AcDbEntity
 8
Layer8
100
AcDbLine
 39
0.25
 370
106
 10
60.5427
 20
223.589112207031
 30
0.0
 11
59.2117
 21
224.770112207031
 31
0.0
 0
LINE
 5
356
100
AcDbEntity
 8
Layer8
100
AcDbLine
 39
0.25
 370
106
 10
59.2117
 20
224.770112207031
 30
0.0
 11
59.1312
 21
223.867987207031
 31
0.0
 0
LINE
 5
357
100
AcDbEntity
 8
Layer8
100
AcDbLine
 39
0.25
 370
106
 10
59.1312
 20
223.867987207031
 30
0.0
 11
58.7777
 21
223.004112207031
 31
0.0
 0
LINE
 5
358
100
AcDbEntity
 8
Layer8
100
AcDbLine
 39
0.25
 370
106
 10
94.0423
 20
204.054012207031
 30
0.0
 11
92.5903
 21
201.569012207031
 31
0.0
 0
LINE
 5
359
100
AcDbEntity
 8
Layer8
100
AcDbLine
 39
0.25
 370
106
 10
79.9456
 20
224.719012207031
 30
0.0
 11
82.4086
 21
224.719012207031
 31
0.0
 0
LINE
 5
35A
100
AcDbEntity
 8
Layer8
100
AcDbLine
 39
0.25
 370
106
 10
68.8675
 20
201.289312207031
 30
0.0
 11
67.6365
 21
203.418312207031
 31
0.0
 0
CIRCLE
 5
35B
100
AcDbEntity
 8
Layer8
100
AcDbCircle
 39
0.25
 370
106
 10
105.841721875
 20
195.527176269531
 30
0.0
 40
2.57294921875
 370
106
 0
CIRCLE
 5
35C
100
AcDbEntity
 8
Layer8
100
AcDbCircle
 39
0.25
 370
106
 10
105.841721875
 20
195.527176269531
 30
0.0
 40
2.57294921875
 370
106
 0
CIRCLE
 5
35D
100
AcDbEntity
 8
Layer8
100
AcDbCircle
 39
0.25
 370
106
 10
105.842534375
 20
195.528668457031
 30
0.0
 40
2.97701562499999
 370
106
 0
CIRCLE
 5
35E
100
AcDbEntity
 8
Layer8
100
AcDbCircle
 39
0.25
 370
106
 10
105.84108125
 20
195.527801269531
 30
0.0
 40
2.16619140624998
 370
106
 0
CIRCLE
 5
35F
100
AcDbEntity
 8
Layer8
100
AcDbCircle
 39
0.25
 370
106
 10
105.842534375
 20
195.528668457031
 30
0.0
 40
2.97701562499999
 370
106
 0
CIRCLE
 5
360
100
AcDbEntity
 8
Layer8
100
AcDbCircle
 39
0.25
 370
106
 10
105.84108125
 20
195.527801269531
 30
0.0
 40
2.16619140624998
 370
106
 0
CIRCLE
 5
361
100
AcDbEntity
 8
Layer8
100
AcDbCircle
 39
0.25
 370
106
 10
105.841721875
 20
195.527176269531
 30
0.0
 40
2.57294921875
 370
106
 0
CIRCLE
 5
362
100
AcDbEntity
 8
Layer8
100
AcDbCircle
 39
0.25
 370
106
 10
105.841721875
 20
195.527176269531
 30
0.0
 40
2.57294921875
 370
106
 0
CIRCLE
 5
363
100
AcDbEntity
 8
Layer8
100
AcDbCircle
 39
0.25
 370
106
 10
105.842534375
 20
195.528668457031
 30
0.0
 40
2.97701562499999
 370
106
 0
CIRCLE
 5
364
100
AcDbEntity
 8
Layer8
100
AcDbCircle
 39
0.25
 370
106
 10
105.84108125
 20
195.527801269531
 30
0.0
 40
2.16619140624998
 370
106
 0
CIRCLE
 5
365
100
AcDbEntity
 8
Layer8
100
AcDbCircle
 39
0.25
 370
106
 10
105.842534375
 20
195.528668457031
 30
0.0
 40
2.97701562499999
 370
106
 0
CIRCLE
 5
366
100
AcDbEntity
 8
Layer8
100
AcDbCircle
 39
0.25
 370
106
 10
105.84108125
 20
195.527801269531
 30
0.0
 40
2.16619140624998
 370
106
 0
CIRCLE
 5
367
100
AcDbEntity
 8
Layer8
100
AcDbCircle
 39
0.25
 370
106
 10
81.0836
 20
239.252012207031
 30
0.0
 40
2.5925
 370
106
 0
CIRCLE
 5
368
100
AcDbEntity
 8
Layer8
100
AcDbCircle
 39
0.25
 370
106
 10
81.0836
 20
239.252012207031
 30
0.0
 40
2.5925
 370
106
 0
CIRCLE
 5
369
100
AcDbEntity
 8
Layer8
100
AcDbCircle
 39
0.25
 370
106
 10
81.0823
 20
239.252112207031
 30
0.0
 40
3.00174999999999
 370
106
 0
CIRCLE
 5
36A
100
AcDbEntity
 8
Layer8
100
AcDbCircle
 39
0.25
 370
106
 10
81.0813
 20
239.257612207031
 30
0.0
 40
2.18499999999999
 370
106
 0
CIRCLE
 5
36B
100
AcDbEntity
 8
Layer8
100
AcDbCircle
 39
0.25
 370
106
 10
81.0823
 20
239.252112207031
 30
0.0
 40
3.00174999999999
 370
106
 0
CIRCLE
 5
36C
100
AcDbEntity
 8
Layer8
100
AcDbCircle
 39
0.25
 370
106
 10
81.0813
 20
239.257612207031
 30
0.0
 40
2.18499999999999
 370
106
 0
ARC
 5
36D
100
AcDbEntity
 8
Layer8
100
AcDbCircle
 39
0.25
 370
106
 10
105.736766645232
 20
195.576173205903
 30
0.0
 40
3.09513523236575
100
AcDbArc
 50
113.054327915094
 51
-176.127006118353
 0
ARC
 5
36E
100
AcDbEntity
 8
Layer8
100
AcDbCircle
 39
0.25
 370
106
 10
105.736766645232
 20
195.576173205903
 30
0.0
 40
3.09513523236575
100
AcDbArc
 50
113.054327915094
 51
-176.127006118353
 0
ARC
 5
36F
100
AcDbEntity
 8
Layer8
100
AcDbCircle
 39
0.25
 370
106
 10
105.736766645232
 20
195.576173205903
 30
0.0
 40
3.09513523236575
100
AcDbArc
 50
113.054327915094
 51
-176.127006118353
 0
ARC
 5
370
100
AcDbEntity
 8
Layer8
100
AcDbCircle
 39
0.25
 370
106
 10
105.736766645232
 20
195.576173205903
 30
0.0
 40
3.09513523236575
100
AcDbArc
 50
113.054327915094
 51
-176.127006118353
 0
LINE
 5
371
100
AcDbEntity
 8
Layer8
100
AcDbLine
 39
0.25
 370
106
 10
102.6487
 20
195.367112207031
 30
0.0
 11
101.2977
 21
196.537112207031
 31
0.0
 0
LINE
 5
372
100
AcDbEntity
 8
Layer8
100
AcDbLine
 39
0.25
 370
106
 10
101.2977
 20
196.537112207031
 30
0.0
 11
92.5907
 21
201.567112207031
 31
0.0
 0
LINE
 5
373
100
AcDbEntity
 8
Layer8
100
AcDbLine
 39
0.25
 370
106
 10
92.5907
 20
201.567112207031
 30
0.0
 11
94.0427
 21
204.055112207031
 31
0.0
 0
LINE
 5
374
100
AcDbEntity
 8
Layer8
100
AcDbLine
 39
0.25
 370
106
 10
94.0427
 20
204.055112207031
 30
0.0
 11
102.7547
 21
199.025112207031
 31
0.0
 0
LINE
 5
375
100
AcDbEntity
 8
Layer8
100
AcDbLine
 39
0.25
 370
106
 10
102.7547
 20
199.025112207031
 30
0.0
 11
104.5247
 21
198.424112207031
 31
0.0
 0
LINE
 5
376
100
AcDbEntity
 8
Layer8
100
AcDbLine
 39
0.25
 370
106
 10
102.6487
 20
195.367112207031
 30
0.0
 11
101.2977
 21
196.537112207031
 31
0.0
 0
LINE
 5
377
100
AcDbEntity
 8
Layer8
100
AcDbLine
 39
0.25
 370
106
 10
101.2977
 20
196.537112207031
 30
0.0
 11
92.5907
 21
201.567112207031
 31
0.0
 0
LINE
 5
378
100
AcDbEntity
 8
Layer8
100
AcDbLine
 39
0.25
 370
106
 10
92.5907
 20
201.567112207031
 30
0.0
 11
94.0427
 21
204.055112207031
 31
0.0
 0
LINE
 5
379
100
AcDbEntity
 8
Layer8
100
AcDbLine
 39
0.25
 370
106
 10
94.0427
 20
204.055112207031
 30
0.0
 11
102.7547
 21
199.025112207031
 31
0.0
 0
LINE
 5
37A
100
AcDbEntity
 8
Layer8
100
AcDbLine
 39
0.25
 370
106
 10
102.7547
 20
199.025112207031
 30
0.0
 11
104.5247
 21
198.424112207031
 31
0.0
 0
LINE
 5
37B
100
AcDbEntity
 8
Layer8
100
AcDbLine
 39
0.25
 370
106
 10
102.6487
 20
195.367112207031
 30
0.0
 11
101.2977
 21
196.537112207031
 31
0.0
 0
LINE
 5
37C
100
AcDbEntity
 8
Layer8
100
AcDbLine
 39
0.25
 370
106
 10
101.2977
 20
196.537112207031
 30
0.0
 11
92.5907
 21
201.567112207031
 31
0.0
 0
LINE
 5
37D
100
AcDbEntity
 8
Layer8
100
AcDbLine
 39
0.25
 370
106
 10
92.5907
 20
201.567112207031
 30
0.0
 11
94.0427
 21
204.055112207031
 31
0.0
 0
LINE
 5
37E
100
AcDbEntity
 8
Layer8
100
AcDbLine
 39
0.25
 370
106
 10
94.0427
 20
204.055112207031
 30
0.0
 11
102.7547
 21
199.025112207031
 31
0.0
 0
LINE
 5
37F
100
AcDbEntity
 8
Layer8
100
AcDbLine
 39
0.25
 370
106
 10
102.7547
 20
199.025112207031
 30
0.0
 11
104.5247
 21
198.424112207031
 31
0.0
 0
LINE
 5
380
100
AcDbEntity
 8
Layer8
100
AcDbLine
 39
0.25
 370
106
 10
102.6487
 20
195.367112207031
 30
0.0
 11
101.2977
 21
196.537112207031
 31
0.0
 0
LINE
 5
381
100
AcDbEntity
 8
Layer8
100
AcDbLine
 39
0.25
 370
106
 10
101.2977
 20
196.537112207031
 30
0.0
 11
92.5907
 21
201.567112207031
 31
0.0
 0
LINE
 5
382
100
AcDbEntity
 8
Layer8
100
AcDbLine
 39
0.25
 370
106
 10
92.5907
 20
201.567112207031
 30
0.0
 11
94.0427
 21
204.055112207031
 31
0.0
 0
LINE
 5
383
100
AcDbEntity
 8
Layer8
100
AcDbLine
 39
0.25
 370
106
 10
94.0427
 20
204.055112207031
 30
0.0
 11
102.7547
 21
199.025112207031
 31
0.0
 0
LINE
 5
384
100
AcDbEntity
 8
Layer8
100
AcDbLine
 39
0.25
 370
106
 10
102.7547
 20
199.025112207031
 30
0.0
 11
104.5247
 21
198.424112207031
 31
0.0
 0
CIRCLE
 5
385
100
AcDbEntity
 8
Layer8
100
AcDbCircle
 39
0.25
 370
106
 10
81.0836
 20
239.252012207031
 30
0.0
 40
2.5925
 370
106
 0
CIRCLE
 5
386
100
AcDbEntity
 8
Layer8
100
AcDbCircle
 39
0.25
 370
106
 10
81.0836
 20
239.252012207031
 30
0.0
 40
2.5925
 370
106
 0
CIRCLE
 5
387
100
AcDbEntity
 8
Layer8
100
AcDbCircle
 39
0.25
 370
106
 10
81.0823
 20
239.252112207031
 30
0.0
 40
3.00174999999999
 370
106
 0
CIRCLE
 5
388
100
AcDbEntity
 8
Layer8
100
AcDbCircle
 39
0.25
 370
106
 10
81.0813
 20
239.257612207031
 30
0.0
 40
2.18499999999999
 370
106
 0
CIRCLE
 5
389
100
AcDbEntity
 8
Layer8
100
AcDbCircle
 39
0.25
 370
106
 10
81.0823
 20
239.252112207031
 30
0.0
 40
3.00174999999999
 370
106
 0
CIRCLE
 5
38A
100
AcDbEntity
 8
Layer8
100
AcDbCircle
 39
0.25
 370
106
 10
81.0813
 20
239.257612207031
 30
0.0
 40
2.18499999999999
 370
106
 0
LINE
 5
38B
100
AcDbEntity
 8
Layer8
100
AcDbLine
 39
0.25
 370
106
 10
81.0619
 20
236.054912207031
 30
0.0
 11
80.066275
 21
236.218912207031
 31
0.0
 0
LINE
 5
38C
100
AcDbEntity
 8
Layer8
100
AcDbLine
 39
0.25
 370
106
 10
80.066275
 20
236.218912207031
 30
0.0
 11
79.1989
 21
236.670912207031
 31
0.0
 0
LINE
 5
38D
100
AcDbEntity
 8
Layer8
100
AcDbLine
 39
0.25
 370
106
 10
79.1989
 20
236.670912207031
 30
0.0
 11
79.53611875
 21
235.284630957031
 31
0.0
 0
LINE
 5
38E
100
AcDbEntity
 8
Layer8
100
AcDbLine
 39
0.25
 370
106
 10
79.53611875
 20
235.284630957031
 30
0.0
 11
79.9459
 21
224.717912207031
 31
0.0
 0
LINE
 5
38F
100
AcDbEntity
 8
Layer8
100
AcDbLine
 39
0.25
 370
106
 10
79.9459
 20
224.717912207031
 30
0.0
 11
82.3739
 21
224.752912207031
 31
0.0
 0
LINE
 5
390
100
AcDbEntity
 8
Layer8
100
AcDbLine
 39
0.25
 370
106
 10
82.3739
 20
224.752912207031
 30
0.0
 11
82.4479
 21
234.818912207031
 31
0.0
 0
LINE
 5
391
100
AcDbEntity
 8
Layer8
100
AcDbLine
 39
0.25
 370
106
 10
82.4479
 20
234.818912207031
 30
0.0
 11
82.8019
 21
236.565912207031
 31
0.0
 0
LINE
 5
392
100
AcDbEntity
 8
Layer8
100
AcDbLine
 39
0.25
 370
106
 10
82.8019
 20
236.565912207031
 30
0.0
 11
81.9829
 21
236.185162207031
 31
0.0
 0
LINE
 5
393
100
AcDbEntity
 8
Layer8
100
AcDbLine
 39
0.25
 370
106
 10
81.9829
 20
236.185162207031
 30
0.0
 11
81.0619
 21
236.054912207031
 31
0.0
 0
LINE
 5
394
100
AcDbEntity
 8
Layer8
100
AcDbLine
 39
0.25
 370
106
 10
81.0619
 20
236.054912207031
 30
0.0
 11
80.066275
 21
236.218912207031
 31
0.0
 0
LINE
 5
395
100
AcDbEntity
 8
Layer8
100
AcDbLine
 39
0.25
 370
106
 10
80.066275
 20
236.218912207031
 30
0.0
 11
79.1989
 21
236.670912207031
 31
0.0
 0
LINE
 5
396
100
AcDbEntity
 8
Layer8
100
AcDbLine
 39
0.25
 370
106
 10
79.1989
 20
236.670912207031
 30
0.0
 11
79.53611875
 21
235.284630957031
 31
0.0
 0
LINE
 5
397
100
AcDbEntity
 8
Layer8
100
AcDbLine
 39
0.25
 370
106
 10
79.53611875
 20
235.284630957031
 30
0.0
 11
79.9459
 21
224.717912207031
 31
0.0
 0
LINE
 5
398
100
AcDbEntity
 8
Layer8
100
AcDbLine
 39
0.25
 370
106
 10
79.9459
 20
224.717912207031
 30
0.0
 11
82.3739
 21
224.752912207031
 31
0.0
 0
LINE
 5
399
100
AcDbEntity
 8
Layer8
100
AcDbLine
 39
0.25
 370
106
 10
82.3739
 20
224.752912207031
 30
0.0
 11
82.4479
 21
234.818912207031
 31
0.0
 0
LINE
 5
39A
100
AcDbEntity
 8
Layer8
100
AcDbLine
 39
0.25
 370
106
 10
82.4479
 20
234.818912207031
 30
0.0
 11
82.8019
 21
236.565912207031
 31
0.0
 0
LINE
 5
39B
100
AcDbEntity
 8
Layer8
100
AcDbLine
 39
0.25
 370
106
 10
82.8019
 20
236.565912207031
 30
0.0
 11
81.9829
 21
236.185162207031
 31
0.0
 0
LINE
 5
39C
100
AcDbEntity
 8
Layer8
100
AcDbLine
 39
0.25
 370
106
 10
81.9829
 20
236.185162207031
 30
0.0
 11
81.0619
 21
236.054912207031
 31
0.0
 0
CIRCLE
 5
39D
100
AcDbEntity
 8
Layer8
100
AcDbCircle
 39
0.25
 370
106
 10
55.715596875
 20
195.323701269531
 30
0.0
 40
2.57437890625001
 370
106
 0
CIRCLE
 5
39E
100
AcDbEntity
 8
Layer8
100
AcDbCircle
 39
0.25
 370
106
 10
55.715596875
 20
195.323701269531
 30
0.0
 40
2.57437890625001
 370
106
 0
CIRCLE
 5
39F
100
AcDbEntity
 8
Layer8
100
AcDbCircle
 39
0.25
 370
106
 10
55.7166046875
 20
195.320729394531
 30
0.0
 40
2.980203125
 370
106
 0
CIRCLE
 5
3A0
100
AcDbEntity
 8
Layer8
100
AcDbCircle
 39
0.25
 370
106
 10
55.7152765625
 20
195.320166894531
 30
0.0
 40
2.16864062500002
 370
106
 0
CIRCLE
 5
3A1
100
AcDbEntity
 8
Layer8
100
AcDbCircle
 39
0.25
 370
106
 10
55.7166046875
 20
195.320729394531
 30
0.0
 40
2.980203125
 370
106
 0
CIRCLE
 5
3A2
100
AcDbEntity
 8
Layer8
100
AcDbCircle
 39
0.25
 370
106
 10
55.7152765625
 20
195.320166894531
 30
0.0
 40
2.16864062500002
 370
106
 0
ARC
 5
3A3
100
AcDbEntity
 8
Layer8
100
AcDbCircle
 39
0.25
 370
106
 10
55.7757939834538
 20
195.350416952179
 30
0.0
 40
3.1356838832969
100
AcDbArc
 50
-6.63123735185689
 51
63.120204798316
 0
ARC
 5
3A4
100
AcDbEntity
 8
Layer8
100
AcDbCircle
 39
0.25
 370
106
 10
55.7757939834538
 20
195.350416952179
 30
0.0
 40
3.1356838832969
100
AcDbArc
 50
-6.63123735185689
 51
63.120204798316
 0
LINE
 5
3A5
100
AcDbEntity
 8
Layer8
100
AcDbLine
 39
0.25
 370
106
 10
60.3025
 20
196.220312207031
 30
0.0
 11
58.8905
 21
194.988312207031
 31
0.0
 0
LINE
 5
3A6
100
AcDbEntity
 8
Layer8
100
AcDbLine
 39
0.25
 370
106
 10
57.1935
 20
198.147312207031
 30
0.0
 11
58.8905
 21
198.725312207031
 31
0.0
 0
LINE
 5
3A7
100
AcDbEntity
 8
Layer8
100
AcDbLine
 39
0.25
 370
106
 10
58.8905
 20
198.725312207031
 30
0.0
 11
67.6375
 21
203.418312207031
 31
0.0
 0
LINE
 5
3A8
100
AcDbEntity
 8
Layer8
100
AcDbLine
 39
0.25
 370
106
 10
67.6375
 20
203.418312207031
 30
0.0
 11
68.8675
 21
201.289312207031
 31
0.0
 0
LINE
 5
3A9
100
AcDbEntity
 8
Layer8
100
AcDbLine
 39
0.25
 370
106
 10
68.8675
 20
201.289312207031
 30
0.0
 11
60.3025
 21
196.220312207031
 31
0.0
 0
LINE
 5
3AA
100
AcDbEntity
 8
Layer8
100
AcDbLine
 39
0.25
 370
106
 10
60.3025
 20
196.220312207031
 30
0.0
 11
58.8905
 21
194.988312207031
 31
0.0
 0
LINE
 5
3AB
100
AcDbEntity
 8
Layer8
100
AcDbLine
 39
0.25
 370
106
 10
57.1935
 20
198.147312207031
 30
0.0
 11
58.8905
 21
198.725312207031
 31
0.0
 0
LINE
 5
3AC
100
AcDbEntity
 8
Layer8
100
AcDbLine
 39
0.25
 370
106
 10
58.8905
 20
198.725312207031
 30
0.0
 11
67.6375
 21
203.418312207031
 31
0.0
 0
LINE
 5
3AD
100
AcDbEntity
 8
Layer8
100
AcDbLine
 39
0.25
 370
106
 10
67.6375
 20
203.418312207031
 30
0.0
 11
68.8675
 21
201.289312207031
 31
0.0
 0
LINE
 5
3AE
100
AcDbEntity
 8
Layer8
100
AcDbLine
 39
0.25
 370
106
 10
68.8675
 20
201.289312207031
 30
0.0
 11
60.3025
 21
196.220312207031
 31
0.0
 0
LINE
 5
3AF
100
AcDbEntity
 8
Layer8
100
AcDbLine
 39
0.25
 370
106
 10
67.7521
 20
216.208712207031
 30
0.0
 11
73.9631
 21
212.696712207031
 31
0.0
 0
LINE
 5
3B0
100
AcDbEntity
 8
Layer8
100
AcDbLine
 39
0.25
 370
106
 10
73.9631
 20
212.696712207031
 30
0.0
 11
74.527725
 21
213.811962207031
 31
0.0
 0
LINE
 5
3B1
100
AcDbEntity
 8
Layer8
100
AcDbLine
 39
0.25
 370
106
 10
74.527725
 20
213.811962207031
 30
0.0
 11
75.2611
 21
214.811712207031
 31
0.0
 0
LINE
 5
3B2
100
AcDbEntity
 8
Layer8
100
AcDbLine
 39
0.25
 370
106
 10
75.2611
 20
214.811712207031
 30
0.0
 11
69.0081
 21
218.356712207031
 31
0.0
 0
LINE
 5
3B3
100
AcDbEntity
 8
Layer8
100
AcDbLine
 39
0.25
 370
106
 10
69.0081
 20
218.356712207031
 30
0.0
 11
67.7521
 21
216.208712207031
 31
0.0
 0
LINE
 5
3B4
100
AcDbEntity
 8
Layer8
100
AcDbLine
 39
0.25
 370
106
 10
79.8675
 20
195.800812207031
 30
0.0
 11
82.7505
 21
195.800812207031
 31
0.0
 0
LINE
 5
3B5
100
AcDbEntity
 8
Layer8
100
AcDbLine
 39
0.25
 370
106
 10
82.7505
 20
195.800812207031
 30
0.0
 11
82.7505
 21
202.459812207031
 31
0.0
 0
LINE
 5
3B6
100
AcDbEntity
 8
Layer8
100
AcDbLine
 39
0.25
 370
106
 10
82.7505
 20
202.459812207031
 30
0.0
 11
81.44915625
 21
202.263077832031
 31
0.0
 0
LINE
 5
3B7
100
AcDbEntity
 8
Layer8
100
AcDbLine
 39
0.25
 370
106
 10
81.44915625
 20
202.263077832031
 30
0.0
 11
79.8675
 21
202.342812207031
 31
0.0
 0
LINE
 5
3B8
100
AcDbEntity
 8
Layer8
100
AcDbLine
 39
0.25
 370
106
 10
79.8675
 20
202.342812207031
 30
0.0
 11
79.8675
 21
195.800812207031
 31
0.0
 0
LINE
 5
3B9
100
AcDbEntity
 8
Layer8
100
AcDbLine
 39
0.25
 370
106
 10
93.5876
 20
218.332312207031
 30
0.0
 11
86.9406
 21
214.572312207031
 31
0.0
 0
LINE
 5
3BA
100
AcDbEntity
 8
Layer8
100
AcDbLine
 39
0.25
 370
106
 10
86.9406
 20
214.572312207031
 30
0.0
 11
87.626975
 21
213.547187207031
 31
0.0
 0
LINE
 5
3BB
100
AcDbEntity
 8
Layer8
100
AcDbLine
 39
0.25
 370
106
 10
87.626975
 20
213.547187207031
 30
0.0
 11
88.1416
 21
212.413312207031
 31
0.0
 0
LINE
 5
3BC
100
AcDbEntity
 8
Layer8
100
AcDbLine
 39
0.25
 370
106
 10
88.1416
 20
212.413312207031
 30
0.0
 11
94.8186
 21
216.208312207031
 31
0.0
 0
LINE
 5
3BD
100
AcDbEntity
 8
Layer8
100
AcDbLine
 39
0.25
 370
106
 10
94.8186
 20
216.208312207031
 30
0.0
 11
93.5876
 21
218.332312207031
 31
0.0
 0
LINE
 5
3BE
100
AcDbEntity
 8
Layer8
100
AcDbLine
 39
0.25
 370
106
 10
82.4083
 20
224.718612207031
 30
0.0
 11
79.9453
 21
224.718612207031
 31
0.0
 0
LINE
 5
3BF
100
AcDbEntity
 8
Layer8
100
AcDbLine
 39
0.25
 370
106
 10
79.9453
 20
224.718612207031
 30
0.0
 11
79.8893
 21
217.350612207031
 31
0.0
 0
LINE
 5
3C0
100
AcDbEntity
 8
Layer8
100
AcDbLine
 39
0.25
 370
106
 10
79.8893
 20
217.350612207031
 30
0.0
 11
81.0003
 21
217.440612207031
 31
0.0
 0
LINE
 5
3C1
100
AcDbEntity
 8
Layer8
100
AcDbLine
 39
0.25
 370
106
 10
81.0003
 20
217.440612207031
 30
0.0
 11
82.3523
 21
217.313612207031
 31
0.0
 0
LINE
 5
3C2
100
AcDbEntity
 8
Layer8
100
AcDbLine
 39
0.25
 370
106
 10
82.3523
 20
217.313612207031
 30
0.0
 11
82.4083
 21
224.718612207031
 31
0.0
 0
LINE
 5
3C3
100
AcDbEntity
 8
Layer8
100
AcDbLine
 39
0.25
 370
106
 10
92.5902
 20
201.568212207031
 30
0.0
 11
94.0422
 21
204.054212207031
 31
0.0
 0
LINE
 5
3C4
100
AcDbEntity
 8
Layer8
100
AcDbLine
 39
0.25
 370
106
 10
94.0422
 20
204.054212207031
 30
0.0
 11
88.1992
 21
207.432212207031
 31
0.0
 0
LINE
 5
3C5
100
AcDbEntity
 8
Layer8
100
AcDbLine
 39
0.25
 370
106
 10
88.1992
 20
207.432212207031
 30
0.0
 11
87.6037
 21
206.098837207031
 31
0.0
 0
LINE
 5
3C6
100
AcDbEntity
 8
Layer8
100
AcDbLine
 39
0.25
 370
106
 10
87.6037
 20
206.098837207031
 30
0.0
 11
86.7742
 21
204.916212207031
 31
0.0
 0
LINE
 5
3C7
100
AcDbEntity
 8
Layer8
100
AcDbLine
 39
0.25
 370
106
 10
86.7742
 20
204.916212207031
 30
0.0
 11
92.5902
 21
201.568212207031
 31
0.0
 0
ARC
 5
3C8
100
AcDbEntity
 8
Layer8
100
AcDbCircle
 39
0.25
 370
106
 10
80.9932221219583
 20
209.85021473542
 30
0.0
 40
7.58116016924203
100
AcDbArc
 50
98.3758846778626
 51
139.123967927423
 0
ARC
 5
3C9
100
AcDbEntity
 8
Layer8
100
AcDbCircle
 39
0.25
 370
106
 10
81.0105067855873
 20
209.858720205672
 30
0.0
 40
7.57504920128838
100
AcDbArc
 50
38.4769338215103
 51
79.7941008264417
 0
ARC
 5
3CA
100
AcDbEntity
 8
Layer8
100
AcDbCircle
 39
0.25
 370
106
 10
81.0279354077684
 20
209.840976374516
 30
0.0
 40
7.5648074794084
100
AcDbArc
 50
-18.5672256437619
 51
19.8784952221827
 0
ARC
 5
3CB
100
AcDbEntity
 8
Layer8
100
AcDbCircle
 39
0.25
 370
106
 10
80.987199981655
 20
209.84331625603
 30
0.0
 40
7.5838574505594
100
AcDbArc
 50
-140.197017067374
 51
-98.4872775006408
 0
ARC
 5
3CC
100
AcDbEntity
 8
Layer8
100
AcDbCircle
 39
0.25
 370
106
 10
81.0010279049878
 20
209.850517626546
 30
0.0
 40
7.59480094073265
100
AcDbArc
 50
-76.6837967421906
 51
-40.5215994859753
 0
ARC
 5
3CD
100
AcDbEntity
 8
Layer8
100
AcDbCircle
 39
0.25
 370
106
 10
80.9849145007157
 20
209.849438669888
 30
0.0
 40
7.57718411441249
100
AcDbArc
 50
157.924864876143
 51
-158.911635395731
 0
ARC
 5
3CE
100
AcDbEntity
 8
Layer8
100
AcDbCircle
 39
0.25
 370
106
 10
80.9756986838808
 20
209.847189174073
 30
0.0
 40
7.5698272254462
100
AcDbArc
 50
139.01935776624
 51
157.880634777718
 0
ARC
 5
3CF
100
AcDbEntity
 8
Layer8
100
AcDbCircle
 39
0.25
 370
106
 10
81.0106640805324
 20
209.752615248271
 30
0.0
 40
7.49746658712052
100
AcDbArc
 50
-98.7702899245813
 51
-76.5818227010275
 0
ARC
 5
3D0
100
AcDbEntity
 8
Layer8
100
AcDbCircle
 39
0.25
 370
106
 10
81.0626232469246
 20
209.88685378236
 30
0.0
 40
7.51665897467733
100
AcDbArc
 50
19.6419458937406
 51
38.5528893628922
 0
ARC
 5
3D1
100
AcDbEntity
 8
Layer8
100
AcDbCircle
 39
0.25
 370
106
 10
81.0044098649777
 20
209.845620570469
 30
0.0
 40
7.58877757057932
100
AcDbArc
 50
-40.5088530876477
 51
-18.5434266989422
 0
ARC
 5
3D2
100
AcDbEntity
 8
Layer8
100
AcDbCircle
 39
0.25
 370
106
 10
80.9130754063302
 20
209.776272935973
 30
0.0
 40
7.48375111054608
100
AcDbArc
 50
-159.238252890072
 51
-140.225515351667
 0
ARC
 5
3D3
100
AcDbEntity
 8
Layer8
100
AcDbCircle
 39
0.25
 370
106
 10
81.0090244847346
 20
209.891488042228
 30
0.0
 40
7.54269953184372
100
AcDbArc
 50
79.7415022458648
 51
98.5371949575138
 0
HATCH
 5
3D4
100
AcDbEntity
 8
Layer22
100
AcDbHatch
 10
 0.0
 20
 0.0
 30
 0.0
 210
 0.0
 220
 0.0
 230
 1.0
 2
SOLID
 70
 1
 71
 1
 91
1              
 92
 0
 93
42             
 72
 1
 10
26.5766
 20
15.0839122070313
 11
30.6146
 21
15.0839122070313
 72
 1
 10
30.6146
 20
15.0839122070313
 11
30.4936
 21
23.9649122070313
 72
 1
 10
30.4936
 20
23.9649122070313
 11
30.482488671875
 21
24.6467032226562
 72
 1
 10
30.482488671875
 20
24.6467032226562
 11
30.469959375
 21
25.3786153320312
 72
 1
 10
30.469959375
 20
25.3786153320312
 11
30.454594140625
 21
26.1434571289062
 72
 1
 10
30.454594140625
 20
26.1434571289062
 11
30.434975
 21
26.9240372070312
 72
 1
 10
30.434975
 20
26.9240372070312
 11
30.409683984375
 21
27.7031641601562
 72
 1
 10
30.409683984375
 20
27.7031641601562
 11
30.377303125
 21
28.4636465820313
 72
 1
 10
30.377303125
 20
28.4636465820313
 11
30.336414453125
 21
29.1882930664063
 72
 1
 10
30.336414453125
 20
29.1882930664063
 11
30.2856
 21
29.8599122070312
 72
 1
 10
30.2856
 20
29.8599122070312
 11
30.471723046875
 21
29.3040782226562
 72
 1
 10
30.471723046875
 20
29.3040782226562
 11
30.729459375
 21
28.6172403320312
 72
 1
 10
30.729459375
 20
28.6172403320312
 11
31.046609765625
 21
27.8225196289062
 72
 1
 10
31.046609765625
 20
27.8225196289062
 11
31.410975
 21
26.9430372070312
 72
 1
 10
31.410975
 20
26.9430372070312
 11
31.810355859375
 21
26.0019141601563
 72
 1
 10
31.810355859375
 20
26.0019141601563
 11
32.232553125
 21
25.0222715820313
 72
 1
 10
32.232553125
 20
25.0222715820313
 11
32.665367578125
 21
24.0272305664063
 72
 1
 10
32.665367578125
 20
24.0272305664063
 11
33.0966
 21
23.0399122070312
 72
 1
 10
33.0966
 20
23.0399122070312
 11
36.6566
 21
15.0839122070313
 72
 1
 10
36.6566
 20
15.0839122070313
 11
41.0226
 21
15.0839122070313
 72
 1
 10
41.0226
 20
15.0839122070313
 11
41.0226
 21
35.8699122070312
 72
 1
 10
41.0226
 20
35.8699122070312
 11
37.0446
 21
35.8699122070312
 72
 1
 10
37.0446
 20
35.8699122070312
 11
37.1346
 21
27.3759122070312
 72
 1
 10
37.1346
 20
27.3759122070312
 11
37.150949609375
 21
26.7846290039063
 72
 1
 10
37.150949609375
 20
26.7846290039063
 11
37.177271875
 21
26.1048340820312
 72
 1
 10
37.177271875
 20
26.1048340820312
 11
37.212101953125
 21
25.3632344726562
 72
 1
 10
37.212101953125
 20
25.3632344726562
 11
37.253975
 21
24.5865372070313
 72
 1
 10
37.253975
 20
24.5865372070313
 11
37.301426171875
 21
23.8014493164063
 72
 1
 10
37.301426171875
 20
23.8014493164063
 11
37.352990625
 21
23.0346778320313
 72
 1
 10
37.352990625
 20
23.0346778320313
 11
37.407203515625
 21
22.3129297851563
 72
 1
 10
37.407203515625
 20
22.3129297851563
 11
37.4626
 21
21.6629122070312
 72
 1
 10
37.4626
 20
21.6629122070312
 11
37.2879046875
 21
22.2545489257813
 72
 1
 10
37.2879046875
 20
22.2545489257813
 11
37.078475
 21
22.9030684570312
 72
 1
 10
37.078475
 20
22.9030684570312
 11
36.8360453125
 21
23.6007598632813
 72
 1
 10
36.8360453125
 20
23.6007598632813
 11
36.56235
 21
24.3399122070311
 72
 1
 10
36.56235
 20
24.3399122070311
 11
36.2591234375
 21
25.1128145507812
 72
 1
 10
36.2591234375
 20
25.1128145507812
 11
35.9281
 21
25.9117559570312
 72
 1
 10
35.9281
 20
25.9117559570312
 11
35.5710140625
 21
26.7290254882812
 72
 1
 10
35.5710140625
 20
26.7290254882812
 11
35.1896
 21
27.5569122070312
 72
 1
 10
35.1896
 20
27.5569122070312
 11
31.2136
 21
35.8699122070312
 72
 1
 10
31.2136
 20
35.8699122070312
 11
26.5766
 21
35.8699122070312
 72
 1
 10
26.5766
 20
35.8699122070312
 11
26.5766
 21
15.0839122070313
 97
 1
 330
3D5
 75
 0
 76
 1
 98
 1
 10
 0.0
 20
 0.0
 0
HATCH
 5
3D6
100
AcDbEntity
 8
Layer22
100
AcDbHatch
 10
 0.0
 20
 0.0
 30
 0.0
 210
 0.0
 220
 0.0
 230
 1.0
 2
SOLID
 70
 1
 71
 1
 91
1              
 92
 0
 93
12             
 72
 1
 10
43.5307
 20
35.8703122070312
 11
43.5307
 21
15.0843122070312
 72
 1
 10
43.5307
 20
15.0843122070312
 11
55.6447
 21
15.0843122070312
 72
 1
 10
55.6447
 20
15.0843122070312
 11
55.6447
 21
18.6733122070312
 72
 1
 10
55.6447
 20
18.6733122070312
 11
47.7797
 21
18.6733122070312
 72
 1
 10
47.7797
 20
18.6733122070312
 11
47.7797
 21
24.2353122070313
 72
 1
 10
47.7797
 20
24.2353122070313
 11
53.6697
 21
24.2353122070313
 72
 1
 10
53.6697
 20
24.2353122070313
 11
53.6697
 21
27.6463122070312
 72
 1
 10
53.6697
 20
27.6463122070312
 11
47.7177
 21
27.6463122070312
 72
 1
 10
47.7177
 20
27.6463122070312
 11
47.7177
 21
32.4603122070313
 72
 1
 10
47.7177
 20
32.4603122070313
 11
54.8357
 21
32.4603122070313
 72
 1
 10
54.8357
 20
32.4603122070313
 11
55.3747
 21
35.8703122070312
 72
 1
 10
55.3747
 20
35.8703122070312
 11
43.5307
 21
35.8703122070312
 97
 1
 330
3D7
 75
 0
 76
 1
 98
 1
 10
 0.0
 20
 0.0
 0
HATCH
 5
3D8
100
AcDbEntity
 8
Layer22
100
AcDbHatch
 10
 0.0
 20
 0.0
 30
 0.0
 210
 0.0
 220
 0.0
 230
 1.0
 2
SOLID
 70
 1
 71
 1
 91
1              
 92
 0
 93
49             
 72
 1
 10
57.1982
 20
15.0839122070313
 11
61.4152
 21
15.0839122070313
 72
 1
 10
61.4152
 20
15.0839122070313
 11
62.1322
 21
25.9409122070313
 72
 1
 10
62.1322
 20
25.9409122070313
 11
62.164198046875
 21
26.4176055664062
 72
 1
 10
62.164198046875
 20
26.4176055664062
 11
62.193184375
 21
26.8853340820313
 72
 1
 10
62.193184375
 20
26.8853340820313
 11
62.218772265625
 21
27.3461954101563
 72
 1
 10
62.218772265625
 20
27.3461954101563
 11
62.240575
 21
27.8022872070312
 72
 1
 10
62.240575
 20
27.8022872070312
 11
62.258205859375
 21
28.2557071289061
 72
 1
 10
62.258205859375
 20
28.2557071289061
 11
62.271278125
 21
28.7085528320312
 72
 1
 10
62.271278125
 20
28.7085528320312
 11
62.279405078125
 21
29.1629219726561
 72
 1
 10
62.279405078125
 20
29.1629219726561
 11
62.2822
 21
29.6209122070312
 72
 1
 10
62.2822
 20
29.6209122070312
 11
66.0812
 21
15.0839122070313
 72
 1
 10
66.0812
 20
15.0839122070313
 11
69.7602
 21
15.0839122070313
 72
 1
 10
69.7602
 20
15.0839122070313
 11
71.014303515625
 21
19.4498829101562
 72
 1
 10
71.014303515625
 20
19.4498829101562
 11
71.959653125
 21
22.7454278320313
 72
 1
 10
71.959653125
 20
22.7454278320313
 11
72.643557421875
 21
25.1394961914061
 72
 1
 10
72.643557421875
 20
25.1394961914061
 11
73.113325
 21
26.8010372070312
 72
 1
 10
73.113325
 20
26.8010372070312
 11
73.416264453125
 21
27.8990000976562
 72
 1
 10
73.416264453125
 20
27.8990000976562
 11
73.599684375
 21
28.6023340820311
 72
 1
 10
73.599684375
 20
28.6023340820311
 11
73.710893359375
 21
29.0799883789063
 72
 1
 10
73.710893359375
 20
29.0799883789063
 11
73.7972
 21
29.5009122070312
 72
 1
 10
73.7972
 20
29.5009122070312
 11
73.83832109375
 21
28.5633145507812
 72
 1
 10
73.83832109375
 20
28.5633145507812
 11
73.94673125
 21
26.7808184570313
 72
 1
 10
73.94673125
 20
26.7808184570313
 11
74.10000078125
 21
24.4523692382812
 72
 1
 10
74.10000078125
 20
24.4523692382812
 11
74.2757
 21
21.8769122070313
 72
 1
 10
74.2757
 20
21.8769122070313
 11
74.45139921875
 21
19.3533926757813
 72
 1
 10
74.45139921875
 20
19.3533926757813
 11
74.60466875
 21
17.1807559570314
 72
 1
 10
74.60466875
 20
17.1807559570314
 11
74.71307890625
 21
15.6579473632812
 72
 1
 10
74.71307890625
 20
15.6579473632812
 11
74.7542
 21
15.0839122070313
 72
 1
 10
74.7542
 20
15.0839122070313
 11
78.8822
 21
15.0839122070313
 72
 1
 10
78.8822
 20
15.0839122070313
 11
77.0282
 21
35.8699122070312
 72
 1
 10
77.0282
 20
35.8699122070312
 11
71.5542
 21
35.8699122070312
 72
 1
 10
71.5542
 20
35.8699122070312
 11
70.448362109375
 21
31.7411700195313
 72
 1
 10
70.448362109375
 20
31.7411700195313
 11
69.614809375
 21
28.6253497070313
 72
 1
 10
69.614809375
 20
28.6253497070313
 11
69.011858203125
 21
26.3633106445313
 72
 1
 10
69.011858203125
 20
26.3633106445313
 11
68.597825
 21
24.7959122070313
 72
 1
 10
68.597825
 20
24.7959122070313
 11
68.331026171875
 21
23.7640137695313
 72
 1
 10
68.331026171875
 20
23.7640137695313
 11
68.169778125
 21
23.1084747070313
 72
 1
 10
68.169778125
 20
23.1084747070313
 11
68.072397265625
 21
22.6701543945312
 72
 1
 10
68.072397265625
 20
22.6701543945312
 11
67.9972
 21
22.2899122070312
 72
 1
 10
67.9972
 20
22.2899122070312
 11
67.797334765625
 21
23.1829317382812
 72
 1
 10
67.797334765625
 20
23.1829317382812
 11
67.383028125
 21
24.8665684570312
 72
 1
 10
67.383028125
 20
24.8665684570312
 11
66.828588671875
 21
27.0604395507813
 72
 1
 10
66.828588671875
 20
27.0604395507813
 11
66.208325
 21
29.4841622070312
 72
 1
 10
66.208325
 20
29.4841622070312
 11
65.596545703125
 21
31.8573536132812
 72
 1
 10
65.596545703125
 20
31.8573536132812
 11
65.067559375
 21
33.8996309570312
 72
 1
 10
65.067559375
 20
33.8996309570312
 11
64.695674609375
 21
35.3306114257812
 72
 1
 10
64.695674609375
 20
35.3306114257812
 11
64.5552
 21
35.8699122070312
 72
 1
 10
64.5552
 20
35.8699122070312
 11
59.1432
 21
35.8699122070312
 72
 1
 10
59.1432
 20
35.8699122070312
 11
57.1982
 21
15.0839122070313
 97
 1
 330
3D9
 75
 0
 76
 1
 98
 1
 10
 0.0
 20
 0.0
 0
HATCH
 5
3DA
100
AcDbEntity
 8
Layer22
100
AcDbHatch
 10
 0.0
 20
 0.0
 30
 0.0
 210
 0.0
 220
 0.0
 230
 1.0
 2
SOLID
 70
 1
 71
 1
 91
2              
 92
 0
 93
56             
 72
 1
 10
92.771
 20
30.2782122070313
 11
92.896572265625
 21
29.8232942382813
 72
 1
 10
92.896572265625
 20
29.8232942382813
 11
93.005515625
 21
29.3319309570313
 72
 1
 10
93.005515625
 20
29.3319309570313
 11
93.097794921875
 21
28.8013333007813
 72
 1
 10
93.097794921875
 20
28.8013333007813
 11
93.173375
 21
28.2287122070312
 72
 1
 10
93.173375
 20
28.2287122070312
 11
93.232220703125
 21
27.6112786132812
 72
 1
 10
93.232220703125
 20
27.6112786132812
 11
93.274296875
 21
26.9462434570313
 72
 1
 10
93.274296875
 20
26.9462434570313
 11
93.299568359375
 21
26.2308176757813
 72
 1
 10
93.299568359375
 20
26.2308176757813
 11
93.308
 21
25.4622122070313
 72
 1
 10
93.308
 20
25.4622122070313
 11
93.249697265625
 21
23.6203059570313
 72
 1
 10
93.249697265625
 20
23.6203059570313
 11
93.071265625
 21
22.0568372070312
 72
 1
 10
93.071265625
 20
22.0568372070312
 11
92.767419921875
 21
20.7616809570312
 72
 1
 10
92.767419921875
 20
20.7616809570312
 11
92.332875
 21
19.7247122070313
 72
 1
 10
92.332875
 20
19.7247122070313
 11
91.762345703125
 21
18.9358059570313
 72
 1
 10
91.762345703125
 20
18.9358059570313
 11
91.050546875
 21
18.3848372070312
 72
 1
 10
91.050546875
 20
18.3848372070312
 11
90.192193359375
 21
18.0616809570313
 72
 1
 10
90.192193359375
 20
18.0616809570313
 11
89.182
 21
17.9562122070313
 72
 1
 10
89.182
 20
17.9562122070313
 11
88.81863671875
 21
17.9673762695313
 72
 1
 10
88.81863671875
 20
17.9673762695313
 11
88.46978125
 21
18.0008997070313
 72
 1
 10
88.46978125
 20
18.0008997070313
 11
88.13578515625
 21
18.0568293945313
 72
 1
 10
88.13578515625
 20
18.0568293945313
 11
87.817
 21
18.1352122070313
 72
 1
 10
87.817
 20
18.1352122070313
 11
87.51377734375
 21
18.2360950195311
 72
 1
 10
87.51377734375
 20
18.2360950195311
 11
87.22646875
 21
18.3595247070313
 72
 1
 10
87.22646875
 20
18.3595247070313
 11
86.95542578125
 21
18.5055481445312
 72
 1
 10
86.95542578125
 20
18.5055481445312
 11
86.701
 21
18.6742122070312
 72
 1
 10
86.701
 20
18.6742122070312
 11
86.268349609375
 21
19.0816790039063
 72
 1
 10
86.268349609375
 20
19.0816790039063
 11
85.892359375
 21
19.6110090820312
 72
 1
 10
85.892359375
 20
19.6110090820312
 11
85.573345703125
 21
20.2632219726563
 72
 1
 10
85.573345703125
 20
20.2632219726563
 11
85.311625
 21
21.0393372070313
 72
 1
 10
85.311625
 20
21.0393372070313
 11
85.107513671875
 21
21.9403743164062
 72
 1
 10
85.107513671875
 20
21.9403743164062
 11
84.961328125
 21
22.9673528320312
 72
 1
 10
84.961328125
 20
22.9673528320312
 11
84.873384765625
 21
24.1212922851563
 72
 1
 10
84.873384765625
 20
24.1212922851563
 11
84.844
 21
25.4032122070313
 72
 1
 10
84.844
 20
25.4032122070313
 11
84.8595390625
 21
26.3133313476562
 72
 1
 10
84.8595390625
 20
26.3133313476562
 11
84.906625
 21
27.1613528320313
 72
 1
 10
84.906625
 20
27.1613528320313
 11
84.9859609375
 21
27.9497727539062
 72
 1
 10
84.9859609375
 20
27.9497727539062
 11
85.09825
 21
28.6810872070312
 72
 1
 10
85.09825
 20
28.6810872070312
 11
85.2441953125
 21
29.3577922851563
 72
 1
 10
85.2441953125
 20
29.3577922851563
 11
85.4245
 21
29.9823840820312
 72
 1
 10
85.4245
 20
29.9823840820312
 11
85.6398671875
 21
30.5573586914062
 72
 1
 10
85.6398671875
 20
30.5573586914062
 11
85.891
 21
31.0852122070312
 72
 1
 10
85.891
 20
31.0852122070312
 11
86.13552734375
 21
31.4811301757812
 72
 1
 10
86.13552734375
 20
31.4811301757812
 11
86.43815625
 21
31.8368059570312
 72
 1
 10
86.43815625
 20
31.8368059570312
 11
86.79258203125
 21
32.1483723632812
 72
 1
 10
86.79258203125
 20
32.1483723632812
 11
87.1925
 21
32.4119622070313
 72
 1
 10
87.1925
 20
32.4119622070313
 11
87.63160546875
 21
32.6237083007812
 72
 1
 10
87.63160546875
 20
32.6237083007812
 11
88.10359375
 21
32.7797434570313
 72
 1
 10
88.10359375
 20
32.7797434570313
 11
88.60216015625
 21
32.8762004882813
 72
 1
 10
88.60216015625
 20
32.8762004882813
 11
89.121
 21
32.9092122070313
 72
 1
 10
89.121
 20
32.9092122070313
 11
89.900330078125
 21
32.8391458007812
 72
 1
 10
89.900330078125
 20
32.8391458007812
 11
90.579640625
 21
32.6454934570312
 72
 1
 10
90.579640625
 20
32.6454934570312
 11
91.162787109375
 21
32.3530754882813
 72
 1
 10
91.162787109375
 20
32.3530754882813
 11
91.653625
 21
31.9867122070312
 72
 1
 10
91.653625
 20
31.9867122070312
 11
92.056009765625
 21
31.5712239257812
 72
 1
 10
92.056009765625
 20
31.5712239257812
 11
92.373796875
 21
31.1314309570313
 72
 1
 10
92.373796875
 20
31.1314309570313
 11
92.610841796875
 21
30.6921536132812
 72
 1
 10
92.610841796875
 20
30.6921536132812
 11
92.771
 21
30.2782122070313
 97
 1
 330
3DB
 92
 0
 93
56             
 72
 1
 10
84.875
 20
35.1232122070313
 11
83.822470703125
 21
34.4178313476563
 72
 1
 10
83.822470703125
 20
34.4178313476563
 11
82.891078125
 21
33.5421653320312
 72
 1
 10
82.891078125
 20
33.5421653320312
 11
82.086740234375
 21
32.5085540039063
 72
 1
 10
82.086740234375
 20
32.5085540039063
 11
81.415375
 21
31.3293372070312
 72
 1
 10
81.415375
 20
31.3293372070312
 11
80.882900390625
 21
30.0168547851563
 72
 1
 10
80.882900390625
 20
30.0168547851563
 11
80.495234375
 21
28.5834465820312
 72
 1
 10
80.495234375
 20
28.5834465820312
 11
80.258294921875
 21
27.0414524414063
 72
 1
 10
80.258294921875
 20
27.0414524414063
 11
80.178
 21
25.4032122070313
 72
 1
 10
80.178
 20
25.4032122070313
 11
80.215814453125
 21
24.2788704101563
 72
 1
 10
80.215814453125
 20
24.2788704101563
 11
80.329015625
 21
23.1961653320313
 72
 1
 10
80.329015625
 20
23.1961653320313
 11
80.517240234375
 21
22.1570774414063
 72
 1
 10
80.517240234375
 20
22.1570774414063
 11
80.780125
 21
21.1635872070312
 72
 1
 10
80.780125
 20
21.1635872070312
 11
81.117306640625
 21
20.2176750976562
 72
 1
 10
81.117306640625
 20
20.2176750976562
 11
81.528421875
 21
19.3213215820314
 72
 1
 10
81.528421875
 20
19.3213215820314
 11
82.013107421875
 21
18.4765071289062
 72
 1
 10
82.013107421875
 20
18.4765071289062
 11
82.571
 21
17.6852122070312
 72
 1
 10
82.571
 20
17.6852122070312
 11
83.187748046875
 21
16.9672512695312
 72
 1
 10
83.187748046875
 20
16.9672512695312
 11
83.854359375
 21
16.3573372070312
 72
 1
 10
83.854359375
 20
16.3573372070312
 11
84.578509765625
 21
15.8516731445313
 72
 1
 10
84.578509765625
 20
15.8516731445313
 11
85.367875
 21
15.4464622070312
 72
 1
 10
85.367875
 20
15.4464622070312
 11
86.230130859375
 21
15.1379075195313
 72
 1
 10
86.230130859375
 20
15.1379075195313
 11
87.172953125
 21
14.9222122070313
 72
 1
 10
87.172953125
 20
14.9222122070313
 11
88.204017578125
 21
14.7955793945313
 72
 1
 10
88.204017578125
 20
14.7955793945313
 11
89.331
 21
14.7542122070313
 72
 1
 10
89.331
 20
14.7542122070313
 11
89.956236328125
 21
14.7672024414063
 72
 1
 10
89.956236328125
 20
14.7672024414063
 11
90.535828125
 21
14.8073215820313
 72
 1
 10
90.535828125
 20
14.8073215820313
 11
91.077474609375
 21
14.8762922851563
 72
 1
 10
91.077474609375
 20
14.8762922851563
 11
91.588875
 21
14.9758372070312
 72
 1
 10
91.588875
 20
14.9758372070312
 11
92.077728515625
 21
15.1076790039062
 72
 1
 10
92.077728515625
 20
15.1076790039062
 11
92.551734375
 21
15.2735403320312
 72
 1
 10
92.551734375
 20
15.2735403320312
 11
93.018591796875
 21
15.4751438476562
 72
 1
 10
93.018591796875
 20
15.4751438476562
 11
93.486
 21
15.7142122070312
 72
 1
 10
93.486
 20
15.7142122070312
 11
94.54498046875
 21
16.4256633789062
 72
 1
 10
94.54498046875
 20
16.4256633789062
 11
95.47409375
 21
17.3010715820312
 72
 1
 10
95.47409375
 20
17.3010715820312
 11
96.26984765625
 21
18.3330188476561
 72
 1
 10
96.26984765625
 20
18.3330188476561
 11
96.92875
 21
19.5140872070313
 72
 1
 10
96.92875
 20
19.5140872070313
 11
97.44730859375
 21
20.8368586914062
 72
 1
 10
97.44730859375
 20
20.8368586914062
 11
97.82203125
 21
22.2939153320311
 72
 1
 10
97.82203125
 20
22.2939153320311
 11
98.04942578125
 21
23.8778391601562
 72
 1
 10
98.04942578125
 20
23.8778391601562
 11
98.126
 21
25.5812122070313
 72
 1
 10
98.126
 20
25.5812122070313
 11
97.9685859375
 21
27.9071594726563
 72
 1
 10
97.9685859375
 20
27.9071594726563
 11
97.5064375
 21
29.9821028320313
 72
 1
 10
97.5064375
 20
29.9821028320313
 11
96.7546953125
 21
31.7878196289063
 72
 1
 10
96.7546953125
 20
31.7878196289063
 11
95.7285
 21
33.3060872070313
 72
 1
 10
95.7285
 20
33.3060872070313
 11
94.4429921875
 21
34.5186829101563
 72
 1
 10
94.4429921875
 20
34.5186829101563
 11
92.9133125
 21
35.4073840820312
 72
 1
 10
92.9133125
 20
35.4073840820312
 11
91.1546015625
 21
35.9539680664063
 72
 1
 10
91.1546015625
 20
35.9539680664063
 11
89.182
 21
36.1402122070313
 72
 1
 10
89.182
 20
36.1402122070313
 11
88.600435546875
 21
36.1235012695313
 72
 1
 10
88.600435546875
 20
36.1235012695313
 11
88.024859375
 21
36.0738372070312
 72
 1
 10
88.024859375
 20
36.0738372070312
 11
87.458447265625
 21
35.9919231445312
 72
 1
 10
87.458447265625
 20
35.9919231445312
 11
86.904375
 21
35.8784622070312
 72
 1
 10
86.904375
 20
35.8784622070312
 11
86.365818359375
 21
35.7341575195312
 72
 1
 10
86.365818359375
 20
35.7341575195312
 11
85.845953125
 21
35.5597122070312
 72
 1
 10
85.845953125
 20
35.5597122070312
 11
85.347955078125
 21
35.3558293945313
 72
 1
 10
85.347955078125
 20
35.3558293945313
 11
84.875
 21
35.1232122070313
 97
 1
 330
3DC
 75
 0
 76
 1
 98
 1
 10
 0.0
 20
 0.0
 0
LINE
 5
3DD
100
AcDbEntity
 8
Layer8
100
AcDbLine
 39
0.25
 370
106
 10
68.867
 20
201.289212207031
 30
0.0
 11
75.161
 21
204.988212207031
 31
0.0
 0
LINE
 5
3DE
100
AcDbEntity
 8
Layer8
100
AcDbLine
 39
0.25
 370
106
 10
75.161
 20
204.988212207031
 30
0.0
 11
74.453625
 21
206.000212207031
 31
0.0
 0
LINE
 5
3DF
100
AcDbEntity
 8
Layer8
100
AcDbLine
 39
0.25
 370
106
 10
74.453625
 20
206.000212207031
 30
0.0
 11
73.915
 21
207.123212207031
 31
0.0
 0
LINE
 5
3E0
100
AcDbEntity
 8
Layer8
100
AcDbLine
 39
0.25
 370
106
 10
73.915
 20
207.123212207031
 30
0.0
 11
67.636
 21
203.418212207031
 31
0.0
 0
LINE
 5
3E1
100
AcDbEntity
 8
Layer8
100
AcDbLine
 39
0.25
 370
106
 10
67.636
 20
203.418212207031
 30
0.0
 11
68.867
 21
201.289212207031
 31
0.0
 0
TEXT
 5
3E2
100
AcDbEntity
 8
Layer8
100
AcDbText
 40
8.8
 41
0.61000
 72
0
 50
0
  1
Ø11
  7
STANDARD
 10
73.7773
 20
505.369912207031
 30
0.0
 11
73.7773
 21
505.369912207031
 31
0.0
100
AcDbText
 73
  1
 0
TEXT
 5
3E3
100
AcDbEntity
 8
Layer8
100
AcDbText
 40
8.8
 41
0.61000
 72
0
 50
-270
  1
3
  7
STANDARD
 10
59.6934
 20
484.377712207031
 30
0.0
 11
59.6934
 21
484.377712207031
 31
0.0
100
AcDbText
 73
  1
 0
TEXT
 5
3E4
100
AcDbEntity
 8
Layer8
100
AcDbText
 40
8.8
 41
0.61000
 72
0
 50
-270
  1
82
  7
STANDARD
 10
38.6334
 20
361.305712207031
 30
0.0
 11
38.6334
 21
361.305712207031
 31
0.0
100
AcDbText
 73
  1
 0
TEXT
 5
3E5
100
AcDbEntity
 8
Layer8
100
AcDbText
 40
8.8
 41
0.61000
 72
0
 50
0
  1
Ø46
  7
STANDARD
 10
72.2734
 20
148.806012207031
 30
0.0
 11
72.2734
 21
148.806012207031
 31
0.0
100
AcDbText
 73
  1
 0
TEXT
 5
3E6
100
AcDbEntity
 8
Layer8
100
AcDbText
 40
9.6
 41
0.61000
 72
0
 50
0
  1
cable lenght 2,5m
  7
STANDARD
 10
44.8828
 20
75.0535122070312
 30
0.0
 11
44.8828
 21
75.0535122070312
 31
0.0
100
AcDbText
 73
  1
  0
ENDSEC
  0
SECTION
  2
OBJECTS
  0
DICTIONARY
  5
19
100
AcDbDictionary
  3
ACAD_GROUP
350
1A
  3
ACAD_MLINESTYLE
350
1B
  0
DICTIONARY
  5
1A
102
{ACAD_REACTORS
330
19
102
}
100
AcDbDictionary
  0
DICTIONARY
  5
1B
102
{ACAD_REACTORS
330
19
102
}
100
AcDbDictionary
  3
STANDARD
350
1C
  0
MLINESTYLE
  5
1C
102
{ACAD_REACTORS
330
1B
102
}
100
AcDbMlineStyle
  2
STANDARD
 70
     0
  3

 62
     0
 51
90.0
 52
90.0
 71
     2
 49
0.5
 62
   256
  6
BYLAYER
 49
-0.5
 62
   256
  6
BYLAYER
  0
ENDSEC
  0
EOF
