 999
SCAN2CAD Date : 01/26/16
 999
SCAN2CAD ScalePixelX : 1
 999
SCAN2CAD ScalePixelY : 1
 999
SCAN2CAD TileXOffset : 0
 999
SCAN2CAD TileYOffset : 0
 999
SCAN2CAD MeasureType : 1
 999
SCAN2CAD DotsPerInch : 0
 999
SCAN2CAD GeScalePixX : 1
 999
SCAN2CAD GeScalePixY : 1
 999
SCAN2CAD GeRasTiePtX : 0
 999
SCAN2CAD GeRasTiePtY : 0
 999
SCAN2CAD ScalRasDist : 1
 999
SCAN2CAD ScalVecDist : 1
 999
SCAN2CAD ScalUnitTyp : 0
 999
SCAN2CAD ScalDistFac : 1
 999
SCAN2CAD ScalAdjustX : 1
 999
SCAN2CAD ScalAdjustY : 1
 999
SCAN2CAD MeasureMeth : 1
 999
SCAN2CAD OgDrawScale : 1
 999
SCAN2CAD OgDrawUType : 0
 999
SCAN2CAD ToDrawScale : 1
 999
SCAN2CAD ToDrawUType : 0
  0
SECTION
  2
HEADER
  9
$ACADVER
  1
AC1014
  9
$ACADMAINTVER
 70
     0
  9
$DWGCODEPAGE
  3
ANSI_1252
  9
$INSBASE
 10
0.0
 20
0.0
 30
0.0
 9
$EXTMIN
 10
25.6308999999983
 20
14.7001278320313
 30
0.0
 9
$EXTMAX
 10
214.932502524329
 20
563.368927832031
 30
0.0
 9
$LIMMIN
 10
0
 20
0
 9
$LIMMAX
 10
244
 20
590
  9
$ORTHOMODE
 70
     0
  9
$REGENMODE
 70
     1
  9
$FILLMODE
 70
     1
  9
$QTEXTMODE
 70
     0
  9
$MIRRTEXT
 70
     1
  9
$DRAGMODE
 70
     2
  9
$LTSCALE
 40
1.0
  9
$OSMODE
 70
     0
  9
$ATTMODE
 70
     1
  9
$TEXTSIZE
 40
0.2
  9
$TRACEWID
 40
0.05
  9
$TEXTSTYLE
  7
STANDARD
  9
$CLAYER
  8
0
  9
$CELTYPE
  6
CONTINUOUS
  9
$CECOLOR
 62
   256
  9
$CELTSCALE
 40
1.0
  9
$DELOBJ
 70
     1
  9
$DISPSILH
 70
     0
  9
$DIMSCALE
 40
1.0
  9
$DIMASZ
 40
0.18
  9
$DIMEXO
 40
0.0625
  9
$DIMDLI
 40
0.38
  9
$DIMRND
 40
0.0
  9
$DIMDLE
 40
0.0
  9
$DIMEXE
 40
0.18
  9
$DIMTP
 40
0.0
  9
$DIMTM
 40
0.0
  9
$DIMTXT
 40
0.18
  9
$DIMCEN
 40
0.09
  9
$DIMTSZ
 40
0.0
  9
$DIMTOL
 70
     0
  9
$DIMLIM
 70
     0
  9
$DIMTIH
 70
     1
  9
$DIMTOH
 70
     1
  9
$DIMSE1
 70
     0
  9
$DIMSE2
 70
     0
  9
$DIMTAD
 70
     0
  9
$DIMZIN
 70
     0
  9
$DIMBLK
  1

  9
$DIMASO
 70
     1
  9
$DIMSHO
 70
     1
  9
$DIMPOST
  1

  9
$DIMAPOST
  1

  9
$DIMALT
 70
     0
  9
$DIMALTD
 70
     2
  9
$DIMALTF
 40
25.4
  9
$DIMLFAC
 40
1.0
  9
$DIMTOFL
 70
     0
  9
$DIMTVP
 40
0.0
  9
$DIMTIX
 70
     0
  9
$DIMSOXD
 70
     0
  9
$DIMSAH
 70
     0
  9
$DIMBLK1
  1

  9
$DIMBLK2
  1

  9
$DIMSTYLE
  2
STANDARD
  9
$DIMCLRD
 70
     0
  9
$DIMCLRE
 70
     0
  9
$DIMCLRT
 70
     0
  9
$DIMTFAC
 40
1.0
  9
$DIMGAP
 40
0.09
  9
$DIMJUST
 70
     0
  9
$DIMSD1
 70
     0
  9
$DIMSD2
 70
     0
  9
$DIMTOLJ
 70
     1
  9
$DIMTZIN
 70
     0
  9
$DIMALTZ
 70
     0
  9
$DIMALTTZ
 70
     0
  9
$DIMFIT
 70
     3
  9
$DIMUPT
 70
     0
  9
$DIMUNIT
 70
     2
  9
$DIMDEC
 70
     4
  9
$DIMTDEC
 70
     4
  9
$DIMALTU
 70
     2
  9
$DIMALTTD
 70
     2
  9
$DIMTXSTY
  7
STANDARD
  9
$DIMAUNIT
 70
     0
  9
$LUNITS
 70
     2
  9
$LUPREC
 70
     4
  9
$SKETCHINC
 40
0.1
  9
$FILLETRAD
 40
0.0
  9
$AUNITS
 70
     0
  9
$AUPREC
 70
     0
  9
$MENU
  1
acad
  9
$ELEVATION
 40
0.0
  9
$PELEVATION
 40
0.0
  9
$THICKNESS
 40
0.0
  9
$LIMCHECK
 70
     0
  9
$BLIPMODE
 70
     1
  9
$CHAMFERA
 40
0.0
  9
$CHAMFERB
 40
0.0
  9
$CHAMFERC
 40
0.0
  9
$CHAMFERD
 40
0.0
  9
$SKPOLY
 70
     0
  9
$TDCREATE
 40
0.000000000
  9
$TDUPDATE
 40
0.000000000
  9
$TDINDWG
 40
0.0000000000
  9
$TDUSRTIMER
 40
0.0000000000
  9
$USRTIMER
 70
     1
  9
$ANGBASE
 50
0.0
  9
$ANGDIR
 70
     0
  9
$PDMODE
 70
     0
  9
$PDSIZE
 40
0.0
  9
$PLINEWID
 40
0.0
  9
$COORDS
 70
     0
  9
$SPLFRAME
 70
     0
  9
$SPLINETYPE
 70
     6
  9
$SPLINESEGS
 70
     8
  9
$ATTDIA
 70
     0
  9
$ATTREQ
 70
     1
  9
$HANDLING
 70
     1
  9
$HANDSEED
  5
     6C4
  9
$SURFTAB1
 70
     6
  9
$SURFTAB2
 70
     6
  9
$SURFTYPE
 70
     6
  9
$SURFU
 70
     6
  9
$SURFV
 70
     6
  9
$UCSNAME
  2

  9
$UCSORG
 10
0.0
 20
0.0
 30
0.0
  9
$UCSXDIR
 10
1.0
 20
0.0
 30
0.0
  9
$UCSYDIR
 10
0.0
 20
1.0
 30
0.0
  9
$PUCSNAME
  2

  9
$PUCSORG
 10
0.0
 20
0.0
 30
0.0
  9
$PUCSXDIR
 10
1.0
 20
0.0
 30
0.0
  9
$PUCSYDIR
 10
0.0
 20
1.0
 30
0.0
  9
$USERI1
 70
     0
  9
$USERI2
 70
     0
  9
$USERI3
 70
     0
  9
$USERI4
 70
     0
  9
$USERI5
 70
     0
  9
$USERR1
 40
0.0
  9
$USERR2
 40
0.0
  9
$USERR3
 40
0.0
  9
$USERR4
 40
0.0
  9
$USERR5
 40
0.0
  9
$WORLDVIEW
 70
     1
  9
$SHADEDGE
 70
     3
  9
$SHADEDIF
 70
    70
  9
$TILEMODE
 70
     1
  9
$MAXACTVP
 70
    16
  9
$PINSBASE
 10
0.0
 20
0.0
 30
0.0
  9
$PLIMCHECK
 70
     0
 9
$PEXTMIN
 10
25.6308999999983
 20
14.7001278320313
 30
0.0
 9
$PEXTMAX
 10
214.932502524329
 20
563.368927832031
 30
0.0
 9
$PLIMMIN
 10
0
 20
0
 9
$PLIMMAX
 10
244
 20
590
  9
$UNITMODE
 70
     0
  9
$VISRETAIN
 70
     0
  9
$PLINEGEN
 70
     1
  9
$PSLTSCALE
 70
     0
  9
$TREEDEPTH
 70
  3020
  9
$PICKSTYLE
 70
     1
  9
$CMLSTYLE
  2
STANDARD
  9
$CMLJUST
 70
     0
  9
$CMLSCALE
 40
1.0
  9
$PROXYGRAPHICS
 70
     0
  9
$MEASUREMENT
 70
     0
  0
ENDSEC
  0
SECTION
  2
CLASSES
  0
CLASS
  1
LWPOLYLINE
  2
AcDbPolyline
  3
"AutoCAD"
 90
        0
280
     0
281
     1
  0
CLASS
  1
IMAGE
  2
AcDbRasterImage
  3
ISM
 90
      127
280
     0
281
     1
  0
CLASS
  1
OLE2FRAME
  2
AcDbOle2Frame
  3
""
 90
        0
280
     0
281
     1
  0
CLASS
  1
HATCH
  2
AcDbHatch
  3
"ACAD_SEDONA"
 90
        0
280
     0
281
     1
  0
CLASS
  1
DICTIONARYVAR
  2
AcDbDictionaryVar
  3
"AutoCAD"
 90
        0
280
     0
281
     0
  0
CLASS
  1
RASTERVARIABLES
  2
AcDbRasterVariables
  3
ISM
 90
        0
280
     0
281
     0
  0
CLASS
  1
IMAGEDEF
  2
AcDbRasterImageDef
  3
ISM
 90
        0
280
     0
281
     0
  0
CLASS
  1
IMAGEDEF_REACTOR
  2
AcDbRasterImageDefReactor
  3
ISM
 90
        1
280
     0
281
     0
  0
CLASS
  1
IDBUFFER
  2
AcDbIdBuffer
  3
"Acad"
 90
        0
280
     0
281
     0
  0
CLASS
  1
SPATIAL_FILTER
  2
AcDbSpatialFilter
  3
"Acad"
 90
        0
280
     0
281
     0
  0
CLASS
  1
XRECORD
  2
AcDbXrecord
  3
"<Built In>"
 90
        0
280
     0
281
     0
  0
CLASS
  1
SORTENTSTABLE
  2
AcDbSortentsTable
  3
"AutoCAD"
 90
        0
280
     0
281
     0
  0
CLASS
  1
LAYER_INDEX
  2
AcDbLayerIndex
  3
"Acad"
 90
        0
280
     0
281
     0
  0
CLASS
  1
SPATIAL_INDEX
  2
AcDbSpatialIndex
  3
"Acad"
 90
        0
280
     0
281
     0
  0
CLASS
  1
OBJECT_PTR
  2
CAseDLPNTableRecord
  3
"ASE-LPNTableRecord"
 90
        1
280
     0
281
     0
  0
ENDSEC
  0
SECTION
  2
TABLES
  0
TABLE
  2
VPORT
  5
7
100
AcDbSymbolTable
 70
     1
  0
VPORT
  5
15
100
AcDbSymbolTableRecord
100
AcDbViewportTableRecord
 2
*ACTIVE
 70
     0
 10
0
 20
0
 11
1.0
 21
1.0
 12
0.0
 22
0.0
 13
0.0
 23
0.0
 14
1.0
 24
1.0
 15
0.0
 25
0.0
 16
0.0
 26
0.0
 36
1.0
 17
120.281701262164
 27
289.034527832031
 37
0.0
 40
552.6688
 41
0.349760294998254
 42
50.0
 43
0.0
 44
0.0
 50
0.0
 51
0.0
 71
     0
 72
   100
 73
     1
 74
     1
 75
     0
 76
     0
 77
     0
 78
     0
   0
ENDTAB
  0
TABLE
  2
LTYPE
  5
4
100
AcDbSymbolTable
 70
3
  0
LTYPE
  5
11
100
AcDbSymbolTableRecord
100
AcDbLinetypeTableRecord
  2
BYBLOCK
 70
     0
  3

 72
    65
 73
     0
 40
0.0
  0
LTYPE
  5
12
100
AcDbSymbolTableRecord
100
AcDbLinetypeTableRecord
  2
BYLAYER
 70
     0
  3

 72
    65
 73
     0
 40
0.0
  0
LTYPE
  5
80
330
5
100
AcDbSymbolTableRecord
100
AcDbLinetypeTableRecord
  2
CONTINUOUS
 70
     0
  3
Continuous
 72
    65
 73
     0
 40
0.0
  0
LTYPE
  5
81
330
5
100
AcDbSymbolTableRecord
100
AcDbLinetypeTableRecord
  2
DASH
 70
     0
  3
Dash
 72
    65
 73
     2
 40
48.0
 49
24.0
 74
     0
 49
-24.0
 74
     0
  0
LTYPE
  5
82
330
5
100
AcDbSymbolTableRecord
100
AcDbLinetypeTableRecord
  2
DASHDOT
 70
     0
  3
DashDot
 72
    65
 73
     4
 40
48.0
 49
24.0
 74
     0
 49
 -12.0
 74
     0
 49
0.0
 74
     0
 49
 -12.0
 74
     0	
  0
ENDTAB
  0
TABLE
  2
LAYER
  5
2
100
AcDbSymbolTable
 70
4              
  0
LAYER
  5
83
100
AcDbSymbolTableRecord
100
AcDbLayerTableRecord
  2
0
 70
     0
 62
     7
  6
CONTINUOUS
 0
LAYER
  5
84
100
AcDbSymbolTableRecord
100
AcDbLayerTableRecord
 2
Layer0
 70
 64
 62
 7
 6
CONTINUOUS
 0
LAYER
  5
85
100
AcDbSymbolTableRecord
100
AcDbLayerTableRecord
 2
Layer8
 70
 64
 62
 8
 6
CONTINUOUS
 0
LAYER
  5
86
100
AcDbSymbolTableRecord
100
AcDbLayerTableRecord
 2
Layer22
 70
 64
 62
 22
 6
CONTINUOUS
  0
ENDTAB
  0
TABLE
  2
STYLE
  5
3
100
AcDbSymbolTable
 70
1              
 0
STYLE
 5
17
100
AcDbSymbolTableRecord
100
AcDbTextStyleTableRecord
 2
STANDARD
 70
 0
 40
 0.0
 41
 1.0
 50
 0.0
 71
  0
 42
 8.0
 3
 txt
 4

  0
ENDTAB
  0
TABLE
  2
VIEW
  5
5
100
AcDbSymbolTable
 70
     0
  0
ENDTAB
  0
TABLE
  2
UCS
  5
6
100
AcDbSymbolTable
 70
     0
  0
ENDTAB
  0
TABLE
  2
APPID
  5
8
100
AcDbSymbolTable
 70
     1
  0
APPID
  5
16
100
AcDbSymbolTableRecord
100
AcDbRegAppTableRecord
  2
ACAD
 70
     0
  0
ENDTAB
  0
TABLE
  2
DIMSTYLE
  5
9
100
AcDbSymbolTable
 70
     1
  0
DIMSTYLE
105
18
100
AcDbSymbolTableRecord
100
AcDbDimStyleTableRecord
  2
STANDARD
 70
     0
  3

  4

  5

  6

  7

 40
1.0
 41
0.18
 42
0.0625
 43
0.38
 44
0.18
 45
0.0
 46
0.0
 47
0.0
 48
0.0
140
0.18
141
0.09
142
0.0
143
25.4
144
1.0
145
0.0
146
1.0
147
0.09
 71
     0
 72
     0
 73
     1
 74
     1
 75
     0
 76
     0
 77
     0
 78
     0
170
     0
171
     2
172
     0
173
     0
174
     0
175
     0
176
     0
177
     0
178
     0
270
     2
271
     4
272
     4
273
     2
274
     2
340
17
275
     0
280
     0
281
     0
282
     0
283
     1
284
     0
285
     0
286
     0
287
     0
288
     0
  0
ENDTAB
  0
TABLE
  2
BLOCK_RECORD
  5
1
100
AcDbSymbolTable
 70
     0
  0
BLOCK_RECORD
  5
A
100
AcDbSymbolTableRecord
100
AcDbBlockTableRecord
  2
*MODEL_SPACE
  0
BLOCK_RECORD
  5
B
100
AcDbSymbolTableRecord
100
AcDbBlockTableRecord
  2
*PAPER_SPACE
  0
ENDTAB
  0
ENDSEC
  0
SECTION
  2
BLOCKS
  0
BLOCK
  5
D
100
AcDbEntity
  8
0
100
AcDbBlockBegin
  2
*MODEL_SPACE
 70
     0
 10
0.0
 20
0.0
 30
0.0
  3
*MODEL_SPACE
  1

  0
ENDBLK
  5
E
100
AcDbEntity
  8
0
100
AcDbBlockEnd
  0
BLOCK
  5
F
100
AcDbEntity
 67
     1
  8
0
100
AcDbBlockBegin
  2
*PAPER_SPACE
 70
     0
 10
0.0
 20
0.0
 30
0.0
  3
*PAPER_SPACE
  1

  0
ENDBLK
  5
10
100
AcDbEntity
 67
     1
  8
0
100
AcDbBlockEnd
 0
ENDSEC
 0
SECTION
 2
ENTITIES
 0
LINE
 5
87
100
AcDbEntity
 8
Layer8
100
AcDbLine
 39
0.25
 370
106
 10
37.6577
 20
472.376327832031
 30
0.0
 11
31.7427
 21
472.376327832031
 31
0.0
 0
LINE
 5
88
100
AcDbEntity
 8
Layer8
100
AcDbLine
 39
0.25
 370
106
 10
37.6438
 20
348.361927832031
 30
0.0
 11
31.7288
 21
348.361927832031
 31
0.0
 0
LINE
 5
89
100
AcDbEntity
 8
Layer8
100
AcDbLine
 39
0.25
 370
106
 10
125.5988
 20
545.266827832031
 30
0.0
 11
125.5988
 21
539.338827832031
 31
0.0
 0
LINE
 5
8A
100
AcDbEntity
 8
Layer8
100
AcDbLine
 39
0.25
 370
106
 10
140.2363
 20
545.266827832031
 30
0.0
 11
140.2363
 21
539.338827832031
 31
0.0
 0
LINE
 5
8B
100
AcDbEntity
 8
Layer8
100
AcDbLine
 39
0.25
 370
106
 10
120.1138
 20
532.924927832031
 30
0.0
 11
114.1858
 21
532.924927832031
 31
0.0
 0
LINE
 5
8C
100
AcDbEntity
 8
Layer8
100
AcDbLine
 39
0.25
 370
106
 10
120.1138
 20
529.740827832031
 30
0.0
 11
114.1858
 21
529.740827832031
 31
0.0
 0
LINE
 5
8D
100
AcDbEntity
 8
Layer8
100
AcDbLine
 39
0.25
 370
106
 10
103.5159
 20
434.605727832031
 30
0.0
 11
83.8149
 21
434.605727832031
 31
0.0
 0
LINE
 5
8E
100
AcDbEntity
 8
Layer8
100
AcDbLine
 39
0.25
 370
106
 10
83.8149
 20
434.605727832031
 30
0.0
 11
83.9749
 21
435.934727832031
 31
0.0
 0
LINE
 5
8F
100
AcDbEntity
 8
Layer8
100
AcDbLine
 39
0.25
 370
106
 10
83.9749
 20
435.934727832031
 30
0.0
 11
83.8149
 21
437.266727832031
 31
0.0
 0
LINE
 5
90
100
AcDbEntity
 8
Layer8
100
AcDbLine
 39
0.25
 370
106
 10
83.8149
 20
437.266727832031
 30
0.0
 11
103.5159
 21
437.266727832031
 31
0.0
 0
LINE
 5
91
100
AcDbEntity
 8
Layer8
100
AcDbLine
 39
0.25
 370
106
 10
103.5159
 20
437.266727832031
 30
0.0
 11
103.3419
 21
435.934727832031
 31
0.0
 0
LINE
 5
92
100
AcDbEntity
 8
Layer8
100
AcDbLine
 39
0.25
 370
106
 10
103.3419
 20
435.934727832031
 30
0.0
 11
103.5159
 21
434.605727832031
 31
0.0
 0
LINE
 5
93
100
AcDbEntity
 8
Layer8
100
AcDbLine
 39
0.25
 370
106
 10
156.1759
 20
434.605727832031
 30
0.0
 11
109.4109
 21
434.605727832031
 31
0.0
 0
LINE
 5
94
100
AcDbEntity
 8
Layer8
100
AcDbLine
 39
0.25
 370
106
 10
109.4109
 20
434.605727832031
 30
0.0
 11
109.5739
 21
435.934727832031
 31
0.0
 0
LINE
 5
95
100
AcDbEntity
 8
Layer8
100
AcDbLine
 39
0.25
 370
106
 10
109.5739
 20
435.934727832031
 30
0.0
 11
109.4109
 21
437.266727832031
 31
0.0
 0
LINE
 5
96
100
AcDbEntity
 8
Layer8
100
AcDbLine
 39
0.25
 370
106
 10
109.4109
 20
437.266727832031
 30
0.0
 11
156.1759
 21
437.266727832031
 31
0.0
 0
LINE
 5
97
100
AcDbEntity
 8
Layer8
100
AcDbLine
 39
0.25
 370
106
 10
156.1759
 20
437.266727832031
 30
0.0
 11
156.0039
 21
435.934727832031
 31
0.0
 0
LINE
 5
98
100
AcDbEntity
 8
Layer8
100
AcDbLine
 39
0.25
 370
106
 10
156.0039
 20
435.934727832031
 30
0.0
 11
156.1759
 21
434.605727832031
 31
0.0
 0
LINE
 5
99
100
AcDbEntity
 8
Layer8
100
AcDbLine
 39
0.25
 370
106
 10
181.7739
 20
434.605727832031
 30
0.0
 11
162.0729
 21
434.605727832031
 31
0.0
 0
LINE
 5
9A
100
AcDbEntity
 8
Layer8
100
AcDbLine
 39
0.25
 370
106
 10
162.0729
 20
434.605727832031
 30
0.0
 11
162.2349
 21
435.934727832031
 31
0.0
 0
LINE
 5
9B
100
AcDbEntity
 8
Layer8
100
AcDbLine
 39
0.25
 370
106
 10
162.2349
 20
435.934727832031
 30
0.0
 11
162.0729
 21
437.266727832031
 31
0.0
 0
LINE
 5
9C
100
AcDbEntity
 8
Layer8
100
AcDbLine
 39
0.25
 370
106
 10
162.0729
 20
437.266727832031
 30
0.0
 11
181.7739
 21
437.266727832031
 31
0.0
 0
LINE
 5
9D
100
AcDbEntity
 8
Layer8
100
AcDbLine
 39
0.25
 370
106
 10
181.7739
 20
437.266727832031
 30
0.0
 11
181.5999
 21
435.934727832031
 31
0.0
 0
LINE
 5
9E
100
AcDbEntity
 8
Layer8
100
AcDbLine
 39
0.25
 370
106
 10
181.5999
 20
435.934727832031
 30
0.0
 11
181.7739
 21
434.605727832031
 31
0.0
 0
LINE
 5
9F
100
AcDbEntity
 8
Layer8
100
AcDbLine
 39
0.25
 370
106
 10
103.3419
 20
384.441727832031
 30
0.0
 11
103.5159
 21
383.124727832031
 31
0.0
 0
LINE
 5
A0
100
AcDbEntity
 8
Layer8
100
AcDbLine
 39
0.25
 370
106
 10
103.5159
 20
383.124727832031
 30
0.0
 11
83.8149
 21
383.124727832031
 31
0.0
 0
LINE
 5
A1
100
AcDbEntity
 8
Layer8
100
AcDbLine
 39
0.25
 370
106
 10
83.8149
 20
383.124727832031
 30
0.0
 11
83.9749
 21
384.441727832031
 31
0.0
 0
LINE
 5
A2
100
AcDbEntity
 8
Layer8
100
AcDbLine
 39
0.25
 370
106
 10
83.9749
 20
384.441727832031
 30
0.0
 11
83.8149
 21
385.773727832031
 31
0.0
 0
LINE
 5
A3
100
AcDbEntity
 8
Layer8
100
AcDbLine
 39
0.25
 370
106
 10
83.8149
 20
385.773727832031
 30
0.0
 11
103.5159
 21
385.773727832031
 31
0.0
 0
LINE
 5
A4
100
AcDbEntity
 8
Layer8
100
AcDbLine
 39
0.25
 370
106
 10
103.5159
 20
385.773727832031
 30
0.0
 11
103.3419
 21
384.441727832031
 31
0.0
 0
LINE
 5
A5
100
AcDbEntity
 8
Layer8
100
AcDbLine
 39
0.25
 370
106
 10
156.1759
 20
383.124727832031
 30
0.0
 11
109.4109
 21
383.124727832031
 31
0.0
 0
LINE
 5
A6
100
AcDbEntity
 8
Layer8
100
AcDbLine
 39
0.25
 370
106
 10
109.4109
 20
383.124727832031
 30
0.0
 11
109.5739
 21
384.441727832031
 31
0.0
 0
LINE
 5
A7
100
AcDbEntity
 8
Layer8
100
AcDbLine
 39
0.25
 370
106
 10
109.5739
 20
384.441727832031
 30
0.0
 11
109.4109
 21
385.773727832031
 31
0.0
 0
LINE
 5
A8
100
AcDbEntity
 8
Layer8
100
AcDbLine
 39
0.25
 370
106
 10
109.4109
 20
385.773727832031
 30
0.0
 11
156.1759
 21
385.773727832031
 31
0.0
 0
LINE
 5
A9
100
AcDbEntity
 8
Layer8
100
AcDbLine
 39
0.25
 370
106
 10
156.1759
 20
385.773727832031
 30
0.0
 11
156.0039
 21
384.441727832031
 31
0.0
 0
LINE
 5
AA
100
AcDbEntity
 8
Layer8
100
AcDbLine
 39
0.25
 370
106
 10
156.0039
 20
384.441727832031
 30
0.0
 11
156.1759
 21
383.124727832031
 31
0.0
 0
ARC
 5
AB
100
AcDbEntity
 8
Layer8
100
AcDbCircle
 39
0.25
 370
106
 10
139.590431239017
 20
466.239735060949
 30
0.0
 40
5.82675477275374
100
AcDbArc
 50
177.061568688544
 51
-146.440951614572
 0
LINE
 5
AC
100
AcDbEntity
 8
Layer8
100
AcDbLine
 39
0.25
 370
106
 10
130.8549
 20
463.018727832031
 30
0.0
 11
131.413946875
 21
464.675946582031
 31
0.0
 0
LINE
 5
AD
100
AcDbEntity
 8
Layer8
100
AcDbLine
 39
0.25
 370
106
 10
131.413946875
 20
464.675946582031
 30
0.0
 11
131.710775
 21
466.707227832031
 31
0.0
 0
LINE
 5
AE
100
AcDbEntity
 8
Layer8
100
AcDbLine
 39
0.25
 370
106
 10
131.710775
 20
466.707227832031
 30
0.0
 11
131.8489
 21
469.153727832031
 31
0.0
 0
LINE
 5
AF
100
AcDbEntity
 8
Layer8
100
AcDbLine
 39
0.25
 370
106
 10
131.8489
 20
469.153727832031
 30
0.0
 11
131.8489
 21
473.941727832031
 31
0.0
 0
LINE
 5
B0
100
AcDbEntity
 8
Layer8
100
AcDbLine
 39
0.25
 370
106
 10
131.8489
 20
473.941727832031
 30
0.0
 11
133.7269
 21
473.941727832031
 31
0.0
 0
LINE
 5
B1
100
AcDbEntity
 8
Layer8
100
AcDbLine
 39
0.25
 370
106
 10
133.7269
 20
473.941727832031
 30
0.0
 11
133.7713375
 21
466.538430957031
 31
0.0
 0
LINE
 5
B2
100
AcDbEntity
 8
Layer8
100
AcDbLine
 39
0.25
 370
106
 10
134.7349
 20
463.018727832031
 30
0.0
 11
130.8549
 21
463.018727832031
 31
0.0
 0
LWPOLYLINE
 5
B3
100
AcDbEntity
 8
Layer8
100
AcDbPolyline
 39
0.25
 370
106
 90
5              
 70
 1
 43
0.0
 10
107.3969
 20
420.569727832031
 10
105.5209
 20
420.569727832031
 10
105.5209
 20
425.522727832031
 10
107.3969
 20
425.522727832031
 10
107.3969
 20
420.569727832031
 0
LWPOLYLINE
 5
B4
100
AcDbEntity
 8
Layer8
100
AcDbPolyline
 39
0.25
 370
106
 90
5              
 70
 1
 43
0.0
 10
160.0569
 20
420.569727832031
 10
158.1789
 20
420.569727832031
 10
158.1789
 20
425.522727832031
 10
160.0569
 20
425.522727832031
 10
160.0569
 20
420.569727832031
 0
LWPOLYLINE
 5
B5
100
AcDbEntity
 8
Layer8
100
AcDbPolyline
 39
0.25
 370
106
 90
5              
 70
 1
 43
0.0
 10
158.1789
 20
399.744727832031
 10
160.0569
 20
399.744727832031
 10
160.0569
 20
394.854727832031
 10
158.1789
 20
394.854727832031
 10
158.1789
 20
399.744727832031
 0
LWPOLYLINE
 5
B6
100
AcDbEntity
 8
Layer8
100
AcDbPolyline
 39
0.25
 370
106
 90
5              
 70
 1
 43
0.0
 10
107.3969
 20
394.855727832031
 10
105.5209
 20
394.855727832031
 10
105.5209
 20
399.745727832031
 10
107.3969
 20
399.745727832031
 10
107.3969
 20
394.855727832031
 0
LINE
 5
B7
100
AcDbEntity
 8
Layer8
100
AcDbLine
 39
0.25
 370
106
 10
130.8299
 20
462.968727832031
 30
0.0
 11
130.8549
 21
463.018727832031
 31
0.0
 0
LINE
 5
B8
100
AcDbEntity
 8
Layer8
100
AcDbLine
 39
0.25
 370
106
 10
130.8549
 20
463.018727832031
 30
0.0
 11
134.7349
 21
463.018727832031
 31
0.0
 0
LINE
 5
B9
100
AcDbEntity
 8
Layer8
100
AcDbLine
 39
0.25
 370
106
 10
134.7349
 20
463.018727832031
 30
0.0
 11
134.7579
 21
462.968727832031
 31
0.0
 0
LINE
 5
BA
100
AcDbEntity
 8
Layer8
100
AcDbLine
 39
0.25
 370
106
 10
134.7579
 20
462.968727832031
 30
0.0
 11
130.8299
 21
462.968727832031
 31
0.0
 0
LINE
 5
BB
100
AcDbEntity
 8
Layer8
100
AcDbLine
 39
0.25
 370
106
 10
133.7149
 20
443.364727832031
 30
0.0
 11
133.8799
 21
439.223727832031
 31
0.0
 0
LINE
 5
BC
100
AcDbEntity
 8
Layer8
100
AcDbLine
 39
0.25
 370
106
 10
133.8799
 20
439.223727832031
 30
0.0
 11
134.1733375
 21
438.258071582031
 31
0.0
 0
LINE
 5
BD
100
AcDbEntity
 8
Layer8
100
AcDbLine
 39
0.25
 370
106
 10
134.1733375
 20
438.258071582031
 30
0.0
 11
134.7349
 21
437.266727832031
 31
0.0
 0
LINE
 5
BE
100
AcDbEntity
 8
Layer8
100
AcDbLine
 39
0.25
 370
106
 10
134.7349
 20
437.266727832031
 30
0.0
 11
130.8549
 21
437.266727832031
 31
0.0
 0
LINE
 5
BF
100
AcDbEntity
 8
Layer8
100
AcDbLine
 39
0.25
 370
106
 10
130.8549
 20
437.266727832031
 30
0.0
 11
131.420040625
 21
438.891587207031
 31
0.0
 0
LINE
 5
C0
100
AcDbEntity
 8
Layer8
100
AcDbLine
 39
0.25
 370
106
 10
131.420040625
 20
438.891587207031
 30
0.0
 11
131.839696875
 21
442.635930957031
 31
0.0
 0
LINE
 5
C1
100
AcDbEntity
 8
Layer8
100
AcDbLine
 39
0.25
 370
106
 10
131.839696875
 20
442.635930957031
 30
0.0
 11
131.8609
 21
454.223727832031
 31
0.0
 0
LINE
 5
C2
100
AcDbEntity
 8
Layer8
100
AcDbLine
 39
0.25
 370
106
 10
131.8609
 20
454.223727832031
 30
0.0
 11
131.7059
 21
458.363727832031
 31
0.0
 0
LINE
 5
C3
100
AcDbEntity
 8
Layer8
100
AcDbLine
 39
0.25
 370
106
 10
131.7059
 20
458.363727832031
 30
0.0
 11
131.41455625
 21
459.328977832031
 31
0.0
 0
LINE
 5
C4
100
AcDbEntity
 8
Layer8
100
AcDbLine
 39
0.25
 370
106
 10
131.41455625
 20
459.328977832031
 30
0.0
 11
130.8549
 21
460.319727832031
 31
0.0
 0
LINE
 5
C5
100
AcDbEntity
 8
Layer8
100
AcDbLine
 39
0.25
 370
106
 10
130.8549
 20
460.319727832031
 30
0.0
 11
134.7349
 21
460.319727832031
 31
0.0
 0
LINE
 5
C6
100
AcDbEntity
 8
Layer8
100
AcDbLine
 39
0.25
 370
106
 10
134.7349
 20
460.319727832031
 30
0.0
 11
134.16630625
 21
458.695602832031
 31
0.0
 0
LINE
 5
C7
100
AcDbEntity
 8
Layer8
100
AcDbLine
 39
0.25
 370
106
 10
134.16630625
 20
458.695602832031
 30
0.0
 11
133.73786875
 21
454.952352832031
 31
0.0
 0
LINE
 5
C8
100
AcDbEntity
 8
Layer8
100
AcDbLine
 39
0.25
 370
106
 10
133.73786875
 20
454.952352832031
 30
0.0
 11
133.7149
 21
443.364727832031
 31
0.0
 0
ARC
 5
C9
100
AcDbEntity
 8
Layer8
100
AcDbCircle
 39
0.25
 370
106
 10
139.302005521399
 20
431.45722156005
 30
0.0
 40
5.5530869160039
100
AcDbArc
 50
145.384698637571
 51
-176.634841771175
 0
LINE
 5
CA
100
AcDbEntity
 8
Layer8
100
AcDbLine
 39
0.25
 370
106
 10
133.7179
 20
423.756727832031
 30
0.0
 11
133.75849375
 21
431.131259082031
 31
0.0
 0
LINE
 5
CB
100
AcDbEntity
 8
Layer8
100
AcDbLine
 39
0.25
 370
106
 10
134.7319
 20
434.611727832031
 30
0.0
 11
130.8439
 21
434.611727832031
 31
0.0
 0
LINE
 5
CC
100
AcDbEntity
 8
Layer8
100
AcDbLine
 39
0.25
 370
106
 10
130.8439
 20
434.611727832031
 30
0.0
 11
131.41355625
 21
432.980571582031
 31
0.0
 0
LINE
 5
CD
100
AcDbEntity
 8
Layer8
100
AcDbLine
 39
0.25
 370
106
 10
131.41355625
 20
432.980571582031
 30
0.0
 11
131.83811875
 21
429.227759082031
 31
0.0
 0
LINE
 5
CE
100
AcDbEntity
 8
Layer8
100
AcDbLine
 39
0.25
 370
106
 10
131.83811875
 20
429.227759082031
 30
0.0
 11
131.8599
 21
417.637727832031
 31
0.0
 0
LINE
 5
CF
100
AcDbEntity
 8
Layer8
100
AcDbLine
 39
0.25
 370
106
 10
131.8599
 20
417.637727832031
 30
0.0
 11
131.7014
 21
413.488977832031
 31
0.0
 0
LINE
 5
D0
100
AcDbEntity
 8
Layer8
100
AcDbLine
 39
0.25
 370
106
 10
131.7014
 20
413.488977832031
 30
0.0
 11
131.40765
 21
412.520665332031
 31
0.0
 0
LINE
 5
D1
100
AcDbEntity
 8
Layer8
100
AcDbLine
 39
0.25
 370
106
 10
131.40765
 20
412.520665332031
 30
0.0
 11
130.8439
 21
411.525727832031
 31
0.0
 0
LINE
 5
D2
100
AcDbEntity
 8
Layer8
100
AcDbLine
 39
0.25
 370
106
 10
130.8439
 20
411.525727832031
 30
0.0
 11
132.7889
 21
411.525727832031
 31
0.0
 0
LINE
 5
D3
100
AcDbEntity
 8
Layer8
100
AcDbLine
 39
0.25
 370
106
 10
132.7889
 20
411.525727832031
 30
0.0
 11
134.7319
 21
411.525727832031
 31
0.0
 0
LINE
 5
D4
100
AcDbEntity
 8
Layer8
100
AcDbLine
 39
0.25
 370
106
 10
134.7319
 20
411.525727832031
 30
0.0
 11
134.16424375
 21
413.155305957031
 31
0.0
 0
LINE
 5
D5
100
AcDbEntity
 8
Layer8
100
AcDbLine
 39
0.25
 370
106
 10
134.16424375
 20
413.155305957031
 30
0.0
 11
133.86115
 21
415.181352832031
 31
0.0
 0
LINE
 5
D6
100
AcDbEntity
 8
Layer8
100
AcDbLine
 39
0.25
 370
106
 10
133.86115
 20
415.181352832031
 30
0.0
 11
133.7179
 21
417.637727832031
 31
0.0
 0
LINE
 5
D7
100
AcDbEntity
 8
Layer8
100
AcDbLine
 39
0.25
 370
106
 10
133.7179
 20
417.637727832031
 30
0.0
 11
133.7179
 21
423.756727832031
 31
0.0
 0
ARC
 5
D8
100
AcDbEntity
 8
Layer8
100
AcDbCircle
 39
0.25
 370
106
 10
139.260857838657
 20
405.725209706045
 30
0.0
 40
5.51432479885458
100
AcDbArc
 50
145.270599368733
 51
-176.582821449931
 0
LINE
 5
D9
100
AcDbEntity
 8
Layer8
100
AcDbLine
 39
0.25
 370
106
 10
133.7169
 20
396.645727832031
 30
0.0
 11
133.7563375
 21
405.396524707031
 31
0.0
 0
LINE
 5
DA
100
AcDbEntity
 8
Layer8
100
AcDbLine
 39
0.25
 370
106
 10
134.7289
 20
408.866727832031
 30
0.0
 11
130.8499
 21
408.866727832031
 31
0.0
 0
LINE
 5
DB
100
AcDbEntity
 8
Layer8
100
AcDbLine
 39
0.25
 370
106
 10
130.8499
 20
408.866727832031
 30
0.0
 11
131.417509375
 21
407.240868457031
 31
0.0
 0
LINE
 5
DC
100
AcDbEntity
 8
Layer8
100
AcDbLine
 39
0.25
 370
106
 10
131.417509375
 20
407.240868457031
 30
0.0
 11
131.719525
 21
405.219102832031
 31
0.0
 0
LINE
 5
DD
100
AcDbEntity
 8
Layer8
100
AcDbLine
 39
0.25
 370
106
 10
131.719525
 20
405.219102832031
 30
0.0
 11
131.8609
 21
402.767727832031
 31
0.0
 0
LINE
 5
DE
100
AcDbEntity
 8
Layer8
100
AcDbLine
 39
0.25
 370
106
 10
131.8609
 20
402.767727832031
 30
0.0
 11
131.8609
 21
394.798727832031
 31
0.0
 0
LINE
 5
DF
100
AcDbEntity
 8
Layer8
100
AcDbLine
 39
0.25
 370
106
 10
131.8609
 20
394.798727832031
 30
0.0
 11
131.822603125
 21
389.286040332031
 31
0.0
 0
LINE
 5
E0
100
AcDbEntity
 8
Layer8
100
AcDbLine
 39
0.25
 370
106
 10
131.822603125
 20
389.286040332031
 30
0.0
 11
131.704525
 21
387.774727832031
 31
0.0
 0
LINE
 5
E1
100
AcDbEntity
 8
Layer8
100
AcDbLine
 39
0.25
 370
106
 10
131.704525
 20
387.774727832031
 30
0.0
 11
131.411884375
 21
386.807915332031
 31
0.0
 0
LINE
 5
E2
100
AcDbEntity
 8
Layer8
100
AcDbLine
 39
0.25
 370
106
 10
131.411884375
 20
386.807915332031
 30
0.0
 11
130.8499
 21
385.813727832031
 31
0.0
 0
LINE
 5
E3
100
AcDbEntity
 8
Layer8
100
AcDbLine
 39
0.25
 370
106
 10
130.8499
 20
385.813727832031
 30
0.0
 11
134.7289
 21
385.813727832031
 31
0.0
 0
LINE
 5
E4
100
AcDbEntity
 8
Layer8
100
AcDbLine
 39
0.25
 370
106
 10
134.7289
 20
385.813727832031
 30
0.0
 11
134.16155625
 21
387.441009082031
 31
0.0
 0
LINE
 5
E5
100
AcDbEntity
 8
Layer8
100
AcDbLine
 39
0.25
 370
106
 10
134.16155625
 20
387.441009082031
 30
0.0
 11
133.85915
 21
389.462977832031
 31
0.0
 0
LINE
 5
E6
100
AcDbEntity
 8
Layer8
100
AcDbLine
 39
0.25
 370
106
 10
133.85915
 20
389.462977832031
 30
0.0
 11
133.7169
 21
391.913727832031
 31
0.0
 0
LINE
 5
E7
100
AcDbEntity
 8
Layer8
100
AcDbLine
 39
0.25
 370
106
 10
133.7169
 20
391.913727832031
 30
0.0
 11
133.7169
 21
396.645727832031
 31
0.0
 0
LWPOLYLINE
 5
E8
100
AcDbEntity
 8
Layer8
100
AcDbPolyline
 39
0.25
 370
106
 90
5              
 70
 1
 43
0.0
 10
161.7109
 20
411.925727832031
 10
156.5239
 20
411.925727832031
 10
156.5239
 20
420.571727832031
 10
161.7109
 20
420.571727832031
 10
161.7109
 20
411.925727832031
 0
LWPOLYLINE
 5
E9
100
AcDbEntity
 8
Layer8
100
AcDbPolyline
 39
0.25
 370
106
 90
5              
 70
 1
 43
0.0
 10
161.7729
 20
399.744727832031
 10
156.4629
 20
399.744727832031
 10
156.4629
 20
408.453727832031
 10
161.7729
 20
408.453727832031
 10
161.7729
 20
399.744727832031
 0
LWPOLYLINE
 5
EA
100
AcDbEntity
 8
Layer8
100
AcDbPolyline
 39
0.25
 370
106
 90
5              
 70
 1
 43
0.0
 10
109.0629
 20
411.925727832031
 10
103.8639
 20
411.925727832031
 10
103.8639
 20
420.571727832031
 10
109.0629
 20
420.571727832031
 10
109.0629
 20
411.925727832031
 0
LWPOLYLINE
 5
EB
100
AcDbEntity
 8
Layer8
100
AcDbPolyline
 39
0.25
 370
106
 90
5              
 70
 1
 43
0.0
 10
109.1139
 20
399.744727832031
 10
103.8039
 20
399.744727832031
 10
103.8039
 20
408.453727832031
 10
109.1139
 20
408.453727832031
 10
109.1139
 20
399.744727832031
 0
LWPOLYLINE
 5
EC
100
AcDbEntity
 8
Layer8
100
AcDbPolyline
 39
0.25
 370
106
 90
5              
 70
 1
 43
0.0
 10
130.1919
 20
369.060727832031
 10
135.3909
 20
369.060727832031
 10
135.3909
 20
360.031727832031
 10
130.1919
 20
360.031727832031
 10
130.1919
 20
369.060727832031
 0
LWPOLYLINE
 5
ED
100
AcDbEntity
 8
Layer8
100
AcDbPolyline
 39
0.25
 370
106
 90
5              
 70
 1
 43
0.0
 10
130.1329
 20
357.374727832031
 10
135.4469
 20
357.374727832031
 10
135.4469
 20
348.226727832031
 10
130.1329
 20
348.226727832031
 10
130.1329
 20
357.374727832031
 0
ARC
 5
EE
100
AcDbEntity
 8
Layer8
100
AcDbCircle
 39
0.25
 370
106
 10
139.216973571672
 20
380.026132009211
 30
0.0
 40
5.44944747352683
100
AcDbArc
 50
145.334049463269
 51
-176.602649369526
 0
ARC
 5
EF
100
AcDbEntity
 8
Layer8
100
AcDbCircle
 39
0.25
 370
106
 10
126.698392259119
 20
363.055527979173
 30
0.0
 40
5.1862332007265
100
AcDbArc
 50
-35.6649001988579
 51
4.40939985334194
 0
LINE
 5
F0
100
AcDbEntity
 8
Layer8
100
AcDbLine
 39
0.25
 370
106
 10
133.7379
 20
372.445727832031
 30
0.0
 11
133.777103125
 21
379.703196582031
 31
0.0
 0
LINE
 5
F1
100
AcDbEntity
 8
Layer8
100
AcDbLine
 39
0.25
 370
106
 10
134.7349
 20
383.125727832031
 30
0.0
 11
130.9119
 21
383.125727832031
 31
0.0
 0
LINE
 5
F2
100
AcDbEntity
 8
Layer8
100
AcDbLine
 39
0.25
 370
106
 10
130.9119
 20
383.125727832031
 30
0.0
 11
131.470415625
 21
381.522009082031
 31
0.0
 0
LINE
 5
F3
100
AcDbEntity
 8
Layer8
100
AcDbLine
 39
0.25
 370
106
 10
131.470415625
 20
381.522009082031
 30
0.0
 11
131.768025
 21
379.528477832031
 31
0.0
 0
LINE
 5
F4
100
AcDbEntity
 8
Layer8
100
AcDbLine
 39
0.25
 370
106
 10
131.768025
 20
379.528477832031
 30
0.0
 11
131.9079
 21
377.111727832031
 31
0.0
 0
LINE
 5
F5
100
AcDbEntity
 8
Layer8
100
AcDbLine
 39
0.25
 370
106
 10
131.9079
 20
377.111727832031
 30
0.0
 11
131.9079
 21
371.092727832031
 31
0.0
 0
LINE
 5
F6
100
AcDbEntity
 8
Layer8
100
AcDbLine
 39
0.25
 370
106
 10
131.9079
 20
371.092727832031
 30
0.0
 11
131.869275
 21
363.454259082031
 31
0.0
 0
LINE
 5
F7
100
AcDbEntity
 8
Layer8
100
AcDbLine
 39
0.25
 370
106
 10
130.9119
 20
360.031727832031
 30
0.0
 11
134.7349
 21
360.031727832031
 31
0.0
 0
LINE
 5
F8
100
AcDbEntity
 8
Layer8
100
AcDbLine
 39
0.25
 370
106
 10
134.7349
 20
360.031727832031
 30
0.0
 11
134.176228125
 21
361.635446582031
 31
0.0
 0
LINE
 5
F9
100
AcDbEntity
 8
Layer8
100
AcDbLine
 39
0.25
 370
106
 10
134.176228125
 20
361.635446582031
 30
0.0
 11
133.878275
 21
363.628977832031
 31
0.0
 0
LINE
 5
FA
100
AcDbEntity
 8
Layer8
100
AcDbLine
 39
0.25
 370
106
 10
133.878275
 20
363.628977832031
 30
0.0
 11
133.7379
 21
366.045727832031
 31
0.0
 0
LINE
 5
FB
100
AcDbEntity
 8
Layer8
100
AcDbLine
 39
0.25
 370
106
 10
133.7379
 20
366.045727832031
 30
0.0
 11
133.7379
 21
372.445727832031
 31
0.0
 0
LINE
 5
FC
100
AcDbEntity
 8
Layer8
100
AcDbLine
 39
0.25
 370
106
 10
131.8489
 20
469.151727832031
 30
0.0
 11
131.6969
 21
465.027352832031
 31
0.0
 0
LINE
 5
FD
100
AcDbEntity
 8
Layer8
100
AcDbLine
 39
0.25
 370
106
 10
131.6969
 20
465.027352832031
 30
0.0
 11
131.40874375
 21
464.046055957031
 31
0.0
 0
LINE
 5
FE
100
AcDbEntity
 8
Layer8
100
AcDbLine
 39
0.25
 370
106
 10
131.40874375
 20
464.046055957031
 30
0.0
 11
130.8549
 21
463.018727832031
 31
0.0
 0
LINE
 5
FF
100
AcDbEntity
 8
Layer8
100
AcDbLine
 39
0.25
 370
106
 10
130.8549
 20
463.018727832031
 30
0.0
 11
130.1949
 21
463.018727832031
 31
0.0
 0
LINE
 5
100
100
AcDbEntity
 8
Layer8
100
AcDbLine
 39
0.25
 370
106
 10
130.1949
 20
463.018727832031
 30
0.0
 11
130.1949
 21
472.112727832031
 31
0.0
 0
LINE
 5
101
100
AcDbEntity
 8
Layer8
100
AcDbLine
 39
0.25
 370
106
 10
130.1949
 20
472.112727832031
 30
0.0
 11
131.8489
 21
472.112727832031
 31
0.0
 0
LINE
 5
102
100
AcDbEntity
 8
Layer8
100
AcDbLine
 39
0.25
 370
106
 10
131.8489
 20
472.112727832031
 30
0.0
 11
131.8489
 21
469.151727832031
 31
0.0
 0
ARC
 5
103
100
AcDbEntity
 8
Layer8
100
AcDbCircle
 39
0.25
 370
106
 10
164.684054669817
 20
470.229874834554
 30
0.0
 40
31.0113660894365
100
AcDbArc
 50
176.519149800888
 51
-169.682460906951
 0
LINE
 5
104
100
AcDbEntity
 8
Layer8
100
AcDbLine
 39
0.25
 370
106
 10
135.3939
 20
463.018727832031
 30
0.0
 11
134.7349
 21
463.018727832031
 31
0.0
 0
LINE
 5
105
100
AcDbEntity
 8
Layer8
100
AcDbLine
 39
0.25
 370
106
 10
134.7349
 20
463.018727832031
 30
0.0
 11
134.174134375
 21
464.675634082031
 31
0.0
 0
LINE
 5
106
100
AcDbEntity
 8
Layer8
100
AcDbLine
 39
0.25
 370
106
 10
133.7299
 20
472.112727832031
 30
0.0
 11
135.3939
 21
472.112727832031
 31
0.0
 0
LINE
 5
107
100
AcDbEntity
 8
Layer8
100
AcDbLine
 39
0.25
 370
106
 10
135.3939
 20
472.112727832031
 30
0.0
 11
135.3939
 21
463.018727832031
 31
0.0
 0
ARC
 5
108
100
AcDbEntity
 8
Layer8
100
AcDbCircle
 39
0.25
 370
106
 10
101.31979732513
 20
453.18721359077
 30
0.0
 40
30.6001143583585
100
AcDbArc
 50
-3.55889296267563
 51
10.3704615424161
 0
LINE
 5
109
100
AcDbEntity
 8
Layer8
100
AcDbLine
 39
0.25
 370
106
 10
130.8549
 20
460.319727832031
 30
0.0
 11
131.420040625
 21
458.695602832031
 31
0.0
 0
LINE
 5
10A
100
AcDbEntity
 8
Layer8
100
AcDbLine
 39
0.25
 370
106
 10
131.8609
 20
451.287727832031
 30
0.0
 11
130.1329
 21
451.287727832031
 31
0.0
 0
LINE
 5
10B
100
AcDbEntity
 8
Layer8
100
AcDbLine
 39
0.25
 370
106
 10
130.1329
 20
451.287727832031
 30
0.0
 11
130.1329
 21
460.319727832031
 31
0.0
 0
LINE
 5
10C
100
AcDbEntity
 8
Layer8
100
AcDbLine
 39
0.25
 370
106
 10
130.1329
 20
460.319727832031
 30
0.0
 11
130.8549
 21
460.319727832031
 31
0.0
 0
ARC
 5
10D
100
AcDbEntity
 8
Layer8
100
AcDbCircle
 39
0.25
 370
106
 10
139.271599273213
 20
457.171794100635
 30
0.0
 40
5.52187713307995
100
AcDbArc
 50
145.243917374559
 51
-176.6848797633
 0
LINE
 5
10E
100
AcDbEntity
 8
Layer8
100
AcDbLine
 39
0.25
 370
106
 10
135.4429
 20
451.287727832031
 30
0.0
 11
133.7149
 21
451.287727832031
 31
0.0
 0
LINE
 5
10F
100
AcDbEntity
 8
Layer8
100
AcDbLine
 39
0.25
 370
106
 10
133.7149
 20
451.287727832031
 30
0.0
 11
133.7589625
 21
456.852477832031
 31
0.0
 0
LINE
 5
110
100
AcDbEntity
 8
Layer8
100
AcDbLine
 39
0.25
 370
106
 10
134.7349
 20
460.319727832031
 30
0.0
 11
135.4429
 21
460.319727832031
 31
0.0
 0
LINE
 5
111
100
AcDbEntity
 8
Layer8
100
AcDbLine
 39
0.25
 370
106
 10
135.4429
 20
460.319727832031
 30
0.0
 11
135.4429
 21
451.287727832031
 31
0.0
 0
LINE
 5
112
100
AcDbEntity
 8
Layer8
100
AcDbLine
 39
0.25
 370
106
 10
181.7733
 20
383.158927832031
 30
0.0
 11
162.1713
 21
383.158927832031
 31
0.0
 0
LINE
 5
113
100
AcDbEntity
 8
Layer8
100
AcDbLine
 39
0.25
 370
106
 10
162.1713
 20
383.158927832031
 30
0.0
 11
162.3323
 21
384.415927832031
 31
0.0
 0
LINE
 5
114
100
AcDbEntity
 8
Layer8
100
AcDbLine
 39
0.25
 370
106
 10
162.3323
 20
384.415927832031
 30
0.0
 11
162.1713
 21
385.685927832031
 31
0.0
 0
LINE
 5
115
100
AcDbEntity
 8
Layer8
100
AcDbLine
 39
0.25
 370
106
 10
162.1713
 20
385.685927832031
 30
0.0
 11
181.7733
 21
385.685927832031
 31
0.0
 0
LINE
 5
116
100
AcDbEntity
 8
Layer8
100
AcDbLine
 39
0.25
 370
106
 10
181.7733
 20
385.685927832031
 30
0.0
 11
181.6013
 21
384.415927832031
 31
0.0
 0
LINE
 5
117
100
AcDbEntity
 8
Layer8
100
AcDbLine
 39
0.25
 370
106
 10
181.6013
 20
384.415927832031
 30
0.0
 11
181.7733
 21
383.158927832031
 31
0.0
 0
LINE
 5
118
100
AcDbEntity
 8
Layer8
100
AcDbLine
 39
0.25
 370
106
 10
77.8965
 20
408.907327832031
 30
0.0
 11
58.1765
 21
408.907327832031
 31
0.0
 0
LINE
 5
119
100
AcDbEntity
 8
Layer8
100
AcDbLine
 39
0.25
 370
106
 10
58.1765
 20
408.907327832031
 30
0.0
 11
58.3485
 21
410.158327832031
 31
0.0
 0
LINE
 5
11A
100
AcDbEntity
 8
Layer8
100
AcDbLine
 39
0.25
 370
106
 10
58.3485
 20
410.158327832031
 30
0.0
 11
58.1765
 21
411.478327832031
 31
0.0
 0
LINE
 5
11B
100
AcDbEntity
 8
Layer8
100
AcDbLine
 39
0.25
 370
106
 10
58.1765
 20
411.478327832031
 30
0.0
 11
77.8965
 21
411.478327832031
 31
0.0
 0
LINE
 5
11C
100
AcDbEntity
 8
Layer8
100
AcDbLine
 39
0.25
 370
106
 10
77.8965
 20
411.478327832031
 30
0.0
 11
77.7225
 21
410.158327832031
 31
0.0
 0
LINE
 5
11D
100
AcDbEntity
 8
Layer8
100
AcDbLine
 39
0.25
 370
106
 10
77.7225
 20
410.158327832031
 30
0.0
 11
77.8965
 21
408.907327832031
 31
0.0
 0
LINE
 5
11E
100
AcDbEntity
 8
Layer8
100
AcDbLine
 39
0.25
 370
106
 10
103.3295
 20
410.158327832031
 30
0.0
 11
103.5285
 21
411.623327832031
 31
0.0
 0
LINE
 5
11F
100
AcDbEntity
 8
Layer8
100
AcDbLine
 39
0.25
 370
106
 10
103.5285
 20
411.623327832031
 30
0.0
 11
103.8525
 21
411.863327832031
 31
0.0
 0
LINE
 5
120
100
AcDbEntity
 8
Layer8
100
AcDbLine
 39
0.25
 370
106
 10
103.8525
 20
411.863327832031
 30
0.0
 11
109.0535
 21
411.863327832031
 31
0.0
 0
LINE
 5
121
100
AcDbEntity
 8
Layer8
100
AcDbLine
 39
0.25
 370
106
 10
109.0535
 20
411.863327832031
 30
0.0
 11
109.3775
 21
411.623327832031
 31
0.0
 0
LINE
 5
122
100
AcDbEntity
 8
Layer8
100
AcDbLine
 39
0.25
 370
106
 10
109.3775
 20
411.623327832031
 30
0.0
 11
109.5645
 21
410.158327832031
 31
0.0
 0
LINE
 5
123
100
AcDbEntity
 8
Layer8
100
AcDbLine
 39
0.25
 370
106
 10
109.5645
 20
410.158327832031
 30
0.0
 11
103.3295
 21
410.158327832031
 31
0.0
 0
LINE
 5
124
100
AcDbEntity
 8
Layer8
100
AcDbLine
 39
0.25
 370
106
 10
109.4005
 20
408.907327832031
 30
0.0
 11
109.3775
 21
408.692327832031
 31
0.0
 0
LINE
 5
125
100
AcDbEntity
 8
Layer8
100
AcDbLine
 39
0.25
 370
106
 10
109.3775
 20
408.692327832031
 30
0.0
 11
109.1145
 21
408.514327832031
 31
0.0
 0
LINE
 5
126
100
AcDbEntity
 8
Layer8
100
AcDbLine
 39
0.25
 370
106
 10
109.1145
 20
408.514327832031
 30
0.0
 11
103.7905
 21
408.514327832031
 31
0.0
 0
LINE
 5
127
100
AcDbEntity
 8
Layer8
100
AcDbLine
 39
0.25
 370
106
 10
103.7905
 20
408.514327832031
 30
0.0
 11
103.5285
 21
408.692327832031
 31
0.0
 0
LINE
 5
128
100
AcDbEntity
 8
Layer8
100
AcDbLine
 39
0.25
 370
106
 10
103.5285
 20
408.692327832031
 30
0.0
 11
103.3295
 21
410.158327832031
 31
0.0
 0
LINE
 5
129
100
AcDbEntity
 8
Layer8
100
AcDbLine
 39
0.25
 370
106
 10
103.3295
 20
410.158327832031
 30
0.0
 11
109.5645
 21
410.158327832031
 31
0.0
 0
LINE
 5
12A
100
AcDbEntity
 8
Layer8
100
AcDbLine
 39
0.25
 370
106
 10
109.5645
 20
410.158327832031
 30
0.0
 11
109.4005
 21
408.907327832031
 31
0.0
 0
LINE
 5
12B
100
AcDbEntity
 8
Layer8
100
AcDbLine
 39
0.25
 370
106
 10
103.5035
 20
408.907327832031
 30
0.0
 11
83.7925
 21
408.907327832031
 31
0.0
 0
LINE
 5
12C
100
AcDbEntity
 8
Layer8
100
AcDbLine
 39
0.25
 370
106
 10
83.7925
 20
408.907327832031
 30
0.0
 11
83.9565
 21
410.158327832031
 31
0.0
 0
LINE
 5
12D
100
AcDbEntity
 8
Layer8
100
AcDbLine
 39
0.25
 370
106
 10
83.9565
 20
410.158327832031
 30
0.0
 11
83.7815
 21
411.478327832031
 31
0.0
 0
LINE
 5
12E
100
AcDbEntity
 8
Layer8
100
AcDbLine
 39
0.25
 370
106
 10
83.7815
 20
411.478327832031
 30
0.0
 11
103.5035
 21
411.478327832031
 31
0.0
 0
LINE
 5
12F
100
AcDbEntity
 8
Layer8
100
AcDbLine
 39
0.25
 370
106
 10
103.5035
 20
411.478327832031
 30
0.0
 11
103.3295
 21
410.158327832031
 31
0.0
 0
LINE
 5
130
100
AcDbEntity
 8
Layer8
100
AcDbLine
 39
0.25
 370
106
 10
103.3295
 20
410.158327832031
 30
0.0
 11
103.5035
 21
408.907327832031
 31
0.0
 0
LINE
 5
131
100
AcDbEntity
 8
Layer8
100
AcDbLine
 39
0.25
 370
106
 10
156.0115
 20
410.158327832031
 30
0.0
 11
156.2115
 21
411.623327832031
 31
0.0
 0
LINE
 5
132
100
AcDbEntity
 8
Layer8
100
AcDbLine
 39
0.25
 370
106
 10
156.2115
 20
411.623327832031
 30
0.0
 11
156.5355
 21
411.863327832031
 31
0.0
 0
LINE
 5
133
100
AcDbEntity
 8
Layer8
100
AcDbLine
 39
0.25
 370
106
 10
156.5355
 20
411.863327832031
 30
0.0
 11
161.7365
 21
411.863327832031
 31
0.0
 0
LINE
 5
134
100
AcDbEntity
 8
Layer8
100
AcDbLine
 39
0.25
 370
106
 10
161.7365
 20
411.863327832031
 30
0.0
 11
162.0595
 21
411.623327832031
 31
0.0
 0
LINE
 5
135
100
AcDbEntity
 8
Layer8
100
AcDbLine
 39
0.25
 370
106
 10
162.0595
 20
411.623327832031
 30
0.0
 11
162.2475
 21
410.158327832031
 31
0.0
 0
LINE
 5
136
100
AcDbEntity
 8
Layer8
100
AcDbLine
 39
0.25
 370
106
 10
162.2475
 20
410.158327832031
 30
0.0
 11
156.0115
 21
410.158327832031
 31
0.0
 0
LINE
 5
137
100
AcDbEntity
 8
Layer8
100
AcDbLine
 39
0.25
 370
106
 10
162.0875
 20
408.907327832031
 30
0.0
 11
162.0595
 21
408.692327832031
 31
0.0
 0
LINE
 5
138
100
AcDbEntity
 8
Layer8
100
AcDbLine
 39
0.25
 370
106
 10
162.0595
 20
408.692327832031
 30
0.0
 11
161.7855
 21
408.514327832031
 31
0.0
 0
LINE
 5
139
100
AcDbEntity
 8
Layer8
100
AcDbLine
 39
0.25
 370
106
 10
161.7855
 20
408.514327832031
 30
0.0
 11
156.4735
 21
408.514327832031
 31
0.0
 0
LINE
 5
13A
100
AcDbEntity
 8
Layer8
100
AcDbLine
 39
0.25
 370
106
 10
156.4735
 20
408.514327832031
 30
0.0
 11
156.2115
 21
408.692327832031
 31
0.0
 0
LINE
 5
13B
100
AcDbEntity
 8
Layer8
100
AcDbLine
 39
0.25
 370
106
 10
156.2115
 20
408.692327832031
 30
0.0
 11
156.0115
 21
410.158327832031
 31
0.0
 0
LINE
 5
13C
100
AcDbEntity
 8
Layer8
100
AcDbLine
 39
0.25
 370
106
 10
156.0115
 20
410.158327832031
 30
0.0
 11
162.2475
 21
410.158327832031
 31
0.0
 0
LINE
 5
13D
100
AcDbEntity
 8
Layer8
100
AcDbLine
 39
0.25
 370
106
 10
162.2475
 20
410.158327832031
 30
0.0
 11
162.0875
 21
408.907327832031
 31
0.0
 0
LINE
 5
13E
100
AcDbEntity
 8
Layer8
100
AcDbLine
 39
0.25
 370
106
 10
156.1895
 20
408.907327832031
 30
0.0
 11
109.4005
 21
408.907327832031
 31
0.0
 0
LINE
 5
13F
100
AcDbEntity
 8
Layer8
100
AcDbLine
 39
0.25
 370
106
 10
109.4005
 20
408.907327832031
 30
0.0
 11
109.5645
 21
410.158327832031
 31
0.0
 0
LINE
 5
140
100
AcDbEntity
 8
Layer8
100
AcDbLine
 39
0.25
 370
106
 10
109.5645
 20
410.158327832031
 30
0.0
 11
109.3925
 21
411.478327832031
 31
0.0
 0
LINE
 5
141
100
AcDbEntity
 8
Layer8
100
AcDbLine
 39
0.25
 370
106
 10
109.3925
 20
411.478327832031
 30
0.0
 11
156.1895
 21
411.478327832031
 31
0.0
 0
LINE
 5
142
100
AcDbEntity
 8
Layer8
100
AcDbLine
 39
0.25
 370
106
 10
156.1895
 20
411.478327832031
 30
0.0
 11
156.0115
 21
410.158327832031
 31
0.0
 0
LINE
 5
143
100
AcDbEntity
 8
Layer8
100
AcDbLine
 39
0.25
 370
106
 10
156.0115
 20
410.158327832031
 30
0.0
 11
156.1895
 21
408.907327832031
 31
0.0
 0
LINE
 5
144
100
AcDbEntity
 8
Layer8
100
AcDbLine
 39
0.25
 370
106
 10
181.6195
 20
410.158327832031
 30
0.0
 11
181.7935
 21
408.907327832031
 31
0.0
 0
LINE
 5
145
100
AcDbEntity
 8
Layer8
100
AcDbLine
 39
0.25
 370
106
 10
181.7935
 20
408.907327832031
 30
0.0
 11
162.0875
 21
408.907327832031
 31
0.0
 0
LINE
 5
146
100
AcDbEntity
 8
Layer8
100
AcDbLine
 39
0.25
 370
106
 10
162.0875
 20
408.907327832031
 30
0.0
 11
162.2475
 21
410.158327832031
 31
0.0
 0
LINE
 5
147
100
AcDbEntity
 8
Layer8
100
AcDbLine
 39
0.25
 370
106
 10
162.2475
 20
410.158327832031
 30
0.0
 11
162.0735
 21
411.478327832031
 31
0.0
 0
LINE
 5
148
100
AcDbEntity
 8
Layer8
100
AcDbLine
 39
0.25
 370
106
 10
162.0735
 20
411.478327832031
 30
0.0
 11
181.7935
 21
411.478327832031
 31
0.0
 0
LINE
 5
149
100
AcDbEntity
 8
Layer8
100
AcDbLine
 39
0.25
 370
106
 10
181.7935
 20
411.478327832031
 30
0.0
 11
181.6195
 21
410.158327832031
 31
0.0
 0
LINE
 5
14A
100
AcDbEntity
 8
Layer8
100
AcDbLine
 39
0.25
 370
106
 10
207.4045
 20
408.907327832031
 30
0.0
 11
187.6935
 21
408.907327832031
 31
0.0
 0
LINE
 5
14B
100
AcDbEntity
 8
Layer8
100
AcDbLine
 39
0.25
 370
106
 10
187.6935
 20
408.907327832031
 30
0.0
 11
187.8655
 21
410.158327832031
 31
0.0
 0
LINE
 5
14C
100
AcDbEntity
 8
Layer8
100
AcDbLine
 39
0.25
 370
106
 10
187.8655
 20
410.158327832031
 30
0.0
 11
187.6935
 21
411.478327832031
 31
0.0
 0
LINE
 5
14D
100
AcDbEntity
 8
Layer8
100
AcDbLine
 39
0.25
 370
106
 10
187.6935
 20
411.478327832031
 30
0.0
 11
207.4045
 21
411.478327832031
 31
0.0
 0
LINE
 5
14E
100
AcDbEntity
 8
Layer8
100
AcDbLine
 39
0.25
 370
106
 10
207.4045
 20
411.478327832031
 30
0.0
 11
207.2275
 21
410.158327832031
 31
0.0
 0
LINE
 5
14F
100
AcDbEntity
 8
Layer8
100
AcDbLine
 39
0.25
 370
106
 10
207.2275
 20
410.158327832031
 30
0.0
 11
207.4045
 21
408.907327832031
 31
0.0
 0
LINE
 5
150
100
AcDbEntity
 8
Layer8
100
AcDbLine
 39
0.25
 370
106
 10
156.1463
 20
460.467227832031
 30
0.0
 11
109.4423
 21
460.467227832031
 31
0.0
 0
LINE
 5
151
100
AcDbEntity
 8
Layer8
100
AcDbLine
 39
0.25
 370
106
 10
109.4423
 20
460.467227832031
 30
0.0
 11
109.6073
 21
461.750227832031
 31
0.0
 0
LINE
 5
152
100
AcDbEntity
 8
Layer8
100
AcDbLine
 39
0.25
 370
106
 10
109.6073
 20
461.750227832031
 30
0.0
 11
109.4423
 21
463.008227832031
 31
0.0
 0
LINE
 5
153
100
AcDbEntity
 8
Layer8
100
AcDbLine
 39
0.25
 370
106
 10
109.4423
 20
463.008227832031
 30
0.0
 11
156.1463
 21
463.008227832031
 31
0.0
 0
LINE
 5
154
100
AcDbEntity
 8
Layer8
100
AcDbLine
 39
0.25
 370
106
 10
156.1463
 20
463.008227832031
 30
0.0
 11
155.9723
 21
461.750227832031
 31
0.0
 0
LINE
 5
155
100
AcDbEntity
 8
Layer8
100
AcDbLine
 39
0.25
 370
106
 10
155.9723
 20
461.750227832031
 30
0.0
 11
156.1463
 21
460.467227832031
 31
0.0
 0
LINE
 5
156
100
AcDbEntity
 8
Layer8
100
AcDbLine
 39
0.25
 370
106
 10
130.8323
 20
462.961227832031
 30
0.0
 11
130.8543
 21
463.008227832031
 31
0.0
 0
LINE
 5
157
100
AcDbEntity
 8
Layer8
100
AcDbLine
 39
0.25
 370
106
 10
130.8543
 20
463.008227832031
 30
0.0
 11
134.7323
 21
463.008227832031
 31
0.0
 0
LINE
 5
158
100
AcDbEntity
 8
Layer8
100
AcDbLine
 39
0.25
 370
106
 10
134.7323
 20
463.008227832031
 30
0.0
 11
134.7563
 21
462.961227832031
 31
0.0
 0
LINE
 5
159
100
AcDbEntity
 8
Layer8
100
AcDbLine
 39
0.25
 370
106
 10
134.7563
 20
462.961227832031
 30
0.0
 11
130.8323
 21
462.961227832031
 31
0.0
 0
LWPOLYLINE
 5
15A
100
AcDbEntity
 8
Layer8
100
AcDbPolyline
 39
0.25
 370
106
 90
5              
 70
 1
 43
0.0
 10
109.0505
 20
463.465327832031
 10
103.8475
 20
463.465327832031
 10
103.8475
 20
472.111327832031
 10
109.0505
 20
472.111327832031
 10
109.0505
 20
463.465327832031
 0
LWPOLYLINE
 5
15B
100
AcDbEntity
 8
Layer8
100
AcDbPolyline
 39
0.25
 370
106
 90
5              
 70
 1
 43
0.0
 10
109.1015
 20
451.286327832031
 10
103.7855
 20
451.286327832031
 10
103.7855
 20
459.995327832031
 10
109.1015
 20
459.995327832031
 10
109.1015
 20
451.286327832031
 0
LINE
 5
15C
100
AcDbEntity
 8
Layer8
100
AcDbLine
 39
0.25
 370
106
 10
156.1745
 20
357.371327832031
 30
0.0
 11
109.3985
 21
357.371327832031
 31
0.0
 0
LINE
 5
15D
100
AcDbEntity
 8
Layer8
100
AcDbLine
 39
0.25
 370
106
 10
109.3985
 20
357.371327832031
 30
0.0
 11
109.5635
 21
358.639327832031
 31
0.0
 0
LINE
 5
15E
100
AcDbEntity
 8
Layer8
100
AcDbLine
 39
0.25
 370
106
 10
109.5635
 20
358.639327832031
 30
0.0
 11
109.3865
 21
360.032327832031
 31
0.0
 0
LINE
 5
15F
100
AcDbEntity
 8
Layer8
100
AcDbLine
 39
0.25
 370
106
 10
109.3865
 20
360.032327832031
 30
0.0
 11
156.2025
 21
360.032327832031
 31
0.0
 0
LINE
 5
160
100
AcDbEntity
 8
Layer8
100
AcDbLine
 39
0.25
 370
106
 10
156.2025
 20
360.032327832031
 30
0.0
 11
156.0155
 21
358.639327832031
 31
0.0
 0
LINE
 5
161
100
AcDbEntity
 8
Layer8
100
AcDbLine
 39
0.25
 370
106
 10
156.0155
 20
358.639327832031
 30
0.0
 11
156.1745
 21
357.371327832031
 31
0.0
 0
LINE
 5
162
100
AcDbEntity
 8
Layer8
100
AcDbLine
 39
0.25
 370
106
 10
103.3275
 20
461.698327832031
 30
0.0
 11
103.5275
 21
463.216327832031
 31
0.0
 0
LINE
 5
163
100
AcDbEntity
 8
Layer8
100
AcDbLine
 39
0.25
 370
106
 10
103.5275
 20
463.216327832031
 30
0.0
 11
103.8515
 21
463.465327832031
 31
0.0
 0
LINE
 5
164
100
AcDbEntity
 8
Layer8
100
AcDbLine
 39
0.25
 370
106
 10
103.8515
 20
463.465327832031
 30
0.0
 11
109.0505
 21
463.465327832031
 31
0.0
 0
LINE
 5
165
100
AcDbEntity
 8
Layer8
100
AcDbLine
 39
0.25
 370
106
 10
109.0505
 20
463.465327832031
 30
0.0
 11
109.3745
 21
463.216327832031
 31
0.0
 0
LINE
 5
166
100
AcDbEntity
 8
Layer8
100
AcDbLine
 39
0.25
 370
106
 10
109.3745
 20
463.216327832031
 30
0.0
 11
109.5635
 21
461.698327832031
 31
0.0
 0
LINE
 5
167
100
AcDbEntity
 8
Layer8
100
AcDbLine
 39
0.25
 370
106
 10
109.5635
 20
461.698327832031
 30
0.0
 11
103.3275
 21
461.698327832031
 31
0.0
 0
LWPOLYLINE
 5
168
100
AcDbEntity
 8
Layer8
100
AcDbPolyline
 39
0.25
 370
106
 90
5              
 70
 1
 43
0.0
 10
161.7255
 20
463.465327832031
 10
156.5375
 20
463.465327832031
 10
156.5375
 20
472.111327832031
 10
161.7255
 20
472.111327832031
 10
161.7255
 20
463.465327832031
 0
LWPOLYLINE
 5
169
100
AcDbEntity
 8
Layer8
100
AcDbPolyline
 39
0.25
 370
106
 90
5              
 70
 1
 43
0.0
 10
161.7875
 20
451.286327832031
 10
156.4715
 20
451.286327832031
 10
156.4715
 20
459.995327832031
 10
161.7875
 20
459.995327832031
 10
161.7875
 20
451.286327832031
 0
LINE
 5
16A
100
AcDbEntity
 8
Layer8
100
AcDbLine
 39
0.25
 370
106
 10
109.3985
 20
460.355327832031
 30
0.0
 11
109.3745
 21
460.180327832031
 31
0.0
 0
LINE
 5
16B
100
AcDbEntity
 8
Layer8
100
AcDbLine
 39
0.25
 370
106
 10
109.3745
 20
460.180327832031
 30
0.0
 11
109.1135
 21
459.995327832031
 31
0.0
 0
LINE
 5
16C
100
AcDbEntity
 8
Layer8
100
AcDbLine
 39
0.25
 370
106
 10
109.1135
 20
459.995327832031
 30
0.0
 11
103.7885
 21
459.995327832031
 31
0.0
 0
LINE
 5
16D
100
AcDbEntity
 8
Layer8
100
AcDbLine
 39
0.25
 370
106
 10
103.7885
 20
459.995327832031
 30
0.0
 11
103.5275
 21
460.180327832031
 31
0.0
 0
LINE
 5
16E
100
AcDbEntity
 8
Layer8
100
AcDbLine
 39
0.25
 370
106
 10
103.5275
 20
460.180327832031
 30
0.0
 11
103.3275
 21
461.698327832031
 31
0.0
 0
LINE
 5
16F
100
AcDbEntity
 8
Layer8
100
AcDbLine
 39
0.25
 370
106
 10
103.3275
 20
461.698327832031
 30
0.0
 11
109.5635
 21
461.698327832031
 31
0.0
 0
LINE
 5
170
100
AcDbEntity
 8
Layer8
100
AcDbLine
 39
0.25
 370
106
 10
109.5635
 20
461.698327832031
 30
0.0
 11
109.3985
 21
460.355327832031
 31
0.0
 0
LINE
 5
171
100
AcDbEntity
 8
Layer8
100
AcDbLine
 39
0.25
 370
106
 10
156.0155
 20
461.698327832031
 30
0.0
 11
156.2135
 21
463.216327832031
 31
0.0
 0
LINE
 5
172
100
AcDbEntity
 8
Layer8
100
AcDbLine
 39
0.25
 370
106
 10
156.2135
 20
463.216327832031
 30
0.0
 11
156.5375
 21
463.465327832031
 31
0.0
 0
LINE
 5
173
100
AcDbEntity
 8
Layer8
100
AcDbLine
 39
0.25
 370
106
 10
156.5375
 20
463.465327832031
 30
0.0
 11
161.7375
 21
463.465327832031
 31
0.0
 0
LINE
 5
174
100
AcDbEntity
 8
Layer8
100
AcDbLine
 39
0.25
 370
106
 10
161.7375
 20
463.465327832031
 30
0.0
 11
162.0635
 21
463.216327832031
 31
0.0
 0
LINE
 5
175
100
AcDbEntity
 8
Layer8
100
AcDbLine
 39
0.25
 370
106
 10
162.0635
 20
463.216327832031
 30
0.0
 11
162.2495
 21
461.698327832031
 31
0.0
 0
LINE
 5
176
100
AcDbEntity
 8
Layer8
100
AcDbLine
 39
0.25
 370
106
 10
162.2495
 20
461.698327832031
 30
0.0
 11
156.0155
 21
461.698327832031
 31
0.0
 0
LWPOLYLINE
 5
177
100
AcDbEntity
 8
Layer8
100
AcDbPolyline
 39
0.25
 370
106
 90
5              
 70
 1
 43
0.0
 10
109.0505
 20
437.701327832031
 10
103.8475
 20
437.701327832031
 10
103.8475
 20
446.361327832031
 10
109.0505
 20
446.361327832031
 10
109.0505
 20
437.701327832031
 0
LWPOLYLINE
 5
178
100
AcDbEntity
 8
Layer8
100
AcDbPolyline
 39
0.25
 370
106
 90
5              
 70
 1
 43
0.0
 10
109.1015
 20
425.521327832031
 10
103.7855
 20
425.521327832031
 10
103.7855
 20
434.229327832031
 10
109.1015
 20
434.229327832031
 10
109.1015
 20
425.521327832031
 0
LINE
 5
179
100
AcDbEntity
 8
Layer8
100
AcDbLine
 39
0.25
 370
106
 10
162.0635
 20
460.180327832031
 30
0.0
 11
161.7875
 21
459.995327832031
 31
0.0
 0
LINE
 5
17A
100
AcDbEntity
 8
Layer8
100
AcDbLine
 39
0.25
 370
106
 10
161.7875
 20
459.995327832031
 30
0.0
 11
156.4745
 21
459.995327832031
 31
0.0
 0
LINE
 5
17B
100
AcDbEntity
 8
Layer8
100
AcDbLine
 39
0.25
 370
106
 10
156.4745
 20
459.995327832031
 30
0.0
 11
156.2135
 21
460.180327832031
 31
0.0
 0
LINE
 5
17C
100
AcDbEntity
 8
Layer8
100
AcDbLine
 39
0.25
 370
106
 10
156.2135
 20
460.180327832031
 30
0.0
 11
156.0155
 21
461.698327832031
 31
0.0
 0
LINE
 5
17D
100
AcDbEntity
 8
Layer8
100
AcDbLine
 39
0.25
 370
106
 10
156.0155
 20
461.698327832031
 30
0.0
 11
162.2495
 21
461.698327832031
 31
0.0
 0
LINE
 5
17E
100
AcDbEntity
 8
Layer8
100
AcDbLine
 39
0.25
 370
106
 10
162.2495
 20
461.698327832031
 30
0.0
 11
162.0635
 21
460.180327832031
 31
0.0
 0
LINE
 5
17F
100
AcDbEntity
 8
Layer8
100
AcDbLine
 39
0.25
 370
106
 10
103.3275
 20
435.934327832031
 30
0.0
 11
103.5275
 21
437.452327832031
 31
0.0
 0
LINE
 5
180
100
AcDbEntity
 8
Layer8
100
AcDbLine
 39
0.25
 370
106
 10
103.5275
 20
437.452327832031
 30
0.0
 11
103.8515
 21
437.701327832031
 31
0.0
 0
LINE
 5
181
100
AcDbEntity
 8
Layer8
100
AcDbLine
 39
0.25
 370
106
 10
103.8515
 20
437.701327832031
 30
0.0
 11
109.0505
 21
437.701327832031
 31
0.0
 0
LINE
 5
182
100
AcDbEntity
 8
Layer8
100
AcDbLine
 39
0.25
 370
106
 10
109.0505
 20
437.701327832031
 30
0.0
 11
109.3745
 21
437.452327832031
 31
0.0
 0
LINE
 5
183
100
AcDbEntity
 8
Layer8
100
AcDbLine
 39
0.25
 370
106
 10
109.3745
 20
437.452327832031
 30
0.0
 11
109.5635
 21
435.934327832031
 31
0.0
 0
LINE
 5
184
100
AcDbEntity
 8
Layer8
100
AcDbLine
 39
0.25
 370
106
 10
109.5635
 20
435.934327832031
 30
0.0
 11
103.3275
 21
435.934327832031
 31
0.0
 0
LWPOLYLINE
 5
185
100
AcDbEntity
 8
Layer8
100
AcDbPolyline
 39
0.25
 370
106
 90
5              
 70
 1
 43
0.0
 10
83.4325
 20
437.701327832031
 10
78.2445
 20
437.701327832031
 10
78.2445
 20
446.361327832031
 10
83.4325
 20
446.361327832031
 10
83.4325
 20
437.701327832031
 0
LWPOLYLINE
 5
186
100
AcDbEntity
 8
Layer8
100
AcDbPolyline
 39
0.25
 370
106
 90
5              
 70
 1
 43
0.0
 10
83.4935
 20
425.521327832031
 10
78.1775
 20
425.521327832031
 10
78.1775
 20
434.229327832031
 10
83.4935
 20
434.229327832031
 10
83.4935
 20
425.521327832031
 0
LINE
 5
187
100
AcDbEntity
 8
Layer8
100
AcDbLine
 39
0.25
 370
106
 10
109.3985
 20
434.602327832031
 30
0.0
 11
109.3745
 21
434.428327832031
 31
0.0
 0
LINE
 5
188
100
AcDbEntity
 8
Layer8
100
AcDbLine
 39
0.25
 370
106
 10
109.3745
 20
434.428327832031
 30
0.0
 11
109.1135
 21
434.229327832031
 31
0.0
 0
LINE
 5
189
100
AcDbEntity
 8
Layer8
100
AcDbLine
 39
0.25
 370
106
 10
109.1135
 20
434.229327832031
 30
0.0
 11
103.7885
 21
434.229327832031
 31
0.0
 0
LINE
 5
18A
100
AcDbEntity
 8
Layer8
100
AcDbLine
 39
0.25
 370
106
 10
103.7885
 20
434.229327832031
 30
0.0
 11
103.5275
 21
434.428327832031
 31
0.0
 0
LINE
 5
18B
100
AcDbEntity
 8
Layer8
100
AcDbLine
 39
0.25
 370
106
 10
103.5275
 20
434.428327832031
 30
0.0
 11
103.3275
 21
435.934327832031
 31
0.0
 0
LINE
 5
18C
100
AcDbEntity
 8
Layer8
100
AcDbLine
 39
0.25
 370
106
 10
103.3275
 20
435.934327832031
 30
0.0
 11
109.5635
 21
435.934327832031
 31
0.0
 0
LINE
 5
18D
100
AcDbEntity
 8
Layer8
100
AcDbLine
 39
0.25
 370
106
 10
109.5635
 20
435.934327832031
 30
0.0
 11
109.3985
 21
434.602327832031
 31
0.0
 0
LINE
 5
18E
100
AcDbEntity
 8
Layer8
100
AcDbLine
 39
0.25
 370
106
 10
77.7195
 20
435.934327832031
 30
0.0
 11
77.9165
 21
437.452327832031
 31
0.0
 0
LINE
 5
18F
100
AcDbEntity
 8
Layer8
100
AcDbLine
 39
0.25
 370
106
 10
77.9165
 20
437.452327832031
 30
0.0
 11
78.2425
 21
437.701327832031
 31
0.0
 0
LINE
 5
190
100
AcDbEntity
 8
Layer8
100
AcDbLine
 39
0.25
 370
106
 10
78.2425
 20
437.701327832031
 30
0.0
 11
83.4435
 21
437.701327832031
 31
0.0
 0
LINE
 5
191
100
AcDbEntity
 8
Layer8
100
AcDbLine
 39
0.25
 370
106
 10
83.4435
 20
437.701327832031
 30
0.0
 11
83.7665
 21
437.452327832031
 31
0.0
 0
LINE
 5
192
100
AcDbEntity
 8
Layer8
100
AcDbLine
 39
0.25
 370
106
 10
83.7665
 20
437.452327832031
 30
0.0
 11
83.9525
 21
435.934327832031
 31
0.0
 0
LINE
 5
193
100
AcDbEntity
 8
Layer8
100
AcDbLine
 39
0.25
 370
106
 10
83.9525
 20
435.934327832031
 30
0.0
 11
77.7195
 21
435.934327832031
 31
0.0
 0
LWPOLYLINE
 5
194
100
AcDbEntity
 8
Layer8
100
AcDbPolyline
 39
0.25
 370
106
 90
5              
 70
 1
 43
0.0
 10
83.4325
 20
386.208327832031
 10
78.2445
 20
386.208327832031
 10
78.2445
 20
394.853327832031
 10
83.4325
 20
394.853327832031
 10
83.4325
 20
386.208327832031
 0
LWPOLYLINE
 5
195
100
AcDbEntity
 8
Layer8
100
AcDbPolyline
 39
0.25
 370
106
 90
5              
 70
 1
 43
0.0
 10
83.4935
 20
374.029327832031
 10
78.1775
 20
374.029327832031
 10
78.1775
 20
382.737327832031
 10
83.4935
 20
382.737327832031
 10
83.4935
 20
374.029327832031
 0
LINE
 5
196
100
AcDbEntity
 8
Layer8
100
AcDbLine
 39
0.25
 370
106
 10
83.7905
 20
434.602327832031
 30
0.0
 11
83.7665
 21
434.428327832031
 31
0.0
 0
LINE
 5
197
100
AcDbEntity
 8
Layer8
100
AcDbLine
 39
0.25
 370
106
 10
83.7665
 20
434.428327832031
 30
0.0
 11
83.4935
 21
434.229327832031
 31
0.0
 0
LINE
 5
198
100
AcDbEntity
 8
Layer8
100
AcDbLine
 39
0.25
 370
106
 10
83.4935
 20
434.229327832031
 30
0.0
 11
78.1775
 21
434.229327832031
 31
0.0
 0
LINE
 5
199
100
AcDbEntity
 8
Layer8
100
AcDbLine
 39
0.25
 370
106
 10
78.1775
 20
434.229327832031
 30
0.0
 11
77.9165
 21
434.428327832031
 31
0.0
 0
LINE
 5
19A
100
AcDbEntity
 8
Layer8
100
AcDbLine
 39
0.25
 370
106
 10
77.9165
 20
434.428327832031
 30
0.0
 11
77.7195
 21
435.934327832031
 31
0.0
 0
LINE
 5
19B
100
AcDbEntity
 8
Layer8
100
AcDbLine
 39
0.25
 370
106
 10
77.7195
 20
435.934327832031
 30
0.0
 11
83.9525
 21
435.934327832031
 31
0.0
 0
LINE
 5
19C
100
AcDbEntity
 8
Layer8
100
AcDbLine
 39
0.25
 370
106
 10
83.9525
 20
435.934327832031
 30
0.0
 11
83.7905
 21
434.602327832031
 31
0.0
 0
LINE
 5
19D
100
AcDbEntity
 8
Layer8
100
AcDbLine
 39
0.25
 370
106
 10
77.7195
 20
384.442327832031
 30
0.0
 11
77.9165
 21
385.960327832031
 31
0.0
 0
LINE
 5
19E
100
AcDbEntity
 8
Layer8
100
AcDbLine
 39
0.25
 370
106
 10
77.9165
 20
385.960327832031
 30
0.0
 11
78.2425
 21
386.208327832031
 31
0.0
 0
LINE
 5
19F
100
AcDbEntity
 8
Layer8
100
AcDbLine
 39
0.25
 370
106
 10
78.2425
 20
386.208327832031
 30
0.0
 11
83.4435
 21
386.208327832031
 31
0.0
 0
LINE
 5
1A0
100
AcDbEntity
 8
Layer8
100
AcDbLine
 39
0.25
 370
106
 10
83.4435
 20
386.208327832031
 30
0.0
 11
83.7665
 21
385.960327832031
 31
0.0
 0
LINE
 5
1A1
100
AcDbEntity
 8
Layer8
100
AcDbLine
 39
0.25
 370
106
 10
83.7665
 20
385.960327832031
 30
0.0
 11
83.9525
 21
384.442327832031
 31
0.0
 0
LINE
 5
1A2
100
AcDbEntity
 8
Layer8
100
AcDbLine
 39
0.25
 370
106
 10
83.9525
 20
384.442327832031
 30
0.0
 11
77.7195
 21
384.442327832031
 31
0.0
 0
LWPOLYLINE
 5
1A3
100
AcDbEntity
 8
Layer8
100
AcDbPolyline
 39
0.25
 370
106
 90
5              
 70
 1
 43
0.0
 10
83.4325
 20
411.923327832031
 10
78.2445
 20
411.923327832031
 10
78.2445
 20
420.569327832031
 10
83.4325
 20
420.569327832031
 10
83.4325
 20
411.923327832031
 0
LWPOLYLINE
 5
1A4
100
AcDbEntity
 8
Layer8
100
AcDbPolyline
 39
0.25
 370
106
 90
5              
 70
 1
 43
0.0
 10
83.4935
 20
399.731327832031
 10
78.1775
 20
399.731327832031
 10
78.1775
 20
408.452327832031
 10
83.4935
 20
408.452327832031
 10
83.4935
 20
399.731327832031
 0
LINE
 5
1A5
100
AcDbEntity
 8
Layer8
100
AcDbLine
 39
0.25
 370
106
 10
83.7905
 20
383.121327832031
 30
0.0
 11
83.7665
 21
382.936327832031
 31
0.0
 0
LINE
 5
1A6
100
AcDbEntity
 8
Layer8
100
AcDbLine
 39
0.25
 370
106
 10
83.7665
 20
382.936327832031
 30
0.0
 11
83.4935
 21
382.737327832031
 31
0.0
 0
LINE
 5
1A7
100
AcDbEntity
 8
Layer8
100
AcDbLine
 39
0.25
 370
106
 10
83.4935
 20
382.737327832031
 30
0.0
 11
78.1775
 21
382.737327832031
 31
0.0
 0
LINE
 5
1A8
100
AcDbEntity
 8
Layer8
100
AcDbLine
 39
0.25
 370
106
 10
78.1775
 20
382.737327832031
 30
0.0
 11
77.9165
 21
382.936327832031
 31
0.0
 0
LINE
 5
1A9
100
AcDbEntity
 8
Layer8
100
AcDbLine
 39
0.25
 370
106
 10
77.9165
 20
382.936327832031
 30
0.0
 11
77.7195
 21
384.442327832031
 31
0.0
 0
LINE
 5
1AA
100
AcDbEntity
 8
Layer8
100
AcDbLine
 39
0.25
 370
106
 10
77.7195
 20
384.442327832031
 30
0.0
 11
83.9525
 21
384.442327832031
 31
0.0
 0
LINE
 5
1AB
100
AcDbEntity
 8
Layer8
100
AcDbLine
 39
0.25
 370
106
 10
83.9525
 20
384.442327832031
 30
0.0
 11
83.7905
 21
383.121327832031
 31
0.0
 0
LINE
 5
1AC
100
AcDbEntity
 8
Layer8
100
AcDbLine
 39
0.25
 370
106
 10
77.7195
 20
410.155327832031
 30
0.0
 11
77.9165
 21
411.674327832031
 31
0.0
 0
LINE
 5
1AD
100
AcDbEntity
 8
Layer8
100
AcDbLine
 39
0.25
 370
106
 10
77.9165
 20
411.674327832031
 30
0.0
 11
78.2425
 21
411.923327832031
 31
0.0
 0
LINE
 5
1AE
100
AcDbEntity
 8
Layer8
100
AcDbLine
 39
0.25
 370
106
 10
78.2425
 20
411.923327832031
 30
0.0
 11
83.4435
 21
411.923327832031
 31
0.0
 0
LINE
 5
1AF
100
AcDbEntity
 8
Layer8
100
AcDbLine
 39
0.25
 370
106
 10
83.4435
 20
411.923327832031
 30
0.0
 11
83.7665
 21
411.674327832031
 31
0.0
 0
LINE
 5
1B0
100
AcDbEntity
 8
Layer8
100
AcDbLine
 39
0.25
 370
106
 10
83.7665
 20
411.674327832031
 30
0.0
 11
83.9525
 21
410.155327832031
 31
0.0
 0
LINE
 5
1B1
100
AcDbEntity
 8
Layer8
100
AcDbLine
 39
0.25
 370
106
 10
83.9525
 20
410.155327832031
 30
0.0
 11
77.7195
 21
410.155327832031
 31
0.0
 0
LWPOLYLINE
 5
1B2
100
AcDbEntity
 8
Layer8
100
AcDbPolyline
 39
0.25
 370
106
 90
5              
 70
 1
 43
0.0
 10
57.8215
 20
411.923327832031
 10
52.6315
 20
411.923327832031
 10
52.6315
 20
420.569327832031
 10
57.8215
 20
420.569327832031
 10
57.8215
 20
411.923327832031
 0
LWPOLYLINE
 5
1B3
100
AcDbEntity
 8
Layer8
100
AcDbPolyline
 39
0.25
 370
106
 90
5              
 70
 1
 43
0.0
 10
57.8825
 20
399.731327832031
 10
52.5695
 20
399.731327832031
 10
52.5695
 20
408.452327832031
 10
57.8825
 20
408.452327832031
 10
57.8825
 20
399.731327832031
 0
LINE
 5
1B4
100
AcDbEntity
 8
Layer8
100
AcDbLine
 39
0.25
 370
106
 10
83.7905
 20
408.863327832031
 30
0.0
 11
83.7665
 21
408.638327832031
 31
0.0
 0
LINE
 5
1B5
100
AcDbEntity
 8
Layer8
100
AcDbLine
 39
0.25
 370
106
 10
83.7665
 20
408.638327832031
 30
0.0
 11
83.4935
 21
408.451327832031
 31
0.0
 0
LINE
 5
1B6
100
AcDbEntity
 8
Layer8
100
AcDbLine
 39
0.25
 370
106
 10
83.4935
 20
408.451327832031
 30
0.0
 11
78.1775
 21
408.451327832031
 31
0.0
 0
LINE
 5
1B7
100
AcDbEntity
 8
Layer8
100
AcDbLine
 39
0.25
 370
106
 10
78.1775
 20
408.451327832031
 30
0.0
 11
77.9165
 21
408.638327832031
 31
0.0
 0
LINE
 5
1B8
100
AcDbEntity
 8
Layer8
100
AcDbLine
 39
0.25
 370
106
 10
77.9165
 20
408.638327832031
 30
0.0
 11
77.7195
 21
410.155327832031
 31
0.0
 0
LINE
 5
1B9
100
AcDbEntity
 8
Layer8
100
AcDbLine
 39
0.25
 370
106
 10
77.7195
 20
410.155327832031
 30
0.0
 11
83.9525
 21
410.155327832031
 31
0.0
 0
LINE
 5
1BA
100
AcDbEntity
 8
Layer8
100
AcDbLine
 39
0.25
 370
106
 10
83.9525
 20
410.155327832031
 30
0.0
 11
83.7905
 21
408.863327832031
 31
0.0
 0
LINE
 5
1BB
100
AcDbEntity
 8
Layer8
100
AcDbLine
 39
0.25
 370
106
 10
52.1105
 20
410.155327832031
 30
0.0
 11
52.2965
 21
411.674327832031
 31
0.0
 0
LINE
 5
1BC
100
AcDbEntity
 8
Layer8
100
AcDbLine
 39
0.25
 370
106
 10
52.2965
 20
411.674327832031
 30
0.0
 11
52.6325
 21
411.923327832031
 31
0.0
 0
LINE
 5
1BD
100
AcDbEntity
 8
Layer8
100
AcDbLine
 39
0.25
 370
106
 10
52.6325
 20
411.923327832031
 30
0.0
 11
57.8215
 21
411.923327832031
 31
0.0
 0
LINE
 5
1BE
100
AcDbEntity
 8
Layer8
100
AcDbLine
 39
0.25
 370
106
 10
57.8215
 20
411.923327832031
 30
0.0
 11
58.1435
 21
411.674327832031
 31
0.0
 0
LINE
 5
1BF
100
AcDbEntity
 8
Layer8
100
AcDbLine
 39
0.25
 370
106
 10
58.1435
 20
411.674327832031
 30
0.0
 11
58.3445
 21
410.155327832031
 31
0.0
 0
LINE
 5
1C0
100
AcDbEntity
 8
Layer8
100
AcDbLine
 39
0.25
 370
106
 10
58.3445
 20
410.155327832031
 30
0.0
 11
52.1105
 21
410.155327832031
 31
0.0
 0
LWPOLYLINE
 5
1C1
100
AcDbEntity
 8
Layer8
100
AcDbPolyline
 39
0.25
 370
106
 90
5              
 70
 1
 43
0.0
 10
161.7255
 20
437.701327832031
 10
156.5375
 20
437.701327832031
 10
156.5375
 20
446.361327832031
 10
161.7255
 20
446.361327832031
 10
161.7255
 20
437.701327832031
 0
LWPOLYLINE
 5
1C2
100
AcDbEntity
 8
Layer8
100
AcDbPolyline
 39
0.25
 370
106
 90
5              
 70
 1
 43
0.0
 10
161.7875
 20
425.521327832031
 10
156.4715
 20
425.521327832031
 10
156.4715
 20
434.229327832031
 10
161.7875
 20
434.229327832031
 10
161.7875
 20
425.521327832031
 0
LINE
 5
1C3
100
AcDbEntity
 8
Layer8
100
AcDbLine
 39
0.25
 370
106
 10
58.1695
 20
408.863327832031
 30
0.0
 11
58.1435
 21
408.638327832031
 31
0.0
 0
LINE
 5
1C4
100
AcDbEntity
 8
Layer8
100
AcDbLine
 39
0.25
 370
106
 10
58.1435
 20
408.638327832031
 30
0.0
 11
57.8825
 21
408.451327832031
 31
0.0
 0
LINE
 5
1C5
100
AcDbEntity
 8
Layer8
100
AcDbLine
 39
0.25
 370
106
 10
57.8825
 20
408.451327832031
 30
0.0
 11
52.5695
 21
408.451327832031
 31
0.0
 0
LINE
 5
1C6
100
AcDbEntity
 8
Layer8
100
AcDbLine
 39
0.25
 370
106
 10
52.5695
 20
408.451327832031
 30
0.0
 11
52.2965
 21
408.638327832031
 31
0.0
 0
LINE
 5
1C7
100
AcDbEntity
 8
Layer8
100
AcDbLine
 39
0.25
 370
106
 10
52.2965
 20
408.638327832031
 30
0.0
 11
52.1105
 21
410.155327832031
 31
0.0
 0
LINE
 5
1C8
100
AcDbEntity
 8
Layer8
100
AcDbLine
 39
0.25
 370
106
 10
52.1105
 20
410.155327832031
 30
0.0
 11
58.3445
 21
410.155327832031
 31
0.0
 0
LINE
 5
1C9
100
AcDbEntity
 8
Layer8
100
AcDbLine
 39
0.25
 370
106
 10
58.3445
 20
410.155327832031
 30
0.0
 11
58.1695
 21
408.863327832031
 31
0.0
 0
LINE
 5
1CA
100
AcDbEntity
 8
Layer8
100
AcDbLine
 39
0.25
 370
106
 10
156.0155
 20
435.934327832031
 30
0.0
 11
156.2135
 21
437.452327832031
 31
0.0
 0
LINE
 5
1CB
100
AcDbEntity
 8
Layer8
100
AcDbLine
 39
0.25
 370
106
 10
156.2135
 20
437.452327832031
 30
0.0
 11
156.5375
 21
437.701327832031
 31
0.0
 0
LINE
 5
1CC
100
AcDbEntity
 8
Layer8
100
AcDbLine
 39
0.25
 370
106
 10
156.5375
 20
437.701327832031
 30
0.0
 11
161.7375
 21
437.701327832031
 31
0.0
 0
LINE
 5
1CD
100
AcDbEntity
 8
Layer8
100
AcDbLine
 39
0.25
 370
106
 10
161.7375
 20
437.701327832031
 30
0.0
 11
162.0635
 21
437.452327832031
 31
0.0
 0
LINE
 5
1CE
100
AcDbEntity
 8
Layer8
100
AcDbLine
 39
0.25
 370
106
 10
162.0635
 20
437.452327832031
 30
0.0
 11
162.2495
 21
435.934327832031
 31
0.0
 0
LINE
 5
1CF
100
AcDbEntity
 8
Layer8
100
AcDbLine
 39
0.25
 370
106
 10
162.2495
 20
435.934327832031
 30
0.0
 11
156.0155
 21
435.934327832031
 31
0.0
 0
LWPOLYLINE
 5
1D0
100
AcDbEntity
 8
Layer8
100
AcDbPolyline
 39
0.25
 370
106
 90
5              
 70
 1
 43
0.0
 10
187.3485
 20
437.701327832031
 10
182.1465
 20
437.701327832031
 10
182.1465
 20
446.361327832031
 10
187.3485
 20
446.361327832031
 10
187.3485
 20
437.701327832031
 0
LWPOLYLINE
 5
1D1
100
AcDbEntity
 8
Layer8
100
AcDbPolyline
 39
0.25
 370
106
 90
5              
 70
 1
 43
0.0
 10
187.4105
 20
425.521327832031
 10
182.0825
 20
425.521327832031
 10
182.0825
 20
434.229327832031
 10
187.4105
 20
434.229327832031
 10
187.4105
 20
425.521327832031
 0
LINE
 5
1D2
100
AcDbEntity
 8
Layer8
100
AcDbLine
 39
0.25
 370
106
 10
162.0875
 20
434.602327832031
 30
0.0
 11
162.0635
 21
434.428327832031
 31
0.0
 0
LINE
 5
1D3
100
AcDbEntity
 8
Layer8
100
AcDbLine
 39
0.25
 370
106
 10
162.0635
 20
434.428327832031
 30
0.0
 11
161.7875
 21
434.229327832031
 31
0.0
 0
LINE
 5
1D4
100
AcDbEntity
 8
Layer8
100
AcDbLine
 39
0.25
 370
106
 10
161.7875
 20
434.229327832031
 30
0.0
 11
156.4745
 21
434.229327832031
 31
0.0
 0
LINE
 5
1D5
100
AcDbEntity
 8
Layer8
100
AcDbLine
 39
0.25
 370
106
 10
156.4745
 20
434.229327832031
 30
0.0
 11
156.2135
 21
434.428327832031
 31
0.0
 0
LINE
 5
1D6
100
AcDbEntity
 8
Layer8
100
AcDbLine
 39
0.25
 370
106
 10
156.2135
 20
434.428327832031
 30
0.0
 11
156.0155
 21
435.934327832031
 31
0.0
 0
LINE
 5
1D7
100
AcDbEntity
 8
Layer8
100
AcDbLine
 39
0.25
 370
106
 10
156.0155
 20
435.934327832031
 30
0.0
 11
162.2495
 21
435.934327832031
 31
0.0
 0
LINE
 5
1D8
100
AcDbEntity
 8
Layer8
100
AcDbLine
 39
0.25
 370
106
 10
162.2495
 20
435.934327832031
 30
0.0
 11
162.0875
 21
434.602327832031
 31
0.0
 0
LINE
 5
1D9
100
AcDbEntity
 8
Layer8
100
AcDbLine
 39
0.25
 370
106
 10
181.6235
 20
435.934327832031
 30
0.0
 11
181.8245
 21
437.452327832031
 31
0.0
 0
LINE
 5
1DA
100
AcDbEntity
 8
Layer8
100
AcDbLine
 39
0.25
 370
106
 10
181.8245
 20
437.452327832031
 30
0.0
 11
182.1475
 21
437.701327832031
 31
0.0
 0
LINE
 5
1DB
100
AcDbEntity
 8
Layer8
100
AcDbLine
 39
0.25
 370
106
 10
182.1475
 20
437.701327832031
 30
0.0
 11
187.3485
 21
437.701327832031
 31
0.0
 0
LINE
 5
1DC
100
AcDbEntity
 8
Layer8
100
AcDbLine
 39
0.25
 370
106
 10
187.3485
 20
437.701327832031
 30
0.0
 11
187.6715
 21
437.452327832031
 31
0.0
 0
LINE
 5
1DD
100
AcDbEntity
 8
Layer8
100
AcDbLine
 39
0.25
 370
106
 10
187.6715
 20
437.452327832031
 30
0.0
 11
187.8695
 21
435.934327832031
 31
0.0
 0
LINE
 5
1DE
100
AcDbEntity
 8
Layer8
100
AcDbLine
 39
0.25
 370
106
 10
187.8695
 20
435.934327832031
 30
0.0
 11
181.6235
 21
435.934327832031
 31
0.0
 0
LWPOLYLINE
 5
1DF
100
AcDbEntity
 8
Layer8
100
AcDbPolyline
 39
0.25
 370
106
 90
5              
 70
 1
 43
0.0
 10
187.3485
 20
386.208327832031
 10
182.1465
 20
386.208327832031
 10
182.1465
 20
394.853327832031
 10
187.3485
 20
394.853327832031
 10
187.3485
 20
386.208327832031
 0
LWPOLYLINE
 5
1E0
100
AcDbEntity
 8
Layer8
100
AcDbPolyline
 39
0.25
 370
106
 90
5              
 70
 1
 43
0.0
 10
187.4105
 20
374.029327832031
 10
182.0825
 20
374.029327832031
 10
182.0825
 20
382.737327832031
 10
187.4105
 20
382.737327832031
 10
187.4105
 20
374.029327832031
 0
LINE
 5
1E1
100
AcDbEntity
 8
Layer8
100
AcDbLine
 39
0.25
 370
106
 10
187.6715
 20
434.428327832031
 30
0.0
 11
187.4105
 21
434.229327832031
 31
0.0
 0
LINE
 5
1E2
100
AcDbEntity
 8
Layer8
100
AcDbLine
 39
0.25
 370
106
 10
187.4105
 20
434.229327832031
 30
0.0
 11
182.0835
 21
434.229327832031
 31
0.0
 0
LINE
 5
1E3
100
AcDbEntity
 8
Layer8
100
AcDbLine
 39
0.25
 370
106
 10
182.0835
 20
434.229327832031
 30
0.0
 11
181.8245
 21
434.428327832031
 31
0.0
 0
LINE
 5
1E4
100
AcDbEntity
 8
Layer8
100
AcDbLine
 39
0.25
 370
106
 10
181.8245
 20
434.428327832031
 30
0.0
 11
181.6235
 21
435.934327832031
 31
0.0
 0
LINE
 5
1E5
100
AcDbEntity
 8
Layer8
100
AcDbLine
 39
0.25
 370
106
 10
181.6235
 20
435.934327832031
 30
0.0
 11
187.8695
 21
435.934327832031
 31
0.0
 0
LINE
 5
1E6
100
AcDbEntity
 8
Layer8
100
AcDbLine
 39
0.25
 370
106
 10
187.8695
 20
435.934327832031
 30
0.0
 11
187.6715
 21
434.428327832031
 31
0.0
 0
LINE
 5
1E7
100
AcDbEntity
 8
Layer8
100
AcDbLine
 39
0.25
 370
106
 10
181.6235
 20
384.442327832031
 30
0.0
 11
181.8245
 21
385.960327832031
 31
0.0
 0
LINE
 5
1E8
100
AcDbEntity
 8
Layer8
100
AcDbLine
 39
0.25
 370
106
 10
181.8245
 20
385.960327832031
 30
0.0
 11
182.1475
 21
386.208327832031
 31
0.0
 0
LINE
 5
1E9
100
AcDbEntity
 8
Layer8
100
AcDbLine
 39
0.25
 370
106
 10
182.1475
 20
386.208327832031
 30
0.0
 11
187.3485
 21
386.208327832031
 31
0.0
 0
LINE
 5
1EA
100
AcDbEntity
 8
Layer8
100
AcDbLine
 39
0.25
 370
106
 10
187.3485
 20
386.208327832031
 30
0.0
 11
187.6715
 21
385.960327832031
 31
0.0
 0
LINE
 5
1EB
100
AcDbEntity
 8
Layer8
100
AcDbLine
 39
0.25
 370
106
 10
187.6715
 20
385.960327832031
 30
0.0
 11
187.8695
 21
384.442327832031
 31
0.0
 0
LINE
 5
1EC
100
AcDbEntity
 8
Layer8
100
AcDbLine
 39
0.25
 370
106
 10
187.8695
 20
384.442327832031
 30
0.0
 11
181.6235
 21
384.442327832031
 31
0.0
 0
LWPOLYLINE
 5
1ED
100
AcDbEntity
 8
Layer8
100
AcDbPolyline
 39
0.25
 370
106
 90
5              
 70
 1
 43
0.0
 10
187.3485
 20
411.923327832031
 10
182.1465
 20
411.923327832031
 10
182.1465
 20
420.569327832031
 10
187.3485
 20
420.569327832031
 10
187.3485
 20
411.923327832031
 0
LWPOLYLINE
 5
1EE
100
AcDbEntity
 8
Layer8
100
AcDbPolyline
 39
0.25
 370
106
 90
5              
 70
 1
 43
0.0
 10
187.4105
 20
399.731327832031
 10
182.0825
 20
399.731327832031
 10
182.0825
 20
408.452327832031
 10
187.4105
 20
408.452327832031
 10
187.4105
 20
399.731327832031
 0
LINE
 5
1EF
100
AcDbEntity
 8
Layer8
100
AcDbLine
 39
0.25
 370
106
 10
187.6715
 20
382.924327832031
 30
0.0
 11
187.4105
 21
382.737327832031
 31
0.0
 0
LINE
 5
1F0
100
AcDbEntity
 8
Layer8
100
AcDbLine
 39
0.25
 370
106
 10
187.4105
 20
382.737327832031
 30
0.0
 11
182.0835
 21
382.737327832031
 31
0.0
 0
LINE
 5
1F1
100
AcDbEntity
 8
Layer8
100
AcDbLine
 39
0.25
 370
106
 10
182.0835
 20
382.737327832031
 30
0.0
 11
181.8245
 21
382.924327832031
 31
0.0
 0
LINE
 5
1F2
100
AcDbEntity
 8
Layer8
100
AcDbLine
 39
0.25
 370
106
 10
181.8245
 20
382.924327832031
 30
0.0
 11
181.6235
 21
384.442327832031
 31
0.0
 0
LINE
 5
1F3
100
AcDbEntity
 8
Layer8
100
AcDbLine
 39
0.25
 370
106
 10
181.6235
 20
384.442327832031
 30
0.0
 11
187.8695
 21
384.442327832031
 31
0.0
 0
LINE
 5
1F4
100
AcDbEntity
 8
Layer8
100
AcDbLine
 39
0.25
 370
106
 10
187.8695
 20
384.442327832031
 30
0.0
 11
187.6715
 21
382.924327832031
 31
0.0
 0
LINE
 5
1F5
100
AcDbEntity
 8
Layer8
100
AcDbLine
 39
0.25
 370
106
 10
181.6235
 20
410.155327832031
 30
0.0
 11
181.8245
 21
411.674327832031
 31
0.0
 0
LINE
 5
1F6
100
AcDbEntity
 8
Layer8
100
AcDbLine
 39
0.25
 370
106
 10
181.8245
 20
411.674327832031
 30
0.0
 11
182.1475
 21
411.923327832031
 31
0.0
 0
LINE
 5
1F7
100
AcDbEntity
 8
Layer8
100
AcDbLine
 39
0.25
 370
106
 10
182.1475
 20
411.923327832031
 30
0.0
 11
187.3485
 21
411.923327832031
 31
0.0
 0
LINE
 5
1F8
100
AcDbEntity
 8
Layer8
100
AcDbLine
 39
0.25
 370
106
 10
187.3485
 20
411.923327832031
 30
0.0
 11
187.6715
 21
411.674327832031
 31
0.0
 0
LINE
 5
1F9
100
AcDbEntity
 8
Layer8
100
AcDbLine
 39
0.25
 370
106
 10
187.6715
 20
411.674327832031
 30
0.0
 11
187.8695
 21
410.155327832031
 31
0.0
 0
LINE
 5
1FA
100
AcDbEntity
 8
Layer8
100
AcDbLine
 39
0.25
 370
106
 10
187.8695
 20
410.155327832031
 30
0.0
 11
181.6235
 21
410.155327832031
 31
0.0
 0
LWPOLYLINE
 5
1FB
100
AcDbEntity
 8
Layer8
100
AcDbPolyline
 39
0.25
 370
106
 90
5              
 70
 1
 43
0.0
 10
212.9565
 20
411.923327832031
 10
207.7545
 20
411.923327832031
 10
207.7545
 20
420.569327832031
 10
212.9565
 20
420.569327832031
 10
212.9565
 20
411.923327832031
 0
LWPOLYLINE
 5
1FC
100
AcDbEntity
 8
Layer8
100
AcDbPolyline
 39
0.25
 370
106
 90
5              
 70
 1
 43
0.0
 10
213.0185
 20
399.743327832031
 10
207.6935
 20
399.743327832031
 10
207.6935
 20
408.452327832031
 10
213.0185
 20
408.452327832031
 10
213.0185
 20
399.743327832031
 0
LINE
 5
1FD
100
AcDbEntity
 8
Layer8
100
AcDbLine
 39
0.25
 370
106
 10
187.6955
 20
408.863327832031
 30
0.0
 11
187.6715
 21
408.638327832031
 31
0.0
 0
LINE
 5
1FE
100
AcDbEntity
 8
Layer8
100
AcDbLine
 39
0.25
 370
106
 10
187.6715
 20
408.638327832031
 30
0.0
 11
187.4105
 21
408.451327832031
 31
0.0
 0
LINE
 5
1FF
100
AcDbEntity
 8
Layer8
100
AcDbLine
 39
0.25
 370
106
 10
187.4105
 20
408.451327832031
 30
0.0
 11
182.0835
 21
408.451327832031
 31
0.0
 0
LINE
 5
200
100
AcDbEntity
 8
Layer8
100
AcDbLine
 39
0.25
 370
106
 10
182.0835
 20
408.451327832031
 30
0.0
 11
181.8245
 21
408.638327832031
 31
0.0
 0
LINE
 5
201
100
AcDbEntity
 8
Layer8
100
AcDbLine
 39
0.25
 370
106
 10
181.8245
 20
408.638327832031
 30
0.0
 11
181.6235
 21
410.155327832031
 31
0.0
 0
LINE
 5
202
100
AcDbEntity
 8
Layer8
100
AcDbLine
 39
0.25
 370
106
 10
181.6235
 20
410.155327832031
 30
0.0
 11
187.8695
 21
410.155327832031
 31
0.0
 0
LINE
 5
203
100
AcDbEntity
 8
Layer8
100
AcDbLine
 39
0.25
 370
106
 10
187.8695
 20
410.155327832031
 30
0.0
 11
187.6955
 21
408.863327832031
 31
0.0
 0
LINE
 5
204
100
AcDbEntity
 8
Layer8
100
AcDbLine
 39
0.25
 370
106
 10
207.2325
 20
410.155327832031
 30
0.0
 11
207.4325
 21
411.674327832031
 31
0.0
 0
LINE
 5
205
100
AcDbEntity
 8
Layer8
100
AcDbLine
 39
0.25
 370
106
 10
207.4325
 20
411.674327832031
 30
0.0
 11
207.7565
 21
411.923327832031
 31
0.0
 0
LINE
 5
206
100
AcDbEntity
 8
Layer8
100
AcDbLine
 39
0.25
 370
106
 10
207.7565
 20
411.923327832031
 30
0.0
 11
212.9565
 21
411.923327832031
 31
0.0
 0
LINE
 5
207
100
AcDbEntity
 8
Layer8
100
AcDbLine
 39
0.25
 370
106
 10
212.9565
 20
411.923327832031
 30
0.0
 11
213.2805
 21
411.674327832031
 31
0.0
 0
LINE
 5
208
100
AcDbEntity
 8
Layer8
100
AcDbLine
 39
0.25
 370
106
 10
213.2805
 20
411.674327832031
 30
0.0
 11
213.4775
 21
410.155327832031
 31
0.0
 0
LINE
 5
209
100
AcDbEntity
 8
Layer8
100
AcDbLine
 39
0.25
 370
106
 10
213.4775
 20
410.155327832031
 30
0.0
 11
207.2325
 21
410.155327832031
 31
0.0
 0
LWPOLYLINE
 5
20A
100
AcDbEntity
 8
Layer8
100
AcDbPolyline
 39
0.25
 370
106
 90
5              
 70
 1
 43
0.0
 10
109.0505
 20
386.208327832031
 10
103.8475
 20
386.208327832031
 10
103.8475
 20
394.853327832031
 10
109.0505
 20
394.853327832031
 10
109.0505
 20
386.208327832031
 0
LWPOLYLINE
 5
20B
100
AcDbEntity
 8
Layer8
100
AcDbPolyline
 39
0.25
 370
106
 90
5              
 70
 1
 43
0.0
 10
109.1015
 20
374.029327832031
 10
103.7855
 20
374.029327832031
 10
103.7855
 20
382.737327832031
 10
109.1015
 20
382.737327832031
 10
109.1015
 20
374.029327832031
 0
LINE
 5
20C
100
AcDbEntity
 8
Layer8
100
AcDbLine
 39
0.25
 370
106
 10
213.2805
 20
408.638327832031
 30
0.0
 11
213.0185
 21
408.451327832031
 31
0.0
 0
LINE
 5
20D
100
AcDbEntity
 8
Layer8
100
AcDbLine
 39
0.25
 370
106
 10
213.0185
 20
408.451327832031
 30
0.0
 11
207.6945
 21
408.451327832031
 31
0.0
 0
LINE
 5
20E
100
AcDbEntity
 8
Layer8
100
AcDbLine
 39
0.25
 370
106
 10
207.6945
 20
408.451327832031
 30
0.0
 11
207.4325
 21
408.638327832031
 31
0.0
 0
LINE
 5
20F
100
AcDbEntity
 8
Layer8
100
AcDbLine
 39
0.25
 370
106
 10
207.4325
 20
408.638327832031
 30
0.0
 11
207.2325
 21
410.155327832031
 31
0.0
 0
LINE
 5
210
100
AcDbEntity
 8
Layer8
100
AcDbLine
 39
0.25
 370
106
 10
207.2325
 20
410.155327832031
 30
0.0
 11
213.4775
 21
410.155327832031
 31
0.0
 0
LINE
 5
211
100
AcDbEntity
 8
Layer8
100
AcDbLine
 39
0.25
 370
106
 10
213.4775
 20
410.155327832031
 30
0.0
 11
213.2805
 21
408.638327832031
 31
0.0
 0
LINE
 5
212
100
AcDbEntity
 8
Layer8
100
AcDbLine
 39
0.25
 370
106
 10
103.3275
 20
384.442327832031
 30
0.0
 11
103.5275
 21
385.960327832031
 31
0.0
 0
LINE
 5
213
100
AcDbEntity
 8
Layer8
100
AcDbLine
 39
0.25
 370
106
 10
103.5275
 20
385.960327832031
 30
0.0
 11
103.8515
 21
386.208327832031
 31
0.0
 0
LINE
 5
214
100
AcDbEntity
 8
Layer8
100
AcDbLine
 39
0.25
 370
106
 10
103.8515
 20
386.208327832031
 30
0.0
 11
109.0505
 21
386.208327832031
 31
0.0
 0
LINE
 5
215
100
AcDbEntity
 8
Layer8
100
AcDbLine
 39
0.25
 370
106
 10
109.0505
 20
386.208327832031
 30
0.0
 11
109.3745
 21
385.960327832031
 31
0.0
 0
LINE
 5
216
100
AcDbEntity
 8
Layer8
100
AcDbLine
 39
0.25
 370
106
 10
109.3745
 20
385.960327832031
 30
0.0
 11
109.5635
 21
384.442327832031
 31
0.0
 0
LINE
 5
217
100
AcDbEntity
 8
Layer8
100
AcDbLine
 39
0.25
 370
106
 10
109.5635
 20
384.442327832031
 30
0.0
 11
103.3275
 21
384.442327832031
 31
0.0
 0
LWPOLYLINE
 5
218
100
AcDbEntity
 8
Layer8
100
AcDbPolyline
 39
0.25
 370
106
 90
5              
 70
 1
 43
0.0
 10
161.7255
 20
386.208327832031
 10
156.5375
 20
386.208327832031
 10
156.5375
 20
394.853327832031
 10
161.7255
 20
394.853327832031
 10
161.7255
 20
386.208327832031
 0
LWPOLYLINE
 5
219
100
AcDbEntity
 8
Layer8
100
AcDbPolyline
 39
0.25
 370
106
 90
5              
 70
 1
 43
0.0
 10
161.7875
 20
374.029327832031
 10
156.4715
 20
374.029327832031
 10
156.4715
 20
382.737327832031
 10
161.7875
 20
382.737327832031
 10
161.7875
 20
374.029327832031
 0
LINE
 5
21A
100
AcDbEntity
 8
Layer8
100
AcDbLine
 39
0.25
 370
106
 10
109.3985
 20
383.121327832031
 30
0.0
 11
109.3745
 21
382.936327832031
 31
0.0
 0
LINE
 5
21B
100
AcDbEntity
 8
Layer8
100
AcDbLine
 39
0.25
 370
106
 10
109.3745
 20
382.936327832031
 30
0.0
 11
109.1135
 21
382.737327832031
 31
0.0
 0
LINE
 5
21C
100
AcDbEntity
 8
Layer8
100
AcDbLine
 39
0.25
 370
106
 10
109.1135
 20
382.737327832031
 30
0.0
 11
103.7885
 21
382.737327832031
 31
0.0
 0
LINE
 5
21D
100
AcDbEntity
 8
Layer8
100
AcDbLine
 39
0.25
 370
106
 10
103.7885
 20
382.737327832031
 30
0.0
 11
103.5275
 21
382.936327832031
 31
0.0
 0
LINE
 5
21E
100
AcDbEntity
 8
Layer8
100
AcDbLine
 39
0.25
 370
106
 10
103.5275
 20
382.936327832031
 30
0.0
 11
103.3275
 21
384.442327832031
 31
0.0
 0
LINE
 5
21F
100
AcDbEntity
 8
Layer8
100
AcDbLine
 39
0.25
 370
106
 10
103.3275
 20
384.442327832031
 30
0.0
 11
109.5635
 21
384.442327832031
 31
0.0
 0
LINE
 5
220
100
AcDbEntity
 8
Layer8
100
AcDbLine
 39
0.25
 370
106
 10
109.5635
 20
384.442327832031
 30
0.0
 11
109.3985
 21
383.121327832031
 31
0.0
 0
LINE
 5
221
100
AcDbEntity
 8
Layer8
100
AcDbLine
 39
0.25
 370
106
 10
156.0155
 20
384.442327832031
 30
0.0
 11
156.2135
 21
385.960327832031
 31
0.0
 0
LINE
 5
222
100
AcDbEntity
 8
Layer8
100
AcDbLine
 39
0.25
 370
106
 10
156.2135
 20
385.960327832031
 30
0.0
 11
156.5375
 21
386.208327832031
 31
0.0
 0
LINE
 5
223
100
AcDbEntity
 8
Layer8
100
AcDbLine
 39
0.25
 370
106
 10
156.5375
 20
386.208327832031
 30
0.0
 11
161.7375
 21
386.208327832031
 31
0.0
 0
LINE
 5
224
100
AcDbEntity
 8
Layer8
100
AcDbLine
 39
0.25
 370
106
 10
161.7375
 20
386.208327832031
 30
0.0
 11
162.0635
 21
385.960327832031
 31
0.0
 0
LINE
 5
225
100
AcDbEntity
 8
Layer8
100
AcDbLine
 39
0.25
 370
106
 10
162.0635
 20
385.960327832031
 30
0.0
 11
162.2495
 21
384.442327832031
 31
0.0
 0
LINE
 5
226
100
AcDbEntity
 8
Layer8
100
AcDbLine
 39
0.25
 370
106
 10
162.2495
 20
384.442327832031
 30
0.0
 11
156.0155
 21
384.442327832031
 31
0.0
 0
LWPOLYLINE
 5
227
100
AcDbEntity
 8
Layer8
100
AcDbPolyline
 39
0.25
 370
106
 90
5              
 70
 1
 43
0.0
 10
109.0505
 20
360.416327832031
 10
103.8475
 20
360.416327832031
 10
103.8475
 20
369.063327832031
 10
109.0505
 20
369.063327832031
 10
109.0505
 20
360.416327832031
 0
LWPOLYLINE
 5
228
100
AcDbEntity
 8
Layer8
100
AcDbPolyline
 39
0.25
 370
106
 90
5              
 70
 1
 43
0.0
 10
109.1015
 20
348.226327832031
 10
103.7855
 20
348.226327832031
 10
103.7855
 20
356.933327832031
 10
109.1015
 20
356.933327832031
 10
109.1015
 20
348.226327832031
 0
LINE
 5
229
100
AcDbEntity
 8
Layer8
100
AcDbLine
 39
0.25
 370
106
 10
162.0875
 20
383.121327832031
 30
0.0
 11
162.0635
 21
382.936327832031
 31
0.0
 0
LINE
 5
22A
100
AcDbEntity
 8
Layer8
100
AcDbLine
 39
0.25
 370
106
 10
162.0635
 20
382.936327832031
 30
0.0
 11
161.7875
 21
382.737327832031
 31
0.0
 0
LINE
 5
22B
100
AcDbEntity
 8
Layer8
100
AcDbLine
 39
0.25
 370
106
 10
161.7875
 20
382.737327832031
 30
0.0
 11
156.4745
 21
382.737327832031
 31
0.0
 0
LINE
 5
22C
100
AcDbEntity
 8
Layer8
100
AcDbLine
 39
0.25
 370
106
 10
156.4745
 20
382.737327832031
 30
0.0
 11
156.2135
 21
382.936327832031
 31
0.0
 0
LINE
 5
22D
100
AcDbEntity
 8
Layer8
100
AcDbLine
 39
0.25
 370
106
 10
156.2135
 20
382.936327832031
 30
0.0
 11
156.0155
 21
384.442327832031
 31
0.0
 0
LINE
 5
22E
100
AcDbEntity
 8
Layer8
100
AcDbLine
 39
0.25
 370
106
 10
156.0155
 20
384.442327832031
 30
0.0
 11
162.2495
 21
384.442327832031
 31
0.0
 0
LINE
 5
22F
100
AcDbEntity
 8
Layer8
100
AcDbLine
 39
0.25
 370
106
 10
162.2495
 20
384.442327832031
 30
0.0
 11
162.0875
 21
383.121327832031
 31
0.0
 0
LINE
 5
230
100
AcDbEntity
 8
Layer8
100
AcDbLine
 39
0.25
 370
106
 10
103.3275
 20
358.639327832031
 30
0.0
 11
103.5275
 21
360.156327832031
 31
0.0
 0
LINE
 5
231
100
AcDbEntity
 8
Layer8
100
AcDbLine
 39
0.25
 370
106
 10
103.5275
 20
360.156327832031
 30
0.0
 11
103.8515
 21
360.416327832031
 31
0.0
 0
LINE
 5
232
100
AcDbEntity
 8
Layer8
100
AcDbLine
 39
0.25
 370
106
 10
103.8515
 20
360.416327832031
 30
0.0
 11
109.0505
 21
360.416327832031
 31
0.0
 0
LINE
 5
233
100
AcDbEntity
 8
Layer8
100
AcDbLine
 39
0.25
 370
106
 10
109.0505
 20
360.416327832031
 30
0.0
 11
109.3745
 21
360.156327832031
 31
0.0
 0
LINE
 5
234
100
AcDbEntity
 8
Layer8
100
AcDbLine
 39
0.25
 370
106
 10
109.3745
 20
360.156327832031
 30
0.0
 11
109.5635
 21
358.639327832031
 31
0.0
 0
LINE
 5
235
100
AcDbEntity
 8
Layer8
100
AcDbLine
 39
0.25
 370
106
 10
109.5635
 20
358.639327832031
 30
0.0
 11
103.3275
 21
358.639327832031
 31
0.0
 0
LWPOLYLINE
 5
236
100
AcDbEntity
 8
Layer8
100
AcDbPolyline
 39
0.25
 370
106
 90
5              
 70
 1
 43
0.0
 10
161.7255
 20
360.416327832031
 10
156.5375
 20
360.416327832031
 10
156.5375
 20
369.063327832031
 10
161.7255
 20
369.063327832031
 10
161.7255
 20
360.416327832031
 0
LWPOLYLINE
 5
237
100
AcDbEntity
 8
Layer8
100
AcDbPolyline
 39
0.25
 370
106
 90
5              
 70
 1
 43
0.0
 10
161.7875
 20
348.226327832031
 10
156.4715
 20
348.226327832031
 10
156.4715
 20
356.933327832031
 10
161.7875
 20
356.933327832031
 10
161.7875
 20
348.226327832031
 0
LINE
 5
238
100
AcDbEntity
 8
Layer8
100
AcDbLine
 39
0.25
 370
106
 10
109.3985
 20
357.371327832031
 30
0.0
 11
109.3745
 21
357.135327832031
 31
0.0
 0
LINE
 5
239
100
AcDbEntity
 8
Layer8
100
AcDbLine
 39
0.25
 370
106
 10
109.3745
 20
357.135327832031
 30
0.0
 11
109.1135
 21
356.935327832031
 31
0.0
 0
LINE
 5
23A
100
AcDbEntity
 8
Layer8
100
AcDbLine
 39
0.25
 370
106
 10
109.1135
 20
356.935327832031
 30
0.0
 11
103.7885
 21
356.935327832031
 31
0.0
 0
LINE
 5
23B
100
AcDbEntity
 8
Layer8
100
AcDbLine
 39
0.25
 370
106
 10
103.7885
 20
356.935327832031
 30
0.0
 11
103.5275
 21
357.135327832031
 31
0.0
 0
LINE
 5
23C
100
AcDbEntity
 8
Layer8
100
AcDbLine
 39
0.25
 370
106
 10
103.5275
 20
357.135327832031
 30
0.0
 11
103.3275
 21
358.639327832031
 31
0.0
 0
LINE
 5
23D
100
AcDbEntity
 8
Layer8
100
AcDbLine
 39
0.25
 370
106
 10
103.3275
 20
358.639327832031
 30
0.0
 11
109.5635
 21
358.639327832031
 31
0.0
 0
LINE
 5
23E
100
AcDbEntity
 8
Layer8
100
AcDbLine
 39
0.25
 370
106
 10
109.5635
 20
358.639327832031
 30
0.0
 11
109.3985
 21
357.371327832031
 31
0.0
 0
LINE
 5
23F
100
AcDbEntity
 8
Layer8
100
AcDbLine
 39
0.25
 370
106
 10
156.0155
 20
358.639327832031
 30
0.0
 11
156.2135
 21
360.156327832031
 31
0.0
 0
LINE
 5
240
100
AcDbEntity
 8
Layer8
100
AcDbLine
 39
0.25
 370
106
 10
156.2135
 20
360.156327832031
 30
0.0
 11
156.5375
 21
360.416327832031
 31
0.0
 0
LINE
 5
241
100
AcDbEntity
 8
Layer8
100
AcDbLine
 39
0.25
 370
106
 10
156.5375
 20
360.416327832031
 30
0.0
 11
161.7375
 21
360.416327832031
 31
0.0
 0
LINE
 5
242
100
AcDbEntity
 8
Layer8
100
AcDbLine
 39
0.25
 370
106
 10
161.7375
 20
360.416327832031
 30
0.0
 11
162.0635
 21
360.156327832031
 31
0.0
 0
LINE
 5
243
100
AcDbEntity
 8
Layer8
100
AcDbLine
 39
0.25
 370
106
 10
162.0635
 20
360.156327832031
 30
0.0
 11
162.2495
 21
358.639327832031
 31
0.0
 0
LINE
 5
244
100
AcDbEntity
 8
Layer8
100
AcDbLine
 39
0.25
 370
106
 10
162.2495
 20
358.639327832031
 30
0.0
 11
156.0155
 21
358.639327832031
 31
0.0
 0
LINE
 5
245
100
AcDbEntity
 8
Layer8
100
AcDbLine
 39
0.25
 370
106
 10
162.0635
 20
357.135327832031
 30
0.0
 11
161.7875
 21
356.935327832031
 31
0.0
 0
LINE
 5
246
100
AcDbEntity
 8
Layer8
100
AcDbLine
 39
0.25
 370
106
 10
161.7875
 20
356.935327832031
 30
0.0
 11
156.4745
 21
356.935327832031
 31
0.0
 0
LINE
 5
247
100
AcDbEntity
 8
Layer8
100
AcDbLine
 39
0.25
 370
106
 10
156.4745
 20
356.935327832031
 30
0.0
 11
156.2135
 21
357.135327832031
 31
0.0
 0
LINE
 5
248
100
AcDbEntity
 8
Layer8
100
AcDbLine
 39
0.25
 370
106
 10
156.2135
 20
357.135327832031
 30
0.0
 11
156.0155
 21
358.639327832031
 31
0.0
 0
LINE
 5
249
100
AcDbEntity
 8
Layer8
100
AcDbLine
 39
0.25
 370
106
 10
156.0155
 20
358.639327832031
 30
0.0
 11
162.2495
 21
358.639327832031
 31
0.0
 0
LINE
 5
24A
100
AcDbEntity
 8
Layer8
100
AcDbLine
 39
0.25
 370
106
 10
162.2495
 20
358.639327832031
 30
0.0
 11
162.0635
 21
357.135327832031
 31
0.0
 0
LINE
 5
24B
100
AcDbEntity
 8
Layer8
100
AcDbLine
 39
0.25
 370
106
 10
125.552
 20
529.788527832031
 30
0.0
 11
140.237
 21
529.788527832031
 31
0.0
 0
LINE
 5
24C
100
AcDbEntity
 8
Layer8
100
AcDbLine
 39
0.25
 370
106
 10
125.552
 20
533.011527832031
 30
0.0
 11
140.237
 21
533.011527832031
 31
0.0
 0
LINE
 5
24D
100
AcDbEntity
 8
Layer8
100
AcDbLine
 39
0.25
 370
106
 10
125.816
 20
529.522527832031
 30
0.0
 11
139.974
 21
529.522527832031
 31
0.0
 0
LINE
 5
24E
100
AcDbEntity
 8
Layer8
100
AcDbLine
 39
0.25
 370
106
 10
131.892
 20
528.916527832031
 30
0.0
 11
131.892
 21
529.522527832031
 31
0.0
 0
LINE
 5
24F
100
AcDbEntity
 8
Layer8
100
AcDbLine
 39
0.25
 370
106
 10
133.898
 20
528.916527832031
 30
0.0
 11
133.898
 21
529.522527832031
 31
0.0
 0
LINE
 5
250
100
AcDbEntity
 8
Layer8
100
AcDbLine
 39
0.25
 370
106
 10
131.901
 20
528.916527832031
 30
0.0
 11
131.901
 21
529.522527832031
 31
0.0
 0
LINE
 5
251
100
AcDbEntity
 8
Layer8
100
AcDbLine
 39
0.25
 370
106
 10
133.89
 20
528.916527832031
 30
0.0
 11
133.89
 21
529.522527832031
 31
0.0
 0
LINE
 5
252
100
AcDbEntity
 8
Layer8
100
AcDbLine
 39
0.25
 370
106
 10
131.91
 20
528.916527832031
 30
0.0
 11
131.91
 21
529.522527832031
 31
0.0
 0
LINE
 5
253
100
AcDbEntity
 8
Layer8
100
AcDbLine
 39
0.25
 370
106
 10
133.878
 20
528.916527832031
 30
0.0
 11
133.878
 21
529.522527832031
 31
0.0
 0
LINE
 5
254
100
AcDbEntity
 8
Layer8
100
AcDbLine
 39
0.25
 370
106
 10
131.921
 20
528.916527832031
 30
0.0
 11
131.921
 21
529.522527832031
 31
0.0
 0
LINE
 5
255
100
AcDbEntity
 8
Layer8
100
AcDbLine
 39
0.25
 370
106
 10
133.869
 20
528.916527832031
 30
0.0
 11
133.869
 21
529.522527832031
 31
0.0
 0
LINE
 5
256
100
AcDbEntity
 8
Layer8
100
AcDbLine
 39
0.25
 370
106
 10
131.93
 20
528.916527832031
 30
0.0
 11
131.93
 21
529.522527832031
 31
0.0
 0
LINE
 5
257
100
AcDbEntity
 8
Layer8
100
AcDbLine
 39
0.25
 370
106
 10
133.851
 20
528.916527832031
 30
0.0
 11
133.851
 21
529.522527832031
 31
0.0
 0
LINE
 5
258
100
AcDbEntity
 8
Layer8
100
AcDbLine
 39
0.25
 370
106
 10
131.948
 20
528.916527832031
 30
0.0
 11
131.948
 21
529.522527832031
 31
0.0
 0
LINE
 5
259
100
AcDbEntity
 8
Layer8
100
AcDbLine
 39
0.25
 370
106
 10
133.841
 20
528.916527832031
 30
0.0
 11
133.841
 21
529.522527832031
 31
0.0
 0
LINE
 5
25A
100
AcDbEntity
 8
Layer8
100
AcDbLine
 39
0.25
 370
106
 10
131.976
 20
528.916527832031
 30
0.0
 11
131.976
 21
529.522527832031
 31
0.0
 0
LINE
 5
25B
100
AcDbEntity
 8
Layer8
100
AcDbLine
 39
0.25
 370
106
 10
133.812
 20
528.916527832031
 30
0.0
 11
133.812
 21
529.522527832031
 31
0.0
 0
LINE
 5
25C
100
AcDbEntity
 8
Layer8
100
AcDbLine
 39
0.25
 370
106
 10
131.997
 20
528.916527832031
 30
0.0
 11
131.997
 21
529.522527832031
 31
0.0
 0
LINE
 5
25D
100
AcDbEntity
 8
Layer8
100
AcDbLine
 39
0.25
 370
106
 10
133.785
 20
528.916527832031
 30
0.0
 11
133.785
 21
529.522527832031
 31
0.0
 0
LINE
 5
25E
100
AcDbEntity
 8
Layer8
100
AcDbLine
 39
0.25
 370
106
 10
132.032
 20
528.916527832031
 30
0.0
 11
132.032
 21
529.522527832031
 31
0.0
 0
LINE
 5
25F
100
AcDbEntity
 8
Layer8
100
AcDbLine
 39
0.25
 370
106
 10
133.755
 20
528.916527832031
 30
0.0
 11
133.755
 21
529.522527832031
 31
0.0
 0
LINE
 5
260
100
AcDbEntity
 8
Layer8
100
AcDbLine
 39
0.25
 370
106
 10
132.062
 20
528.916527832031
 30
0.0
 11
132.062
 21
529.522527832031
 31
0.0
 0
LINE
 5
261
100
AcDbEntity
 8
Layer8
100
AcDbLine
 39
0.25
 370
106
 10
133.73
 20
528.916527832031
 30
0.0
 11
133.73
 21
529.522527832031
 31
0.0
 0
LINE
 5
262
100
AcDbEntity
 8
Layer8
100
AcDbLine
 39
0.25
 370
106
 10
132.108
 20
528.916527832031
 30
0.0
 11
132.108
 21
529.522527832031
 31
0.0
 0
LINE
 5
263
100
AcDbEntity
 8
Layer8
100
AcDbLine
 39
0.25
 370
106
 10
133.68
 20
528.916527832031
 30
0.0
 11
133.68
 21
529.522527832031
 31
0.0
 0
LINE
 5
264
100
AcDbEntity
 8
Layer8
100
AcDbLine
 39
0.25
 370
106
 10
132.137
 20
528.916527832031
 30
0.0
 11
132.137
 21
529.522527832031
 31
0.0
 0
LINE
 5
265
100
AcDbEntity
 8
Layer8
100
AcDbLine
 39
0.25
 370
106
 10
133.643
 20
528.916527832031
 30
0.0
 11
133.643
 21
529.522527832031
 31
0.0
 0
LINE
 5
266
100
AcDbEntity
 8
Layer8
100
AcDbLine
 39
0.25
 370
106
 10
132.192
 20
528.916527832031
 30
0.0
 11
132.192
 21
529.522527832031
 31
0.0
 0
LINE
 5
267
100
AcDbEntity
 8
Layer8
100
AcDbLine
 39
0.25
 370
106
 10
133.598
 20
528.916527832031
 30
0.0
 11
133.598
 21
529.522527832031
 31
0.0
 0
LINE
 5
268
100
AcDbEntity
 8
Layer8
100
AcDbLine
 39
0.25
 370
106
 10
132.231
 20
528.916527832031
 30
0.0
 11
132.231
 21
529.522527832031
 31
0.0
 0
LINE
 5
269
100
AcDbEntity
 8
Layer8
100
AcDbLine
 39
0.25
 370
106
 10
133.557
 20
528.916527832031
 30
0.0
 11
133.557
 21
529.522527832031
 31
0.0
 0
LINE
 5
26A
100
AcDbEntity
 8
Layer8
100
AcDbLine
 39
0.25
 370
106
 10
132.288
 20
528.916527832031
 30
0.0
 11
132.288
 21
529.522527832031
 31
0.0
 0
LINE
 5
26B
100
AcDbEntity
 8
Layer8
100
AcDbLine
 39
0.25
 370
106
 10
133.502
 20
528.916527832031
 30
0.0
 11
133.502
 21
529.522527832031
 31
0.0
 0
LINE
 5
26C
100
AcDbEntity
 8
Layer8
100
AcDbLine
 39
0.25
 370
106
 10
132.324
 20
528.916527832031
 30
0.0
 11
132.324
 21
529.522527832031
 31
0.0
 0
LINE
 5
26D
100
AcDbEntity
 8
Layer8
100
AcDbLine
 39
0.25
 370
106
 10
133.464
 20
528.916527832031
 30
0.0
 11
133.464
 21
529.522527832031
 31
0.0
 0
LINE
 5
26E
100
AcDbEntity
 8
Layer8
100
AcDbLine
 39
0.25
 370
106
 10
132.392
 20
528.916527832031
 30
0.0
 11
132.392
 21
529.522527832031
 31
0.0
 0
LINE
 5
26F
100
AcDbEntity
 8
Layer8
100
AcDbLine
 39
0.25
 370
106
 10
133.398
 20
528.916527832031
 30
0.0
 11
133.398
 21
529.522527832031
 31
0.0
 0
LINE
 5
270
100
AcDbEntity
 8
Layer8
100
AcDbLine
 39
0.25
 370
106
 10
132.438
 20
528.916527832031
 30
0.0
 11
132.438
 21
529.522527832031
 31
0.0
 0
LINE
 5
271
100
AcDbEntity
 8
Layer8
100
AcDbLine
 39
0.25
 370
106
 10
133.352
 20
528.916527832031
 30
0.0
 11
133.352
 21
529.522527832031
 31
0.0
 0
LINE
 5
272
100
AcDbEntity
 8
Layer8
100
AcDbLine
 39
0.25
 370
106
 10
132.504
 20
528.916527832031
 30
0.0
 11
132.504
 21
529.522527832031
 31
0.0
 0
LINE
 5
273
100
AcDbEntity
 8
Layer8
100
AcDbLine
 39
0.25
 370
106
 10
133.286
 20
528.916527832031
 30
0.0
 11
133.286
 21
529.522527832031
 31
0.0
 0
LINE
 5
274
100
AcDbEntity
 8
Layer8
100
AcDbLine
 39
0.25
 370
106
 10
132.551
 20
528.916527832031
 30
0.0
 11
132.551
 21
529.522527832031
 31
0.0
 0
LINE
 5
275
100
AcDbEntity
 8
Layer8
100
AcDbLine
 39
0.25
 370
106
 10
133.239
 20
528.916527832031
 30
0.0
 11
133.239
 21
529.522527832031
 31
0.0
 0
LINE
 5
276
100
AcDbEntity
 8
Layer8
100
AcDbLine
 39
0.25
 370
106
 10
132.615
 20
528.916527832031
 30
0.0
 11
132.615
 21
529.522527832031
 31
0.0
 0
LINE
 5
277
100
AcDbEntity
 8
Layer8
100
AcDbLine
 39
0.25
 370
106
 10
133.173
 20
528.916527832031
 30
0.0
 11
133.173
 21
529.522527832031
 31
0.0
 0
LINE
 5
278
100
AcDbEntity
 8
Layer8
100
AcDbLine
 39
0.25
 370
106
 10
132.674
 20
528.916527832031
 30
0.0
 11
132.674
 21
529.522527832031
 31
0.0
 0
LINE
 5
279
100
AcDbEntity
 8
Layer8
100
AcDbLine
 39
0.25
 370
106
 10
133.116
 20
528.916527832031
 30
0.0
 11
133.116
 21
529.522527832031
 31
0.0
 0
LINE
 5
27A
100
AcDbEntity
 8
Layer8
100
AcDbLine
 39
0.25
 370
106
 10
132.741
 20
528.916527832031
 30
0.0
 11
132.741
 21
529.522527832031
 31
0.0
 0
LINE
 5
27B
100
AcDbEntity
 8
Layer8
100
AcDbLine
 39
0.25
 370
106
 10
133.05
 20
528.916527832031
 30
0.0
 11
133.05
 21
529.522527832031
 31
0.0
 0
LINE
 5
27C
100
AcDbEntity
 8
Layer8
100
AcDbLine
 39
0.25
 370
106
 10
132.797
 20
528.916527832031
 30
0.0
 11
132.797
 21
529.522527832031
 31
0.0
 0
LINE
 5
27D
100
AcDbEntity
 8
Layer8
100
AcDbLine
 39
0.25
 370
106
 10
132.995
 20
528.916527832031
 30
0.0
 11
132.995
 21
529.522527832031
 31
0.0
 0
LINE
 5
27E
100
AcDbEntity
 8
Layer8
100
AcDbLine
 39
0.25
 370
106
 10
132.869
 20
528.916527832031
 30
0.0
 11
132.869
 21
529.522527832031
 31
0.0
 0
LINE
 5
27F
100
AcDbEntity
 8
Layer8
100
AcDbLine
 39
0.25
 370
106
 10
132.919
 20
528.916527832031
 30
0.0
 11
132.919
 21
529.522527832031
 31
0.0
 0
LINE
 5
280
100
AcDbEntity
 8
Layer8
100
AcDbLine
 39
0.25
 370
106
 10
133.89
 20
528.916527832031
 30
0.0
 11
133.89
 21
528.890527832031
 31
0.0
 0
LINE
 5
281
100
AcDbEntity
 8
Layer8
100
AcDbLine
 39
0.25
 370
106
 10
133.89
 20
528.890527832031
 30
0.0
 11
133.869
 21
528.856527832031
 31
0.0
 0
LINE
 5
282
100
AcDbEntity
 8
Layer8
100
AcDbLine
 39
0.25
 370
106
 10
133.869
 20
528.856527832031
 30
0.0
 11
133.898
 21
528.916527832031
 31
0.0
 0
LINE
 5
283
100
AcDbEntity
 8
Layer8
100
AcDbLine
 39
0.25
 370
106
 10
133.878
 20
528.916527832031
 30
0.0
 11
133.89
 21
528.916527832031
 31
0.0
 0
LINE
 5
284
100
AcDbEntity
 8
Layer8
100
AcDbLine
 39
0.25
 370
106
 10
133.869
 20
528.916527832031
 30
0.0
 11
133.869
 21
528.890527832031
 31
0.0
 0
LINE
 5
285
100
AcDbEntity
 8
Layer8
100
AcDbLine
 39
0.25
 370
106
 10
133.869
 20
528.890527832031
 30
0.0
 11
133.851
 21
528.856527832031
 31
0.0
 0
LINE
 5
286
100
AcDbEntity
 8
Layer8
100
AcDbLine
 39
0.25
 370
106
 10
133.851
 20
528.856527832031
 30
0.0
 11
133.862
 21
528.856527832031
 31
0.0
 0
LINE
 5
287
100
AcDbEntity
 8
Layer8
100
AcDbLine
 39
0.25
 370
106
 10
133.862
 20
528.856527832031
 30
0.0
 11
133.862
 21
528.869527832031
 31
0.0
 0
LINE
 5
288
100
AcDbEntity
 8
Layer8
100
AcDbLine
 39
0.25
 370
106
 10
133.862
 20
528.869527832031
 30
0.0
 11
133.878
 21
528.890527832031
 31
0.0
 0
LINE
 5
289
100
AcDbEntity
 8
Layer8
100
AcDbLine
 39
0.25
 370
106
 10
133.878
 20
528.890527832031
 30
0.0
 11
133.878
 21
528.916527832031
 31
0.0
 0
LINE
 5
28A
100
AcDbEntity
 8
Layer8
100
AcDbLine
 39
0.25
 370
106
 10
133.851
 20
528.916527832031
 30
0.0
 11
133.869
 21
528.916527832031
 31
0.0
 0
LINE
 5
28B
100
AcDbEntity
 8
Layer8
100
AcDbLine
 39
0.25
 370
106
 10
133.841
 20
528.916527832031
 30
0.0
 11
133.832
 21
528.877527832031
 31
0.0
 0
LINE
 5
28C
100
AcDbEntity
 8
Layer8
100
AcDbLine
 39
0.25
 370
106
 10
133.832
 20
528.877527832031
 30
0.0
 11
133.823
 21
528.869527832031
 31
0.0
 0
LINE
 5
28D
100
AcDbEntity
 8
Layer8
100
AcDbLine
 39
0.25
 370
106
 10
133.823
 20
528.869527832031
 30
0.0
 11
133.823
 21
528.856527832031
 31
0.0
 0
LINE
 5
28E
100
AcDbEntity
 8
Layer8
100
AcDbLine
 39
0.25
 370
106
 10
133.823
 20
528.856527832031
 30
0.0
 11
133.832
 21
528.856527832031
 31
0.0
 0
LINE
 5
28F
100
AcDbEntity
 8
Layer8
100
AcDbLine
 39
0.25
 370
106
 10
133.832
 20
528.856527832031
 30
0.0
 11
133.832
 21
528.869527832031
 31
0.0
 0
LINE
 5
290
100
AcDbEntity
 8
Layer8
100
AcDbLine
 39
0.25
 370
106
 10
133.832
 20
528.869527832031
 30
0.0
 11
133.851
 21
528.890527832031
 31
0.0
 0
LINE
 5
291
100
AcDbEntity
 8
Layer8
100
AcDbLine
 39
0.25
 370
106
 10
133.851
 20
528.890527832031
 30
0.0
 11
133.851
 21
528.916527832031
 31
0.0
 0
LINE
 5
292
100
AcDbEntity
 8
Layer8
100
AcDbLine
 39
0.25
 370
106
 10
133.812
 20
528.916527832031
 30
0.0
 11
133.841
 21
528.916527832031
 31
0.0
 0
LINE
 5
293
100
AcDbEntity
 8
Layer8
100
AcDbLine
 39
0.25
 370
106
 10
133.785
 20
528.916527832031
 30
0.0
 11
133.776
 21
528.869527832031
 31
0.0
 0
LINE
 5
294
100
AcDbEntity
 8
Layer8
100
AcDbLine
 39
0.25
 370
106
 10
133.776
 20
528.869527832031
 30
0.0
 11
133.776
 21
528.856527832031
 31
0.0
 0
LINE
 5
295
100
AcDbEntity
 8
Layer8
100
AcDbLine
 39
0.25
 370
106
 10
133.776
 20
528.856527832031
 30
0.0
 11
133.785
 21
528.856527832031
 31
0.0
 0
LINE
 5
296
100
AcDbEntity
 8
Layer8
100
AcDbLine
 39
0.25
 370
106
 10
133.785
 20
528.856527832031
 30
0.0
 11
133.812
 21
528.916527832031
 31
0.0
 0
LINE
 5
297
100
AcDbEntity
 8
Layer8
100
AcDbLine
 39
0.25
 370
106
 10
133.755
 20
528.916527832031
 30
0.0
 11
133.785
 21
528.916527832031
 31
0.0
 0
LINE
 5
298
100
AcDbEntity
 8
Layer8
100
AcDbLine
 39
0.25
 370
106
 10
133.73
 20
528.916527832031
 30
0.0
 11
133.719
 21
528.877527832031
 31
0.0
 0
LINE
 5
299
100
AcDbEntity
 8
Layer8
100
AcDbLine
 39
0.25
 370
106
 10
133.719
 20
528.877527832031
 30
0.0
 11
133.709
 21
528.869527832031
 31
0.0
 0
LINE
 5
29A
100
AcDbEntity
 8
Layer8
100
AcDbLine
 39
0.25
 370
106
 10
133.709
 20
528.869527832031
 30
0.0
 11
133.709
 21
528.856527832031
 31
0.0
 0
LINE
 5
29B
100
AcDbEntity
 8
Layer8
100
AcDbLine
 39
0.25
 370
106
 10
133.709
 20
528.856527832031
 30
0.0
 11
133.73
 21
528.856527832031
 31
0.0
 0
LINE
 5
29C
100
AcDbEntity
 8
Layer8
100
AcDbLine
 39
0.25
 370
106
 10
133.73
 20
528.856527832031
 30
0.0
 11
133.755
 21
528.916527832031
 31
0.0
 0
LINE
 5
29D
100
AcDbEntity
 8
Layer8
100
AcDbLine
 39
0.25
 370
106
 10
133.68
 20
528.916527832031
 30
0.0
 11
133.73
 21
528.916527832031
 31
0.0
 0
LINE
 5
29E
100
AcDbEntity
 8
Layer8
100
AcDbLine
 39
0.25
 370
106
 10
133.643
 20
528.916527832031
 30
0.0
 11
133.643
 21
528.856527832031
 31
0.0
 0
LINE
 5
29F
100
AcDbEntity
 8
Layer8
100
AcDbLine
 39
0.25
 370
106
 10
133.643
 20
528.856527832031
 30
0.0
 11
133.653
 21
528.856527832031
 31
0.0
 0
LINE
 5
2A0
100
AcDbEntity
 8
Layer8
100
AcDbLine
 39
0.25
 370
106
 10
133.653
 20
528.856527832031
 30
0.0
 11
133.68
 21
528.890527832031
 31
0.0
 0
LINE
 5
2A1
100
AcDbEntity
 8
Layer8
100
AcDbLine
 39
0.25
 370
106
 10
133.68
 20
528.890527832031
 30
0.0
 11
133.68
 21
528.916527832031
 31
0.0
 0
LINE
 5
2A2
100
AcDbEntity
 8
Layer8
100
AcDbLine
 39
0.25
 370
106
 10
133.598
 20
528.916527832031
 30
0.0
 11
133.643
 21
528.916527832031
 31
0.0
 0
LINE
 5
2A3
100
AcDbEntity
 8
Layer8
100
AcDbLine
 39
0.25
 370
106
 10
133.557
 20
528.916527832031
 30
0.0
 11
133.55
 21
528.856527832031
 31
0.0
 0
LINE
 5
2A4
100
AcDbEntity
 8
Layer8
100
AcDbLine
 39
0.25
 370
106
 10
133.55
 20
528.856527832031
 30
0.0
 11
133.578
 21
528.856527832031
 31
0.0
 0
LINE
 5
2A5
100
AcDbEntity
 8
Layer8
100
AcDbLine
 39
0.25
 370
106
 10
133.578
 20
528.856527832031
 30
0.0
 11
133.578
 21
528.869527832031
 31
0.0
 0
LINE
 5
2A6
100
AcDbEntity
 8
Layer8
100
AcDbLine
 39
0.25
 370
106
 10
133.578
 20
528.869527832031
 30
0.0
 11
133.598
 21
528.890527832031
 31
0.0
 0
LINE
 5
2A7
100
AcDbEntity
 8
Layer8
100
AcDbLine
 39
0.25
 370
106
 10
133.598
 20
528.890527832031
 30
0.0
 11
133.598
 21
528.916527832031
 31
0.0
 0
LINE
 5
2A8
100
AcDbEntity
 8
Layer8
100
AcDbLine
 39
0.25
 370
106
 10
133.502
 20
528.916527832031
 30
0.0
 11
133.557
 21
528.916527832031
 31
0.0
 0
LINE
 5
2A9
100
AcDbEntity
 8
Layer8
100
AcDbLine
 39
0.25
 370
106
 10
133.464
 20
528.916527832031
 30
0.0
 11
133.455
 21
528.890527832031
 31
0.0
 0
LINE
 5
2AA
100
AcDbEntity
 8
Layer8
100
AcDbLine
 39
0.25
 370
106
 10
133.455
 20
528.890527832031
 30
0.0
 11
133.455
 21
528.856527832031
 31
0.0
 0
LINE
 5
2AB
100
AcDbEntity
 8
Layer8
100
AcDbLine
 39
0.25
 370
106
 10
133.455
 20
528.856527832031
 30
0.0
 11
133.485
 21
528.856527832031
 31
0.0
 0
LINE
 5
2AC
100
AcDbEntity
 8
Layer8
100
AcDbLine
 39
0.25
 370
106
 10
133.485
 20
528.856527832031
 30
0.0
 11
133.485
 21
528.869527832031
 31
0.0
 0
LINE
 5
2AD
100
AcDbEntity
 8
Layer8
100
AcDbLine
 39
0.25
 370
106
 10
133.485
 20
528.869527832031
 30
0.0
 11
133.502
 21
528.890527832031
 31
0.0
 0
LINE
 5
2AE
100
AcDbEntity
 8
Layer8
100
AcDbLine
 39
0.25
 370
106
 10
133.502
 20
528.890527832031
 30
0.0
 11
133.502
 21
528.916527832031
 31
0.0
 0
LINE
 5
2AF
100
AcDbEntity
 8
Layer8
100
AcDbLine
 39
0.25
 370
106
 10
133.398
 20
528.916527832031
 30
0.0
 11
133.464
 21
528.916527832031
 31
0.0
 0
LINE
 5
2B0
100
AcDbEntity
 8
Layer8
100
AcDbLine
 39
0.25
 370
106
 10
133.352
 20
528.916527832031
 30
0.0
 11
133.352
 21
528.856527832031
 31
0.0
 0
LINE
 5
2B1
100
AcDbEntity
 8
Layer8
100
AcDbLine
 39
0.25
 370
106
 10
133.352
 20
528.856527832031
 30
0.0
 11
133.38
 21
528.856527832031
 31
0.0
 0
LINE
 5
2B2
100
AcDbEntity
 8
Layer8
100
AcDbLine
 39
0.25
 370
106
 10
133.38
 20
528.856527832031
 30
0.0
 11
133.38
 21
528.869527832031
 31
0.0
 0
LINE
 5
2B3
100
AcDbEntity
 8
Layer8
100
AcDbLine
 39
0.25
 370
106
 10
133.38
 20
528.869527832031
 30
0.0
 11
133.398
 21
528.890527832031
 31
0.0
 0
LINE
 5
2B4
100
AcDbEntity
 8
Layer8
100
AcDbLine
 39
0.25
 370
106
 10
133.398
 20
528.890527832031
 30
0.0
 11
133.398
 21
528.916527832031
 31
0.0
 0
LINE
 5
2B5
100
AcDbEntity
 8
Layer8
100
AcDbLine
 39
0.25
 370
106
 10
133.286
 20
528.916527832031
 30
0.0
 11
133.352
 21
528.916527832031
 31
0.0
 0
LINE
 5
2B6
100
AcDbEntity
 8
Layer8
100
AcDbLine
 39
0.25
 370
106
 10
133.239
 20
528.916527832031
 30
0.0
 11
133.239
 21
528.856527832031
 31
0.0
 0
LINE
 5
2B7
100
AcDbEntity
 8
Layer8
100
AcDbLine
 39
0.25
 370
106
 10
133.239
 20
528.856527832031
 30
0.0
 11
133.269
 21
528.856527832031
 31
0.0
 0
LINE
 5
2B8
100
AcDbEntity
 8
Layer8
100
AcDbLine
 39
0.25
 370
106
 10
133.269
 20
528.856527832031
 30
0.0
 11
133.286
 21
528.890527832031
 31
0.0
 0
LINE
 5
2B9
100
AcDbEntity
 8
Layer8
100
AcDbLine
 39
0.25
 370
106
 10
133.286
 20
528.890527832031
 30
0.0
 11
133.286
 21
528.916527832031
 31
0.0
 0
LINE
 5
2BA
100
AcDbEntity
 8
Layer8
100
AcDbLine
 39
0.25
 370
106
 10
133.173
 20
528.916527832031
 30
0.0
 11
133.239
 21
528.916527832031
 31
0.0
 0
LINE
 5
2BB
100
AcDbEntity
 8
Layer8
100
AcDbLine
 39
0.25
 370
106
 10
133.116
 20
528.916527832031
 30
0.0
 11
133.116
 21
528.869527832031
 31
0.0
 0
LINE
 5
2BC
100
AcDbEntity
 8
Layer8
100
AcDbLine
 39
0.25
 370
106
 10
133.116
 20
528.869527832031
 30
0.0
 11
133.126
 21
528.856527832031
 31
0.0
 0
LINE
 5
2BD
100
AcDbEntity
 8
Layer8
100
AcDbLine
 39
0.25
 370
106
 10
133.126
 20
528.856527832031
 30
0.0
 11
133.154
 21
528.856527832031
 31
0.0
 0
LINE
 5
2BE
100
AcDbEntity
 8
Layer8
100
AcDbLine
 39
0.25
 370
106
 10
133.154
 20
528.856527832031
 30
0.0
 11
133.173
 21
528.916527832031
 31
0.0
 0
LINE
 5
2BF
100
AcDbEntity
 8
Layer8
100
AcDbLine
 39
0.25
 370
106
 10
133.05
 20
528.916527832031
 30
0.0
 11
133.116
 21
528.916527832031
 31
0.0
 0
LINE
 5
2C0
100
AcDbEntity
 8
Layer8
100
AcDbLine
 39
0.25
 370
106
 10
132.995
 20
528.916527832031
 30
0.0
 11
132.995
 21
528.869527832031
 31
0.0
 0
LINE
 5
2C1
100
AcDbEntity
 8
Layer8
100
AcDbLine
 39
0.25
 370
106
 10
132.995
 20
528.869527832031
 30
0.0
 11
133.004
 21
528.856527832031
 31
0.0
 0
LINE
 5
2C2
100
AcDbEntity
 8
Layer8
100
AcDbLine
 39
0.25
 370
106
 10
133.004
 20
528.856527832031
 30
0.0
 11
133.02
 21
528.856527832031
 31
0.0
 0
LINE
 5
2C3
100
AcDbEntity
 8
Layer8
100
AcDbLine
 39
0.25
 370
106
 10
133.02
 20
528.856527832031
 30
0.0
 11
133.031
 21
528.856527832031
 31
0.0
 0
LINE
 5
2C4
100
AcDbEntity
 8
Layer8
100
AcDbLine
 39
0.25
 370
106
 10
133.031
 20
528.856527832031
 30
0.0
 11
133.05
 21
528.916527832031
 31
0.0
 0
LINE
 5
2C5
100
AcDbEntity
 8
Layer8
100
AcDbLine
 39
0.25
 370
106
 10
132.919
 20
528.916527832031
 30
0.0
 11
132.995
 21
528.916527832031
 31
0.0
 0
LINE
 5
2C6
100
AcDbEntity
 8
Layer8
100
AcDbLine
 39
0.25
 370
106
 10
132.869
 20
528.916527832031
 30
0.0
 11
132.869
 21
528.869527832031
 31
0.0
 0
LINE
 5
2C7
100
AcDbEntity
 8
Layer8
100
AcDbLine
 39
0.25
 370
106
 10
132.869
 20
528.869527832031
 30
0.0
 11
132.881
 21
528.856527832031
 31
0.0
 0
LINE
 5
2C8
100
AcDbEntity
 8
Layer8
100
AcDbLine
 39
0.25
 370
106
 10
132.881
 20
528.856527832031
 30
0.0
 11
132.908
 21
528.856527832031
 31
0.0
 0
LINE
 5
2C9
100
AcDbEntity
 8
Layer8
100
AcDbLine
 39
0.25
 370
106
 10
132.908
 20
528.856527832031
 30
0.0
 11
132.908
 21
528.869527832031
 31
0.0
 0
LINE
 5
2CA
100
AcDbEntity
 8
Layer8
100
AcDbLine
 39
0.25
 370
106
 10
132.908
 20
528.869527832031
 30
0.0
 11
132.919
 21
528.877527832031
 31
0.0
 0
LINE
 5
2CB
100
AcDbEntity
 8
Layer8
100
AcDbLine
 39
0.25
 370
106
 10
132.919
 20
528.877527832031
 30
0.0
 11
132.919
 21
528.916527832031
 31
0.0
 0
LINE
 5
2CC
100
AcDbEntity
 8
Layer8
100
AcDbLine
 39
0.25
 370
106
 10
132.797
 20
528.916527832031
 30
0.0
 11
132.869
 21
528.916527832031
 31
0.0
 0
LINE
 5
2CD
100
AcDbEntity
 8
Layer8
100
AcDbLine
 39
0.25
 370
106
 10
132.741
 20
528.916527832031
 30
0.0
 11
132.741
 21
528.890527832031
 31
0.0
 0
LINE
 5
2CE
100
AcDbEntity
 8
Layer8
100
AcDbLine
 39
0.25
 370
106
 10
132.741
 20
528.890527832031
 30
0.0
 11
132.758
 21
528.856527832031
 31
0.0
 0
LINE
 5
2CF
100
AcDbEntity
 8
Layer8
100
AcDbLine
 39
0.25
 370
106
 10
132.758
 20
528.856527832031
 30
0.0
 11
132.785
 21
528.856527832031
 31
0.0
 0
LINE
 5
2D0
100
AcDbEntity
 8
Layer8
100
AcDbLine
 39
0.25
 370
106
 10
132.785
 20
528.856527832031
 30
0.0
 11
132.785
 21
528.869527832031
 31
0.0
 0
LINE
 5
2D1
100
AcDbEntity
 8
Layer8
100
AcDbLine
 39
0.25
 370
106
 10
132.785
 20
528.869527832031
 30
0.0
 11
132.797
 21
528.877527832031
 31
0.0
 0
LINE
 5
2D2
100
AcDbEntity
 8
Layer8
100
AcDbLine
 39
0.25
 370
106
 10
132.797
 20
528.877527832031
 30
0.0
 11
132.797
 21
528.916527832031
 31
0.0
 0
LINE
 5
2D3
100
AcDbEntity
 8
Layer8
100
AcDbLine
 39
0.25
 370
106
 10
132.674
 20
528.916527832031
 30
0.0
 11
132.741
 21
528.916527832031
 31
0.0
 0
LINE
 5
2D4
100
AcDbEntity
 8
Layer8
100
AcDbLine
 39
0.25
 370
106
 10
132.615
 20
528.916527832031
 30
0.0
 11
132.615
 21
528.890527832031
 31
0.0
 0
LINE
 5
2D5
100
AcDbEntity
 8
Layer8
100
AcDbLine
 39
0.25
 370
106
 10
132.615
 20
528.890527832031
 30
0.0
 11
132.636
 21
528.856527832031
 31
0.0
 0
LINE
 5
2D6
100
AcDbEntity
 8
Layer8
100
AcDbLine
 39
0.25
 370
106
 10
132.636
 20
528.856527832031
 30
0.0
 11
132.663
 21
528.856527832031
 31
0.0
 0
LINE
 5
2D7
100
AcDbEntity
 8
Layer8
100
AcDbLine
 39
0.25
 370
106
 10
132.663
 20
528.856527832031
 30
0.0
 11
132.663
 21
528.869527832031
 31
0.0
 0
LINE
 5
2D8
100
AcDbEntity
 8
Layer8
100
AcDbLine
 39
0.25
 370
106
 10
132.663
 20
528.869527832031
 30
0.0
 11
132.674
 21
528.877527832031
 31
0.0
 0
LINE
 5
2D9
100
AcDbEntity
 8
Layer8
100
AcDbLine
 39
0.25
 370
106
 10
132.674
 20
528.877527832031
 30
0.0
 11
132.674
 21
528.916527832031
 31
0.0
 0
LINE
 5
2DA
100
AcDbEntity
 8
Layer8
100
AcDbLine
 39
0.25
 370
106
 10
132.551
 20
528.916527832031
 30
0.0
 11
132.615
 21
528.916527832031
 31
0.0
 0
LINE
 5
2DB
100
AcDbEntity
 8
Layer8
100
AcDbLine
 39
0.25
 370
106
 10
132.504
 20
528.916527832031
 30
0.0
 11
132.504
 21
528.877527832031
 31
0.0
 0
LINE
 5
2DC
100
AcDbEntity
 8
Layer8
100
AcDbLine
 39
0.25
 370
106
 10
132.504
 20
528.877527832031
 30
0.0
 11
132.522
 21
528.856527832031
 31
0.0
 0
LINE
 5
2DD
100
AcDbEntity
 8
Layer8
100
AcDbLine
 39
0.25
 370
106
 10
132.522
 20
528.856527832031
 30
0.0
 11
132.551
 21
528.856527832031
 31
0.0
 0
LINE
 5
2DE
100
AcDbEntity
 8
Layer8
100
AcDbLine
 39
0.25
 370
106
 10
132.551
 20
528.856527832031
 30
0.0
 11
132.551
 21
528.916527832031
 31
0.0
 0
LINE
 5
2DF
100
AcDbEntity
 8
Layer8
100
AcDbLine
 39
0.25
 370
106
 10
132.438
 20
528.916527832031
 30
0.0
 11
132.504
 21
528.916527832031
 31
0.0
 0
LINE
 5
2E0
100
AcDbEntity
 8
Layer8
100
AcDbLine
 39
0.25
 370
106
 10
132.392
 20
528.916527832031
 30
0.0
 11
132.392
 21
528.890527832031
 31
0.0
 0
LINE
 5
2E1
100
AcDbEntity
 8
Layer8
100
AcDbLine
 39
0.25
 370
106
 10
132.392
 20
528.890527832031
 30
0.0
 11
132.401
 21
528.869527832031
 31
0.0
 0
LINE
 5
2E2
100
AcDbEntity
 8
Layer8
100
AcDbLine
 39
0.25
 370
106
 10
132.401
 20
528.869527832031
 30
0.0
 11
132.417
 21
528.856527832031
 31
0.0
 0
LINE
 5
2E3
100
AcDbEntity
 8
Layer8
100
AcDbLine
 39
0.25
 370
106
 10
132.417
 20
528.856527832031
 30
0.0
 11
132.438
 21
528.856527832031
 31
0.0
 0
LINE
 5
2E4
100
AcDbEntity
 8
Layer8
100
AcDbLine
 39
0.25
 370
106
 10
132.438
 20
528.856527832031
 30
0.0
 11
132.438
 21
528.916527832031
 31
0.0
 0
LINE
 5
2E5
100
AcDbEntity
 8
Layer8
100
AcDbLine
 39
0.25
 370
106
 10
132.324
 20
528.916527832031
 30
0.0
 11
132.392
 21
528.916527832031
 31
0.0
 0
LINE
 5
2E6
100
AcDbEntity
 8
Layer8
100
AcDbLine
 39
0.25
 370
106
 10
132.288
 20
528.916527832031
 30
0.0
 11
132.288
 21
528.890527832031
 31
0.0
 0
LINE
 5
2E7
100
AcDbEntity
 8
Layer8
100
AcDbLine
 39
0.25
 370
106
 10
132.288
 20
528.890527832031
 30
0.0
 11
132.306
 21
528.856527832031
 31
0.0
 0
LINE
 5
2E8
100
AcDbEntity
 8
Layer8
100
AcDbLine
 39
0.25
 370
106
 10
132.306
 20
528.856527832031
 30
0.0
 11
132.335
 21
528.856527832031
 31
0.0
 0
LINE
 5
2E9
100
AcDbEntity
 8
Layer8
100
AcDbLine
 39
0.25
 370
106
 10
132.335
 20
528.856527832031
 30
0.0
 11
132.335
 21
528.890527832031
 31
0.0
 0
LINE
 5
2EA
100
AcDbEntity
 8
Layer8
100
AcDbLine
 39
0.25
 370
106
 10
132.335
 20
528.890527832031
 30
0.0
 11
132.324
 21
528.916527832031
 31
0.0
 0
LINE
 5
2EB
100
AcDbEntity
 8
Layer8
100
AcDbLine
 39
0.25
 370
106
 10
132.231
 20
528.916527832031
 30
0.0
 11
132.288
 21
528.916527832031
 31
0.0
 0
LINE
 5
2EC
100
AcDbEntity
 8
Layer8
100
AcDbLine
 39
0.25
 370
106
 10
132.192
 20
528.916527832031
 30
0.0
 11
132.201
 21
528.869527832031
 31
0.0
 0
LINE
 5
2ED
100
AcDbEntity
 8
Layer8
100
AcDbLine
 39
0.25
 370
106
 10
132.201
 20
528.869527832031
 30
0.0
 11
132.218
 21
528.856527832031
 31
0.0
 0
LINE
 5
2EE
100
AcDbEntity
 8
Layer8
100
AcDbLine
 39
0.25
 370
106
 10
132.218
 20
528.856527832031
 30
0.0
 11
132.231
 21
528.856527832031
 31
0.0
 0
LINE
 5
2EF
100
AcDbEntity
 8
Layer8
100
AcDbLine
 39
0.25
 370
106
 10
132.231
 20
528.856527832031
 30
0.0
 11
132.231
 21
528.916527832031
 31
0.0
 0
LINE
 5
2F0
100
AcDbEntity
 8
Layer8
100
AcDbLine
 39
0.25
 370
106
 10
132.137
 20
528.916527832031
 30
0.0
 11
132.192
 21
528.916527832031
 31
0.0
 0
LINE
 5
2F1
100
AcDbEntity
 8
Layer8
100
AcDbLine
 39
0.25
 370
106
 10
132.108
 20
528.916527832031
 30
0.0
 11
132.108
 21
528.890527832031
 31
0.0
 0
LINE
 5
2F2
100
AcDbEntity
 8
Layer8
100
AcDbLine
 39
0.25
 370
106
 10
132.108
 20
528.890527832031
 30
0.0
 11
132.125
 21
528.869527832031
 31
0.0
 0
LINE
 5
2F3
100
AcDbEntity
 8
Layer8
100
AcDbLine
 39
0.25
 370
106
 10
132.125
 20
528.869527832031
 30
0.0
 11
132.125
 21
528.856527832031
 31
0.0
 0
LINE
 5
2F4
100
AcDbEntity
 8
Layer8
100
AcDbLine
 39
0.25
 370
106
 10
132.125
 20
528.856527832031
 30
0.0
 11
132.149
 21
528.856527832031
 31
0.0
 0
LINE
 5
2F5
100
AcDbEntity
 8
Layer8
100
AcDbLine
 39
0.25
 370
106
 10
132.149
 20
528.856527832031
 30
0.0
 11
132.149
 21
528.890527832031
 31
0.0
 0
LINE
 5
2F6
100
AcDbEntity
 8
Layer8
100
AcDbLine
 39
0.25
 370
106
 10
132.149
 20
528.890527832031
 30
0.0
 11
132.137
 21
528.916527832031
 31
0.0
 0
LINE
 5
2F7
100
AcDbEntity
 8
Layer8
100
AcDbLine
 39
0.25
 370
106
 10
132.062
 20
528.916527832031
 30
0.0
 11
132.108
 21
528.916527832031
 31
0.0
 0
LINE
 5
2F8
100
AcDbEntity
 8
Layer8
100
AcDbLine
 39
0.25
 370
106
 10
132.032
 20
528.916527832031
 30
0.0
 11
132.042
 21
528.877527832031
 31
0.0
 0
LINE
 5
2F9
100
AcDbEntity
 8
Layer8
100
AcDbLine
 39
0.25
 370
106
 10
132.042
 20
528.877527832031
 30
0.0
 11
132.062
 21
528.856527832031
 31
0.0
 0
LINE
 5
2FA
100
AcDbEntity
 8
Layer8
100
AcDbLine
 39
0.25
 370
106
 10
132.062
 20
528.856527832031
 30
0.0
 11
132.08
 21
528.856527832031
 31
0.0
 0
LINE
 5
2FB
100
AcDbEntity
 8
Layer8
100
AcDbLine
 39
0.25
 370
106
 10
132.08
 20
528.856527832031
 30
0.0
 11
132.062
 21
528.916527832031
 31
0.0
 0
LINE
 5
2FC
100
AcDbEntity
 8
Layer8
100
AcDbLine
 39
0.25
 370
106
 10
131.997
 20
528.916527832031
 30
0.0
 11
132.032
 21
528.916527832031
 31
0.0
 0
LINE
 5
2FD
100
AcDbEntity
 8
Layer8
100
AcDbLine
 39
0.25
 370
106
 10
131.976
 20
528.916527832031
 30
0.0
 11
131.976
 21
528.890527832031
 31
0.0
 0
LINE
 5
2FE
100
AcDbEntity
 8
Layer8
100
AcDbLine
 39
0.25
 370
106
 10
131.976
 20
528.890527832031
 30
0.0
 11
132.005
 21
528.856527832031
 31
0.0
 0
LINE
 5
2FF
100
AcDbEntity
 8
Layer8
100
AcDbLine
 39
0.25
 370
106
 10
132.005
 20
528.856527832031
 30
0.0
 11
132.014
 21
528.856527832031
 31
0.0
 0
LINE
 5
300
100
AcDbEntity
 8
Layer8
100
AcDbLine
 39
0.25
 370
106
 10
132.014
 20
528.856527832031
 30
0.0
 11
132.014
 21
528.877527832031
 31
0.0
 0
LINE
 5
301
100
AcDbEntity
 8
Layer8
100
AcDbLine
 39
0.25
 370
106
 10
132.014
 20
528.877527832031
 30
0.0
 11
131.997
 21
528.916527832031
 31
0.0
 0
LINE
 5
302
100
AcDbEntity
 8
Layer8
100
AcDbLine
 39
0.25
 370
106
 10
131.948
 20
528.916527832031
 30
0.0
 11
131.976
 21
528.916527832031
 31
0.0
 0
LINE
 5
303
100
AcDbEntity
 8
Layer8
100
AcDbLine
 39
0.25
 370
106
 10
131.93
 20
528.916527832031
 30
0.0
 11
131.957
 21
528.856527832031
 31
0.0
 0
LINE
 5
304
100
AcDbEntity
 8
Layer8
100
AcDbLine
 39
0.25
 370
106
 10
131.957
 20
528.856527832031
 30
0.0
 11
131.966
 21
528.856527832031
 31
0.0
 0
LINE
 5
305
100
AcDbEntity
 8
Layer8
100
AcDbLine
 39
0.25
 370
106
 10
131.966
 20
528.856527832031
 30
0.0
 11
131.966
 21
528.869527832031
 31
0.0
 0
LINE
 5
306
100
AcDbEntity
 8
Layer8
100
AcDbLine
 39
0.25
 370
106
 10
131.966
 20
528.869527832031
 30
0.0
 11
131.957
 21
528.877527832031
 31
0.0
 0
LINE
 5
307
100
AcDbEntity
 8
Layer8
100
AcDbLine
 39
0.25
 370
106
 10
131.957
 20
528.877527832031
 30
0.0
 11
131.948
 21
528.916527832031
 31
0.0
 0
LINE
 5
308
100
AcDbEntity
 8
Layer8
100
AcDbLine
 39
0.25
 370
106
 10
131.921
 20
528.916527832031
 30
0.0
 11
131.93
 21
528.916527832031
 31
0.0
 0
LINE
 5
309
100
AcDbEntity
 8
Layer8
100
AcDbLine
 39
0.25
 370
106
 10
131.91
 20
528.916527832031
 30
0.0
 11
131.91
 21
528.890527832031
 31
0.0
 0
LINE
 5
30A
100
AcDbEntity
 8
Layer8
100
AcDbLine
 39
0.25
 370
106
 10
131.91
 20
528.890527832031
 30
0.0
 11
131.93
 21
528.856527832031
 31
0.0
 0
LINE
 5
30B
100
AcDbEntity
 8
Layer8
100
AcDbLine
 39
0.25
 370
106
 10
131.93
 20
528.856527832031
 30
0.0
 11
131.939
 21
528.856527832031
 31
0.0
 0
LINE
 5
30C
100
AcDbEntity
 8
Layer8
100
AcDbLine
 39
0.25
 370
106
 10
131.939
 20
528.856527832031
 30
0.0
 11
131.921
 21
528.890527832031
 31
0.0
 0
LINE
 5
30D
100
AcDbEntity
 8
Layer8
100
AcDbLine
 39
0.25
 370
106
 10
131.921
 20
528.890527832031
 30
0.0
 11
131.921
 21
528.916527832031
 31
0.0
 0
LINE
 5
30E
100
AcDbEntity
 8
Layer8
100
AcDbLine
 39
0.25
 370
106
 10
131.901
 20
528.916527832031
 30
0.0
 11
131.91
 21
528.916527832031
 31
0.0
 0
LINE
 5
30F
100
AcDbEntity
 8
Layer8
100
AcDbLine
 39
0.25
 370
106
 10
131.892
 20
528.916527832031
 30
0.0
 11
131.901
 21
528.877527832031
 31
0.0
 0
LINE
 5
310
100
AcDbEntity
 8
Layer8
100
AcDbLine
 39
0.25
 370
106
 10
131.901
 20
528.877527832031
 30
0.0
 11
131.921
 21
528.856527832031
 31
0.0
 0
LINE
 5
311
100
AcDbEntity
 8
Layer8
100
AcDbLine
 39
0.25
 370
106
 10
131.921
 20
528.856527832031
 30
0.0
 11
131.901
 21
528.890527832031
 31
0.0
 0
LINE
 5
312
100
AcDbEntity
 8
Layer8
100
AcDbLine
 39
0.25
 370
106
 10
131.901
 20
528.890527832031
 30
0.0
 11
131.901
 21
528.916527832031
 31
0.0
 0
LINE
 5
313
100
AcDbEntity
 8
Layer8
100
AcDbLine
 39
0.25
 370
106
 10
133.832
 20
528.849527832031
 30
0.0
 11
131.957
 21
528.849527832031
 31
0.0
 0
LINE
 5
314
100
AcDbEntity
 8
Layer8
100
AcDbLine
 39
0.25
 370
106
 10
133.191
 20
512.250527832031
 30
0.0
 11
133.191
 21
528.849527832031
 31
0.0
 0
LINE
 5
315
100
AcDbEntity
 8
Layer8
100
AcDbLine
 39
0.25
 370
106
 10
132.599
 20
528.849527832031
 30
0.0
 11
132.599
 21
511.867527832031
 31
0.0
 0
LINE
 5
316
100
AcDbEntity
 8
Layer8
100
AcDbLine
 39
0.25
 370
106
 10
132.599
 20
511.953527832031
 30
0.0
 11
132.599
 21
474.066527832031
 31
0.0
 0
LINE
 5
317
100
AcDbEntity
 8
Layer8
100
AcDbLine
 39
0.25
 370
106
 10
133.194
 20
474.066527832031
 30
0.0
 11
133.194
 21
512.405527832031
 31
0.0
 0
LINE
 5
318
100
AcDbEntity
 8
Layer8
100
AcDbLine
 39
0.25
 370
106
 10
140.237
 20
529.788527832031
 30
0.0
 11
140.237
 21
533.011527832031
 31
0.0
 0
LINE
 5
319
100
AcDbEntity
 8
Layer8
100
AcDbLine
 39
0.25
 370
106
 10
125.552
 20
533.011527832031
 30
0.0
 11
125.552
 21
529.788527832031
 31
0.0
 0
ARC
 5
31A
100
AcDbEntity
 8
Layer8
100
AcDbCircle
 39
0.25
 370
106
 10
139.97649283681
 20
529.780057917931
 30
0.0
 40
0.260644818714851
100
AcDbArc
 50
-57.3792927165844
 51
1.86221151104105
 0
LINE
 5
31B
100
AcDbEntity
 8
Layer8
100
AcDbLine
 39
0.25
 370
106
 10
139.974
 20
529.522527832031
 30
0.0
 11
140.117
 21
529.560527832031
 31
0.0
 0
LINE
 5
31C
100
AcDbEntity
 8
Layer8
100
AcDbLine
 39
0.25
 370
106
 10
125.552
 20
529.788527832031
 30
0.0
 11
125.57
 21
529.684527832031
 31
0.0
 0
LINE
 5
31D
100
AcDbEntity
 8
Layer8
100
AcDbLine
 39
0.25
 370
106
 10
125.57
 20
529.684527832031
 30
0.0
 11
125.666
 21
529.560527832031
 31
0.0
 0
LINE
 5
31E
100
AcDbEntity
 8
Layer8
100
AcDbLine
 39
0.25
 370
106
 10
125.666
 20
529.560527832031
 30
0.0
 11
125.816
 21
529.522527832031
 31
0.0
 0
LINE
 5
31F
100
AcDbEntity
 8
Layer8
100
AcDbLine
 39
0.25
 370
106
 10
131.892
 20
529.522527832031
 30
0.0
 11
131.892
 21
528.916527832031
 31
0.0
 0
LINE
 5
320
100
AcDbEntity
 8
Layer8
100
AcDbLine
 39
0.25
 370
106
 10
133.898
 20
528.916527832031
 30
0.0
 11
133.898
 21
529.522527832031
 31
0.0
 0
LINE
 5
321
100
AcDbEntity
 8
Layer8
100
AcDbLine
 39
0.25
 370
106
 10
133.832
 20
528.849527832031
 30
0.0
 11
133.869
 21
528.856527832031
 31
0.0
 0
LINE
 5
322
100
AcDbEntity
 8
Layer8
100
AcDbLine
 39
0.25
 370
106
 10
131.892
 20
528.916527832031
 30
0.0
 11
131.901
 21
528.877527832031
 31
0.0
 0
LINE
 5
323
100
AcDbEntity
 8
Layer8
100
AcDbLine
 39
0.25
 370
106
 10
131.901
 20
528.877527832031
 30
0.0
 11
131.921
 21
528.856527832031
 31
0.0
 0
LINE
 5
324
100
AcDbEntity
 8
Layer8
100
AcDbLine
 39
0.25
 370
106
 10
131.921
 20
528.856527832031
 30
0.0
 11
131.957
 21
528.849527832031
 31
0.0
 0
LINE
 5
325
100
AcDbEntity
 8
Layer8
100
AcDbLine
 39
0.25
 370
106
 10
211.9214
 20
115.376327832031
 30
0.0
 11
211.9214
 21
121.304327832031
 31
0.0
 0
LINE
 5
326
100
AcDbEntity
 8
Layer8
100
AcDbLine
 39
0.25
 370
106
 10
50.0583
 20
115.376327832031
 30
0.0
 11
50.0583
 21
121.304327832031
 31
0.0
 0
LINE
 5
327
100
AcDbEntity
 8
Layer8
100
AcDbLine
 39
0.25
 370
106
 10
161.1483
 20
242.823027832031
 30
0.0
 11
161.1233
 21
230.837027832031
 31
0.0
 0
LINE
 5
328
100
AcDbEntity
 8
Layer8
100
AcDbLine
 39
0.25
 370
106
 10
161.1233
 20
230.837027832031
 30
0.0
 11
158.3343
 21
230.837027832031
 31
0.0
 0
LINE
 5
329
100
AcDbEntity
 8
Layer8
100
AcDbLine
 39
0.25
 370
106
 10
158.3343
 20
230.837027832031
 30
0.0
 11
158.3113
 21
242.851027832031
 31
0.0
 0
LINE
 5
32A
100
AcDbEntity
 8
Layer8
100
AcDbLine
 39
0.25
 370
106
 10
158.3113
 20
242.851027832031
 30
0.0
 11
159.738425
 21
242.973902832031
 31
0.0
 0
LINE
 5
32B
100
AcDbEntity
 8
Layer8
100
AcDbLine
 39
0.25
 370
106
 10
159.738425
 20
242.973902832031
 30
0.0
 11
161.1483
 21
242.823027832031
 31
0.0
 0
LINE
 5
32C
100
AcDbEntity
 8
Layer8
100
AcDbLine
 39
0.25
 370
106
 10
161.1483
 20
242.823027832031
 30
0.0
 11
161.1233
 21
230.837027832031
 31
0.0
 0
LINE
 5
32D
100
AcDbEntity
 8
Layer8
100
AcDbLine
 39
0.25
 370
106
 10
161.1233
 20
230.837027832031
 30
0.0
 11
158.3303
 21
230.837027832031
 31
0.0
 0
LINE
 5
32E
100
AcDbEntity
 8
Layer8
100
AcDbLine
 39
0.25
 370
106
 10
158.3303
 20
230.837027832031
 30
0.0
 11
158.3043
 21
242.851027832031
 31
0.0
 0
LINE
 5
32F
100
AcDbEntity
 8
Layer8
100
AcDbLine
 39
0.25
 370
106
 10
158.3043
 20
242.851027832031
 30
0.0
 11
159.7353
 21
242.973902832031
 31
0.0
 0
LINE
 5
330
100
AcDbEntity
 8
Layer8
100
AcDbLine
 39
0.25
 370
106
 10
159.7353
 20
242.973902832031
 30
0.0
 11
161.1483
 21
242.823027832031
 31
0.0
 0
LINE
 5
331
100
AcDbEntity
 8
Layer8
100
AcDbLine
 39
0.25
 370
106
 10
146.6878
 20
254.096927832031
 30
0.0
 11
145.4368
 21
251.957927832031
 31
0.0
 0
LINE
 5
332
100
AcDbEntity
 8
Layer8
100
AcDbLine
 39
0.25
 370
106
 10
145.4368
 20
251.957927832031
 30
0.0
 11
154.4218
 21
246.701927832031
 31
0.0
 0
LINE
 5
333
100
AcDbEntity
 8
Layer8
100
AcDbLine
 39
0.25
 370
106
 10
154.4218
 20
246.701927832031
 30
0.0
 11
155.8488
 21
245.434927832031
 31
0.0
 0
LINE
 5
334
100
AcDbEntity
 8
Layer8
100
AcDbLine
 39
0.25
 370
106
 10
155.8488
 20
245.434927832031
 30
0.0
 11
156.8693
 21
246.696302832031
 31
0.0
 0
LINE
 5
335
100
AcDbEntity
 8
Layer8
100
AcDbLine
 39
0.25
 370
106
 10
156.8693
 20
246.696302832031
 30
0.0
 11
157.6168
 21
248.142927832031
 31
0.0
 0
LINE
 5
336
100
AcDbEntity
 8
Layer8
100
AcDbLine
 39
0.25
 370
106
 10
157.6168
 20
248.142927832031
 30
0.0
 11
156.473175
 21
248.485677832031
 31
0.0
 0
LINE
 5
337
100
AcDbEntity
 8
Layer8
100
AcDbLine
 39
0.25
 370
106
 10
156.473175
 20
248.485677832031
 30
0.0
 11
155.4608
 21
248.976927832031
 31
0.0
 0
LINE
 5
338
100
AcDbEntity
 8
Layer8
100
AcDbLine
 39
0.25
 370
106
 10
155.4608
 20
248.976927832031
 30
0.0
 11
146.6878
 21
254.096927832031
 31
0.0
 0
LINE
 5
339
100
AcDbEntity
 8
Layer8
100
AcDbLine
 39
0.25
 370
106
 10
146.6613
 20
254.126827832031
 30
0.0
 11
145.4023
 21
251.968827832031
 31
0.0
 0
LINE
 5
33A
100
AcDbEntity
 8
Layer8
100
AcDbLine
 39
0.25
 370
106
 10
145.4023
 20
251.968827832031
 30
0.0
 11
154.4383
 21
246.669827832031
 31
0.0
 0
LINE
 5
33B
100
AcDbEntity
 8
Layer8
100
AcDbLine
 39
0.25
 370
106
 10
154.4383
 20
246.669827832031
 30
0.0
 11
155.8753
 21
245.394827832031
 31
0.0
 0
LINE
 5
33C
100
AcDbEntity
 8
Layer8
100
AcDbLine
 39
0.25
 370
106
 10
155.8753
 20
245.394827832031
 30
0.0
 11
156.901425
 21
246.665202832031
 31
0.0
 0
LINE
 5
33D
100
AcDbEntity
 8
Layer8
100
AcDbLine
 39
0.25
 370
106
 10
156.901425
 20
246.665202832031
 30
0.0
 11
157.6523
 21
248.123827832031
 31
0.0
 0
LINE
 5
33E
100
AcDbEntity
 8
Layer8
100
AcDbLine
 39
0.25
 370
106
 10
157.6523
 20
248.123827832031
 30
0.0
 11
156.5023
 21
248.468577832031
 31
0.0
 0
LINE
 5
33F
100
AcDbEntity
 8
Layer8
100
AcDbLine
 39
0.25
 370
106
 10
156.5023
 20
248.468577832031
 30
0.0
 11
155.4843
 21
248.964827832031
 31
0.0
 0
LINE
 5
340
100
AcDbEntity
 8
Layer8
100
AcDbLine
 39
0.25
 370
106
 10
155.4843
 20
248.964827832031
 30
0.0
 11
146.6613
 21
254.126827832031
 31
0.0
 0
LINE
 5
341
100
AcDbEntity
 8
Layer8
100
AcDbLine
 39
0.25
 370
106
 10
136.7362
 20
203.546127832031
 30
0.0
 11
135.1442
 21
202.988127832031
 31
0.0
 0
LINE
 5
342
100
AcDbEntity
 8
Layer8
100
AcDbLine
 39
0.25
 370
106
 10
135.1442
 20
202.988127832031
 30
0.0
 11
135.891325
 21
201.639752832031
 31
0.0
 0
LINE
 5
343
100
AcDbEntity
 8
Layer8
100
AcDbLine
 39
0.25
 370
106
 10
135.891325
 20
201.639752832031
 30
0.0
 11
136.8732
 21
200.469127832031
 31
0.0
 0
LINE
 5
344
100
AcDbEntity
 8
Layer8
100
AcDbLine
 39
0.25
 370
106
 10
136.8732
 20
200.469127832031
 30
0.0
 11
138.2002
 21
201.526127832031
 31
0.0
 0
LINE
 5
345
100
AcDbEntity
 8
Layer8
100
AcDbLine
 39
0.25
 370
106
 10
138.2002
 20
201.526127832031
 30
0.0
 11
147.0572
 21
206.487127832031
 31
0.0
 0
LINE
 5
346
100
AcDbEntity
 8
Layer8
100
AcDbLine
 39
0.25
 370
106
 10
147.0572
 20
206.487127832031
 30
0.0
 11
145.8152
 21
208.632127832031
 31
0.0
 0
LINE
 5
347
100
AcDbEntity
 8
Layer8
100
AcDbLine
 39
0.25
 370
106
 10
145.8152
 20
208.632127832031
 30
0.0
 11
136.7362
 21
203.546127832031
 31
0.0
 0
CIRCLE
 5
348
100
AcDbEntity
 8
Layer8
100
AcDbCircle
 39
0.25
 370
106
 10
159.6841
 20
275.822127832031
 30
0.0
 40
2.58474999999999
 370
106
 0
CIRCLE
 5
349
100
AcDbEntity
 8
Layer8
100
AcDbCircle
 39
0.25
 370
106
 10
159.6841
 20
275.822127832031
 30
0.0
 40
2.58474999999999
 370
106
 0
LINE
 5
34A
100
AcDbEntity
 8
Layer8
100
AcDbLine
 39
0.25
 370
106
 10
136.7078
 20
203.535227832031
 30
0.0
 11
135.1068
 21
202.973227832031
 31
0.0
 0
LINE
 5
34B
100
AcDbEntity
 8
Layer8
100
AcDbLine
 39
0.25
 370
106
 10
135.1068
 20
202.973227832031
 30
0.0
 11
135.858675
 21
201.612602832031
 31
0.0
 0
LINE
 5
34C
100
AcDbEntity
 8
Layer8
100
AcDbLine
 39
0.25
 370
106
 10
135.858675
 20
201.612602832031
 30
0.0
 11
136.8468
 21
200.431227832031
 31
0.0
 0
LINE
 5
34D
100
AcDbEntity
 8
Layer8
100
AcDbLine
 39
0.25
 370
106
 10
136.8468
 20
200.431227832031
 30
0.0
 11
138.1828
 21
201.496227832031
 31
0.0
 0
LINE
 5
34E
100
AcDbEntity
 8
Layer8
100
AcDbLine
 39
0.25
 370
106
 10
138.1828
 20
201.496227832031
 30
0.0
 11
147.0928
 21
206.500227832031
 31
0.0
 0
LINE
 5
34F
100
AcDbEntity
 8
Layer8
100
AcDbLine
 39
0.25
 370
106
 10
147.0928
 20
206.500227832031
 30
0.0
 11
145.8438
 21
208.665227832031
 31
0.0
 0
LINE
 5
350
100
AcDbEntity
 8
Layer8
100
AcDbLine
 39
0.25
 370
106
 10
145.8438
 20
208.665227832031
 30
0.0
 11
136.7078
 21
203.535227832031
 31
0.0
 0
ARC
 5
351
100
AcDbEntity
 8
Layer8
100
AcDbCircle
 39
0.25
 370
106
 10
185.371000000001
 20
250.31630155105
 30
0.0
 40
7.53531717132546
100
AcDbArc
 50
62.9399268537652
 51
117.060073146251
 0
ARC
 5
352
100
AcDbEntity
 8
Layer8
100
AcDbCircle
 39
0.25
 370
106
 10
194.094984267412
 20
265.258717101191
 30
0.0
 40
7.25043644327512
100
AcDbArc
 50
-177.233172927322
 51
-121.756539384133
 0
LINE
 5
353
100
AcDbEntity
 8
Layer8
100
AcDbLine
 39
0.25
 370
106
 10
186.853
 20
274.958727832031
 30
0.0
 11
183.895
 21
274.958727832031
 31
0.0
 0
LINE
 5
354
100
AcDbEntity
 8
Layer8
100
AcDbLine
 39
0.25
 370
106
 10
183.895
 20
274.958727832031
 30
0.0
 11
183.895
 21
264.908727832031
 31
0.0
 0
LINE
 5
355
100
AcDbEntity
 8
Layer8
100
AcDbLine
 39
0.25
 370
106
 10
183.895
 20
264.908727832031
 30
0.0
 11
183.624390625
 21
263.250321582031
 31
0.0
 0
LINE
 5
356
100
AcDbEntity
 8
Layer8
100
AcDbLine
 39
0.25
 370
106
 10
183.624390625
 20
263.250321582031
 30
0.0
 11
182.887375
 21
261.601477832031
 31
0.0
 0
LINE
 5
357
100
AcDbEntity
 8
Layer8
100
AcDbLine
 39
0.25
 370
106
 10
182.887375
 20
261.601477832031
 30
0.0
 11
181.796171875
 21
260.152509082031
 31
0.0
 0
LINE
 5
358
100
AcDbEntity
 8
Layer8
100
AcDbLine
 39
0.25
 370
106
 10
181.796171875
 20
260.152509082031
 30
0.0
 11
180.463
 21
259.093727832031
 31
0.0
 0
LINE
 5
359
100
AcDbEntity
 8
Layer8
100
AcDbLine
 39
0.25
 370
106
 10
180.463
 20
259.093727832031
 30
0.0
 11
171.662
 21
254.116727832031
 31
0.0
 0
LINE
 5
35A
100
AcDbEntity
 8
Layer8
100
AcDbLine
 39
0.25
 370
106
 10
171.662
 20
254.116727832031
 30
0.0
 11
172.925
 21
251.926727832031
 31
0.0
 0
LINE
 5
35B
100
AcDbEntity
 8
Layer8
100
AcDbLine
 39
0.25
 370
106
 10
172.925
 20
251.926727832031
 30
0.0
 11
181.943
 21
257.026727832031
 31
0.0
 0
LINE
 5
35C
100
AcDbEntity
 8
Layer8
100
AcDbLine
 39
0.25
 370
106
 10
188.799
 20
257.026727832031
 30
0.0
 11
197.796
 21
251.940727832031
 31
0.0
 0
LINE
 5
35D
100
AcDbEntity
 8
Layer8
100
AcDbLine
 39
0.25
 370
106
 10
197.796
 20
251.940727832031
 30
0.0
 11
199.058
 21
254.130727832031
 31
0.0
 0
LINE
 5
35E
100
AcDbEntity
 8
Layer8
100
AcDbLine
 39
0.25
 370
106
 10
199.058
 20
254.130727832031
 30
0.0
 11
190.279
 21
259.093727832031
 31
0.0
 0
LINE
 5
35F
100
AcDbEntity
 8
Layer8
100
AcDbLine
 39
0.25
 370
106
 10
186.853
 20
264.908727832031
 30
0.0
 11
186.853
 21
274.958727832031
 31
0.0
 0
CIRCLE
 5
360
100
AcDbEntity
 8
Layer8
100
AcDbCircle
 39
0.25
 370
106
 10
212.1916
 20
245.269227832031
 30
0.0
 40
2.58475000000001
 370
106
 0
CIRCLE
 5
361
100
AcDbEntity
 8
Layer8
100
AcDbCircle
 39
0.25
 370
106
 10
212.1916
 20
245.269227832031
 30
0.0
 40
2.58475000000001
 370
106
 0
CIRCLE
 5
362
100
AcDbEntity
 8
Layer8
100
AcDbCircle
 39
0.25
 370
106
 10
211.928
 20
245.539327832031
 30
0.0
 40
2.22125
 370
106
 0
ARC
 5
363
100
AcDbEntity
 8
Layer8
100
AcDbCircle
 39
0.25
 370
106
 10
185.3702
 20
250.266618514031
 30
0.0
 40
7.56041338121921
100
AcDbArc
 50
62.9604925631756
 51
117.039507436824
 0
ARC
 5
364
100
AcDbEntity
 8
Layer8
100
AcDbCircle
 39
0.25
 370
106
 10
194.100555449494
 20
265.242901529904
 30
0.0
 40
7.25177152727133
100
AcDbArc
 50
-177.239342974085
 51
-121.679155323327
 0
LINE
 5
365
100
AcDbEntity
 8
Layer8
100
AcDbLine
 39
0.25
 370
106
 10
186.8572
 20
274.958627832031
 30
0.0
 11
183.8922
 21
274.958627832031
 31
0.0
 0
LINE
 5
366
100
AcDbEntity
 8
Layer8
100
AcDbLine
 39
0.25
 370
106
 10
183.8922
 20
274.958627832031
 30
0.0
 11
183.8922
 21
264.893627832031
 31
0.0
 0
LINE
 5
367
100
AcDbEntity
 8
Layer8
100
AcDbLine
 39
0.25
 370
106
 10
183.8922
 20
264.893627832031
 30
0.0
 11
183.620746875
 21
263.232862207031
 31
0.0
 0
LINE
 5
368
100
AcDbEntity
 8
Layer8
100
AcDbLine
 39
0.25
 370
106
 10
183.620746875
 20
263.232862207031
 30
0.0
 11
182.881575
 21
261.581752832031
 31
0.0
 0
LINE
 5
369
100
AcDbEntity
 8
Layer8
100
AcDbLine
 39
0.25
 370
106
 10
182.881575
 20
261.581752832031
 30
0.0
 11
181.787465625
 21
260.131080957031
 31
0.0
 0
LINE
 5
36A
100
AcDbEntity
 8
Layer8
100
AcDbLine
 39
0.25
 370
106
 10
181.787465625
 20
260.131080957031
 30
0.0
 11
180.4512
 21
259.071627832031
 31
0.0
 0
LINE
 5
36B
100
AcDbEntity
 8
Layer8
100
AcDbLine
 39
0.25
 370
106
 10
180.4512
 20
259.071627832031
 30
0.0
 11
171.6272
 21
254.085627832031
 31
0.0
 0
LINE
 5
36C
100
AcDbEntity
 8
Layer8
100
AcDbLine
 39
0.25
 370
106
 10
171.6272
 20
254.085627832031
 30
0.0
 11
172.8912
 21
251.891627832031
 31
0.0
 0
LINE
 5
36D
100
AcDbEntity
 8
Layer8
100
AcDbLine
 39
0.25
 370
106
 10
172.8912
 20
251.891627832031
 30
0.0
 11
181.9332
 21
257.000627832031
 31
0.0
 0
LINE
 5
36E
100
AcDbEntity
 8
Layer8
100
AcDbLine
 39
0.25
 370
106
 10
188.8072
 20
257.000627832031
 30
0.0
 11
197.8292
 21
251.906627832031
 31
0.0
 0
LINE
 5
36F
100
AcDbEntity
 8
Layer8
100
AcDbLine
 39
0.25
 370
106
 10
197.8292
 20
251.906627832031
 30
0.0
 11
199.0942
 21
254.099627832031
 31
0.0
 0
LINE
 5
370
100
AcDbEntity
 8
Layer8
100
AcDbLine
 39
0.25
 370
106
 10
199.0942
 20
254.099627832031
 30
0.0
 11
190.2922
 21
259.071627832031
 31
0.0
 0
LINE
 5
371
100
AcDbEntity
 8
Layer8
100
AcDbLine
 39
0.25
 370
106
 10
186.8572
 20
264.893627832031
 30
0.0
 11
186.8572
 21
274.958627832031
 31
0.0
 0
CIRCLE
 5
372
100
AcDbEntity
 8
Layer8
100
AcDbCircle
 39
0.25
 370
106
 10
211.9208
 20
245.548427832031
 30
0.0
 40
2.22650000000002
 370
106
 0
ARC
 5
373
100
AcDbEntity
 8
Layer8
100
AcDbCircle
 39
0.25
 370
106
 10
211.904789201118
 20
245.539244885144
 30
0.0
 40
3.0313256556476
100
AcDbArc
 50
-169.115260097578
 51
122.815633968901
 0
LINE
 5
374
100
AcDbEntity
 8
Layer8
100
AcDbLine
 39
0.25
 370
106
 10
210.262
 20
248.086827832031
 30
0.0
 11
208.858109375
 21
248.554202832031
 31
0.0
 0
LINE
 5
375
100
AcDbEntity
 8
Layer8
100
AcDbLine
 39
0.25
 370
106
 10
208.858109375
 20
248.554202832031
 30
0.0
 11
199.304
 21
253.892827832031
 31
0.0
 0
LINE
 5
376
100
AcDbEntity
 8
Layer8
100
AcDbLine
 39
0.25
 370
106
 10
199.304
 20
253.892827832031
 30
0.0
 11
198.048
 21
251.724827832031
 31
0.0
 0
LINE
 5
377
100
AcDbEntity
 8
Layer8
100
AcDbLine
 39
0.25
 370
106
 10
198.048
 20
251.724827832031
 30
0.0
 11
206.984
 21
246.698827832031
 31
0.0
 0
LINE
 5
378
100
AcDbEntity
 8
Layer8
100
AcDbLine
 39
0.25
 370
106
 10
206.984
 20
246.698827832031
 30
0.0
 11
207.998625
 21
245.931952832031
 31
0.0
 0
LINE
 5
379
100
AcDbEntity
 8
Layer8
100
AcDbLine
 39
0.25
 370
106
 10
207.998625
 20
245.931952832031
 30
0.0
 11
208.928
 21
244.966827832031
 31
0.0
 0
ARC
 5
37A
100
AcDbEntity
 8
Layer8
100
AcDbCircle
 39
0.25
 370
106
 10
211.900563469483
 20
245.547143930945
 30
0.0
 40
3.04019526110665
100
AcDbArc
 50
-169.141663095461
 51
122.84181850417
 0
LINE
 5
37B
100
AcDbEntity
 8
Layer8
100
AcDbLine
 39
0.25
 370
106
 10
210.2518
 20
248.101427832031
 30
0.0
 11
208.84551875
 21
248.571787207031
 31
0.0
 0
LINE
 5
37C
100
AcDbEntity
 8
Layer8
100
AcDbLine
 39
0.25
 370
106
 10
208.84551875
 20
248.571787207031
 30
0.0
 11
199.2718
 21
253.925427832031
 31
0.0
 0
LINE
 5
37D
100
AcDbEntity
 8
Layer8
100
AcDbLine
 39
0.25
 370
106
 10
199.2718
 20
253.925427832031
 30
0.0
 11
198.0118
 21
251.752427832031
 31
0.0
 0
LINE
 5
37E
100
AcDbEntity
 8
Layer8
100
AcDbLine
 39
0.25
 370
106
 10
198.0118
 20
251.752427832031
 30
0.0
 11
206.9668
 21
246.712427832031
 31
0.0
 0
LINE
 5
37F
100
AcDbEntity
 8
Layer8
100
AcDbLine
 39
0.25
 370
106
 10
206.9668
 20
246.712427832031
 30
0.0
 11
207.983425
 21
245.941802832031
 31
0.0
 0
LINE
 5
380
100
AcDbEntity
 8
Layer8
100
AcDbLine
 39
0.25
 370
106
 10
207.983425
 20
245.941802832031
 30
0.0
 11
208.9148
 21
244.974427832031
 31
0.0
 0
LINE
 5
381
100
AcDbEntity
 8
Layer8
100
AcDbLine
 39
0.25
 370
106
 10
163.7015
 20
246.529427832031
 30
0.0
 11
162.9745
 21
246.006427832031
 31
0.0
 0
LINE
 5
382
100
AcDbEntity
 8
Layer8
100
AcDbLine
 39
0.25
 370
106
 10
162.9745
 20
246.006427832031
 30
0.0
 11
162.20275
 21
247.127302832031
 31
0.0
 0
LINE
 5
383
100
AcDbEntity
 8
Layer8
100
AcDbLine
 39
0.25
 370
106
 10
162.20275
 20
247.127302832031
 30
0.0
 11
161.6365
 21
248.349427832031
 31
0.0
 0
LINE
 5
384
100
AcDbEntity
 8
Layer8
100
AcDbLine
 39
0.25
 370
106
 10
161.6365
 20
248.349427832031
 30
0.0
 11
162.6625
 21
248.794427832031
 31
0.0
 0
LINE
 5
385
100
AcDbEntity
 8
Layer8
100
AcDbLine
 39
0.25
 370
106
 10
162.6625
 20
248.794427832031
 30
0.0
 11
171.4205
 21
253.899427832031
 31
0.0
 0
LINE
 5
386
100
AcDbEntity
 8
Layer8
100
AcDbLine
 39
0.25
 370
106
 10
171.4205
 20
253.899427832031
 30
0.0
 11
172.6725
 21
251.768427832031
 31
0.0
 0
LINE
 5
387
100
AcDbEntity
 8
Layer8
100
AcDbLine
 39
0.25
 370
106
 10
172.6725
 20
251.768427832031
 30
0.0
 11
163.7015
 21
246.529427832031
 31
0.0
 0
CIRCLE
 5
388
100
AcDbEntity
 8
Layer8
100
AcDbCircle
 39
0.25
 370
106
 10
185.2622
 20
290.310627832031
 30
0.0
 40
2.58450000000002
 370
106
 0
CIRCLE
 5
389
100
AcDbEntity
 8
Layer8
100
AcDbCircle
 39
0.25
 370
106
 10
185.2622
 20
290.310627832031
 30
0.0
 40
2.58450000000002
 370
106
 0
CIRCLE
 5
38A
100
AcDbEntity
 8
Layer8
100
AcDbCircle
 39
0.25
 370
106
 10
185.3599
 20
290.446627832031
 30
0.0
 40
2.21299999999999
 370
106
 0
LINE
 5
38B
100
AcDbEntity
 8
Layer8
100
AcDbLine
 39
0.25
 370
106
 10
163.6841
 20
246.496027832031
 30
0.0
 11
162.9551
 21
245.970027832031
 31
0.0
 0
LINE
 5
38C
100
AcDbEntity
 8
Layer8
100
AcDbLine
 39
0.25
 370
106
 10
162.9551
 20
245.970027832031
 30
0.0
 11
162.17735
 21
247.099152832031
 31
0.0
 0
LINE
 5
38D
100
AcDbEntity
 8
Layer8
100
AcDbLine
 39
0.25
 370
106
 10
162.17735
 20
247.099152832031
 30
0.0
 11
161.6081
 21
248.334027832031
 31
0.0
 0
LINE
 5
38E
100
AcDbEntity
 8
Layer8
100
AcDbLine
 39
0.25
 370
106
 10
161.6081
 20
248.334027832031
 30
0.0
 11
162.6401
 21
248.782027832031
 31
0.0
 0
LINE
 5
38F
100
AcDbEntity
 8
Layer8
100
AcDbLine
 39
0.25
 370
106
 10
162.6401
 20
248.782027832031
 30
0.0
 11
171.4491
 21
253.934027832031
 31
0.0
 0
LINE
 5
390
100
AcDbEntity
 8
Layer8
100
AcDbLine
 39
0.25
 370
106
 10
171.4491
 20
253.934027832031
 30
0.0
 11
172.7081
 21
251.783027832031
 31
0.0
 0
LINE
 5
391
100
AcDbEntity
 8
Layer8
100
AcDbLine
 39
0.25
 370
106
 10
172.7081
 20
251.783027832031
 30
0.0
 11
163.6841
 21
246.496027832031
 31
0.0
 0
CIRCLE
 5
392
100
AcDbEntity
 8
Layer8
100
AcDbCircle
 39
0.25
 370
106
 10
185.3599
 20
290.446627832031
 30
0.0
 40
2.21299999999999
 370
106
 0
ARC
 5
393
100
AcDbEntity
 8
Layer8
100
AcDbCircle
 39
0.25
 370
106
 10
185.431398255666
 20
290.45408774975
 30
0.0
 40
3.08326842329428
100
AcDbArc
 50
113.713275597448
 51
-126.812711910265
 0
ARC
 5
394
100
AcDbEntity
 8
Layer8
100
AcDbCircle
 39
0.25
 370
106
 10
185.296686756135
 20
290.426665652698
 30
0.0
 40
3.05715389157647
100
AcDbArc
 50
-51.9990161072609
 51
111.194241791528
 0
ARC
 5
395
100
AcDbEntity
 8
Layer8
100
AcDbCircle
 39
0.25
 370
106
 10
185.431398255666
 20
290.45408774975
 30
0.0
 40
3.08326842329428
100
AcDbArc
 50
113.713275597448
 51
-126.812711910265
 0
ARC
 5
396
100
AcDbEntity
 8
Layer8
100
AcDbCircle
 39
0.25
 370
106
 10
185.296686756135
 20
290.426665652698
 30
0.0
 40
3.05715389157647
100
AcDbArc
 50
-51.9990161072609
 51
111.194241791528
 0
LINE
 5
397
100
AcDbEntity
 8
Layer8
100
AcDbLine
 39
0.25
 370
106
 10
183.5839
 20
287.985627832031
 30
0.0
 11
183.908103125
 21
286.329127832031
 31
0.0
 0
LINE
 5
398
100
AcDbEntity
 8
Layer8
100
AcDbLine
 39
0.25
 370
106
 10
183.908103125
 20
286.329127832031
 30
0.0
 11
183.9379
 21
275.149627832031
 31
0.0
 0
LINE
 5
399
100
AcDbEntity
 8
Layer8
100
AcDbLine
 39
0.25
 370
106
 10
183.9379
 20
275.149627832031
 30
0.0
 11
186.8299
 21
275.149627832031
 31
0.0
 0
LINE
 5
39A
100
AcDbEntity
 8
Layer8
100
AcDbLine
 39
0.25
 370
106
 10
186.8299
 20
275.149627832031
 30
0.0
 11
186.8607125
 21
286.342018457031
 31
0.0
 0
LINE
 5
39B
100
AcDbEntity
 8
Layer8
100
AcDbLine
 39
0.25
 370
106
 10
186.8607125
 20
286.342018457031
 30
0.0
 11
187.1789
 21
288.017627832031
 31
0.0
 0
LINE
 5
39C
100
AcDbEntity
 8
Layer8
100
AcDbLine
 39
0.25
 370
106
 10
183.5839
 20
287.985627832031
 30
0.0
 11
183.908103125
 21
286.329127832031
 31
0.0
 0
LINE
 5
39D
100
AcDbEntity
 8
Layer8
100
AcDbLine
 39
0.25
 370
106
 10
183.908103125
 20
286.329127832031
 30
0.0
 11
183.9379
 21
275.149627832031
 31
0.0
 0
LINE
 5
39E
100
AcDbEntity
 8
Layer8
100
AcDbLine
 39
0.25
 370
106
 10
183.9379
 20
275.149627832031
 30
0.0
 11
186.8299
 21
275.149627832031
 31
0.0
 0
LINE
 5
39F
100
AcDbEntity
 8
Layer8
100
AcDbLine
 39
0.25
 370
106
 10
186.8299
 20
275.149627832031
 30
0.0
 11
186.8607125
 21
286.342018457031
 31
0.0
 0
LINE
 5
3A0
100
AcDbEntity
 8
Layer8
100
AcDbLine
 39
0.25
 370
106
 10
186.8607125
 20
286.342018457031
 30
0.0
 11
187.1789
 21
288.017627832031
 31
0.0
 0
ARC
 5
3A1
100
AcDbEntity
 8
Layer8
100
AcDbCircle
 39
0.25
 370
106
 10
185.090073163096
 20
210.233888306857
 30
0.0
 40
7.20083067439702
100
AcDbArc
 50
-118.507548840217
 51
-62.5784337182147
 0
ARC
 5
3A2
100
AcDbEntity
 8
Layer8
100
AcDbCircle
 39
0.25
 370
106
 10
176.50956181684
 20
195.274559658938
 30
0.0
 40
7.52851568440458
100
AcDbArc
 50
2.9204105199027
 51
57.0506694754185
 0
ARC
 5
3A3
100
AcDbEntity
 8
Layer8
100
AcDbCircle
 39
0.25
 370
106
 10
193.81552661534
 20
195.183324812498
 30
0.0
 40
7.25770901761002
100
AcDbArc
 50
122.796863673404
 51
178.225014990322
 0
LINE
 5
3A4
100
AcDbEntity
 8
Layer8
100
AcDbLine
 39
0.25
 370
106
 10
198.5883
 20
206.307127832031
 30
0.0
 11
197.1103
 21
208.869127832031
 31
0.0
 0
LINE
 5
3A5
100
AcDbEntity
 8
Layer8
100
AcDbLine
 39
0.25
 370
106
 10
197.1103
 20
208.869127832031
 30
0.0
 11
188.4063
 21
203.842127832031
 31
0.0
 0
LINE
 5
3A6
100
AcDbEntity
 8
Layer8
100
AcDbLine
 39
0.25
 370
106
 10
181.6533
 20
203.906127832031
 30
0.0
 11
172.9403
 21
209.040127832031
 31
0.0
 0
LINE
 5
3A7
100
AcDbEntity
 8
Layer8
100
AcDbLine
 39
0.25
 370
106
 10
172.9403
 20
209.040127832031
 30
0.0
 11
171.6783
 21
206.852127832031
 31
0.0
 0
LINE
 5
3A8
100
AcDbEntity
 8
Layer8
100
AcDbLine
 39
0.25
 370
106
 10
171.6783
 20
206.852127832031
 30
0.0
 11
180.6043
 21
201.592127832031
 31
0.0
 0
LINE
 5
3A9
100
AcDbEntity
 8
Layer8
100
AcDbLine
 39
0.25
 370
106
 10
184.0283
 20
195.658127832031
 30
0.0
 11
184.1243
 21
185.319127832031
 31
0.0
 0
LINE
 5
3AA
100
AcDbEntity
 8
Layer8
100
AcDbLine
 39
0.25
 370
106
 10
184.1243
 20
185.319127832031
 30
0.0
 11
186.6523
 21
185.321127832031
 31
0.0
 0
LINE
 5
3AB
100
AcDbEntity
 8
Layer8
100
AcDbLine
 39
0.25
 370
106
 10
186.6523
 20
185.321127832031
 30
0.0
 11
186.5613
 21
195.408127832031
 31
0.0
 0
LINE
 5
3AC
100
AcDbEntity
 8
Layer8
100
AcDbLine
 39
0.25
 370
106
 10
189.8843
 20
201.284127832031
 30
0.0
 11
198.5883
 21
206.307127832031
 31
0.0
 0
CIRCLE
 5
3AD
100
AcDbEntity
 8
Layer8
100
AcDbCircle
 39
0.25
 370
106
 10
185.58665625
 20
169.589413769531
 30
0.0
 40
2.56553515625001
 370
106
 0
CIRCLE
 5
3AE
100
AcDbEntity
 8
Layer8
100
AcDbCircle
 39
0.25
 370
106
 10
185.58665625
 20
169.589413769531
 30
0.0
 40
2.56553515625001
 370
106
 0
CIRCLE
 5
3AF
100
AcDbEntity
 8
Layer8
100
AcDbCircle
 39
0.25
 370
106
 10
185.6857671875
 20
169.950529394531
 30
0.0
 40
2.1959921875
 370
106
 0
ARC
 5
3B0
100
AcDbEntity
 8
Layer8
100
AcDbCircle
 39
0.25
 370
106
 10
185.089658723872
 20
210.28133514336
 30
0.0
 40
7.22154053313392
100
AcDbArc
 50
-118.48679635345
 51
-62.5795344944166
 0
ARC
 5
3B1
100
AcDbEntity
 8
Layer8
100
AcDbCircle
 39
0.25
 370
106
 10
176.485503320051
 20
195.282906637369
 30
0.0
 40
7.54988785054036
100
AcDbArc
 50
2.9626922332346
 51
57.0467423236797
 0
ARC
 5
3B2
100
AcDbEntity
 8
Layer8
100
AcDbCircle
 39
0.25
 370
106
 10
193.822490512242
 20
195.197473316766
 30
0.0
 40
7.26272807988294
100
AcDbArc
 50
122.714738130747
 51
178.211628483641
 0
LINE
 5
3B3
100
AcDbEntity
 8
Layer8
100
AcDbLine
 39
0.25
 370
106
 10
198.6223
 20
206.339127832031
 30
0.0
 11
197.1403
 21
208.905127832031
 31
0.0
 0
LINE
 5
3B4
100
AcDbEntity
 8
Layer8
100
AcDbLine
 39
0.25
 370
106
 10
197.1403
 20
208.905127832031
 30
0.0
 11
188.4153
 21
203.871127832031
 31
0.0
 0
LINE
 5
3B5
100
AcDbEntity
 8
Layer8
100
AcDbLine
 39
0.25
 370
106
 10
181.6453
 20
203.934127832031
 30
0.0
 11
172.9093
 21
209.076127832031
 31
0.0
 0
LINE
 5
3B6
100
AcDbEntity
 8
Layer8
100
AcDbLine
 39
0.25
 370
106
 10
172.9093
 20
209.076127832031
 30
0.0
 11
171.6423
 21
206.883127832031
 31
0.0
 0
LINE
 5
3B7
100
AcDbEntity
 8
Layer8
100
AcDbLine
 39
0.25
 370
106
 10
171.6423
 20
206.883127832031
 30
0.0
 11
180.5923
 21
201.618127832031
 31
0.0
 0
LINE
 5
3B8
100
AcDbEntity
 8
Layer8
100
AcDbLine
 39
0.25
 370
106
 10
184.0253
 20
195.673127832031
 30
0.0
 11
184.1213
 21
185.318127832031
 31
0.0
 0
LINE
 5
3B9
100
AcDbEntity
 8
Layer8
100
AcDbLine
 39
0.25
 370
106
 10
184.1213
 20
185.318127832031
 30
0.0
 11
186.6563
 21
185.322127832031
 31
0.0
 0
LINE
 5
3BA
100
AcDbEntity
 8
Layer8
100
AcDbLine
 39
0.25
 370
106
 10
186.6563
 20
185.322127832031
 30
0.0
 11
186.5633
 21
195.424127832031
 31
0.0
 0
LINE
 5
3BB
100
AcDbEntity
 8
Layer8
100
AcDbLine
 39
0.25
 370
106
 10
189.8973
 20
201.308127832031
 30
0.0
 11
198.6223
 21
206.339127832031
 31
0.0
 0
CIRCLE
 5
3BC
100
AcDbEntity
 8
Layer8
100
AcDbCircle
 39
0.25
 370
106
 10
185.6857671875
 20
169.950529394531
 30
0.0
 40
2.1959921875
 370
106
 0
CIRCLE
 5
3BD
100
AcDbEntity
 8
Layer8
100
AcDbCircle
 39
0.25
 370
106
 10
211.1284609375
 20
215.431912207031
 30
0.0
 40
2.56583203124998
 370
106
 0
CIRCLE
 5
3BE
100
AcDbEntity
 8
Layer8
100
AcDbCircle
 39
0.25
 370
106
 10
211.1284609375
 20
215.431912207031
 30
0.0
 40
2.56583203124998
 370
106
 0
CIRCLE
 5
3BF
100
AcDbEntity
 8
Layer8
100
AcDbCircle
 39
0.25
 370
106
 10
211.2978078125
 20
215.408684082031
 30
0.0
 40
2.20623828124999
 370
106
 0
ARC
 5
3C0
100
AcDbEntity
 8
Layer8
100
AcDbCircle
 39
0.25
 370
106
 10
185.606100911032
 20
169.947025036333
 30
0.0
 40
3.09142199002235
100
AcDbArc
 50
-59.1706827868531
 51
62.2313989763408
 0
ARC
 5
3C1
100
AcDbEntity
 8
Layer8
100
AcDbCircle
 39
0.25
 370
106
 10
185.749565857093
 20
169.986939987909
 30
0.0
 40
3.05555212449955
100
AcDbArc
 50
131.612657004888
 51
-61.8652862028276
 0
ARC
 5
3C2
100
AcDbEntity
 8
Layer8
100
AcDbCircle
 39
0.25
 370
106
 10
185.606100911032
 20
169.947025036333
 30
0.0
 40
3.09142199002235
100
AcDbArc
 50
-59.1706827868531
 51
62.2313989763408
 0
ARC
 5
3C3
100
AcDbEntity
 8
Layer8
100
AcDbCircle
 39
0.25
 370
106
 10
185.749565857093
 20
169.986939987909
 30
0.0
 40
3.05555212449955
100
AcDbArc
 50
131.612657004888
 51
-61.8652862028276
 0
LINE
 5
3C4
100
AcDbEntity
 8
Layer8
100
AcDbLine
 39
0.25
 370
106
 10
187.0464
 20
172.682427832031
 30
0.0
 11
186.75843125
 21
174.139052832031
 31
0.0
 0
LINE
 5
3C5
100
AcDbEntity
 8
Layer8
100
AcDbLine
 39
0.25
 370
106
 10
186.75843125
 20
174.139052832031
 30
0.0
 11
186.6354
 21
185.128427832031
 31
0.0
 0
LINE
 5
3C6
100
AcDbEntity
 8
Layer8
100
AcDbLine
 39
0.25
 370
106
 10
186.6354
 20
185.128427832031
 30
0.0
 11
184.1634
 21
185.126427832031
 31
0.0
 0
LINE
 5
3C7
100
AcDbEntity
 8
Layer8
100
AcDbLine
 39
0.25
 370
106
 10
184.1634
 20
185.126427832031
 30
0.0
 11
184.2097125
 21
174.232302832031
 31
0.0
 0
LINE
 5
3C8
100
AcDbEntity
 8
Layer8
100
AcDbLine
 39
0.25
 370
106
 10
184.2097125
 20
174.232302832031
 30
0.0
 11
183.7204
 21
172.271427832031
 31
0.0
 0
LINE
 5
3C9
100
AcDbEntity
 8
Layer8
100
AcDbLine
 39
0.25
 370
106
 10
187.0464
 20
172.682427832031
 30
0.0
 11
186.75843125
 21
174.139052832031
 31
0.0
 0
LINE
 5
3CA
100
AcDbEntity
 8
Layer8
100
AcDbLine
 39
0.25
 370
106
 10
186.75843125
 20
174.139052832031
 30
0.0
 11
186.6354
 21
185.128427832031
 31
0.0
 0
LINE
 5
3CB
100
AcDbEntity
 8
Layer8
100
AcDbLine
 39
0.25
 370
106
 10
186.6354
 20
185.128427832031
 30
0.0
 11
184.1634
 21
185.126427832031
 31
0.0
 0
LINE
 5
3CC
100
AcDbEntity
 8
Layer8
100
AcDbLine
 39
0.25
 370
106
 10
184.1634
 20
185.126427832031
 30
0.0
 11
184.2097125
 21
174.232302832031
 31
0.0
 0
LINE
 5
3CD
100
AcDbEntity
 8
Layer8
100
AcDbLine
 39
0.25
 370
106
 10
184.2097125
 20
174.232302832031
 30
0.0
 11
183.7204
 21
172.271427832031
 31
0.0
 0
CIRCLE
 5
3CE
100
AcDbEntity
 8
Layer8
100
AcDbCircle
 39
0.25
 370
106
 10
211.2910703125
 20
215.399765332031
 30
0.0
 40
2.21157421875
 370
106
 0
ARC
 5
3CF
100
AcDbEntity
 8
Layer8
100
AcDbCircle
 39
0.25
 370
106
 10
211.318687024904
 20
215.438190369218
 30
0.0
 40
3.068267982987
100
AcDbArc
 50
-87.0812035777127
 51
174.260629373978
 0
LINE
 5
3D0
100
AcDbEntity
 8
Layer8
100
AcDbLine
 39
0.25
 370
106
 10
208.2658
 20
215.745027832031
 30
0.0
 11
206.999565625
 21
214.640043457031
 31
0.0
 0
LINE
 5
3D1
100
AcDbEntity
 8
Layer8
100
AcDbLine
 39
0.25
 370
106
 10
206.999565625
 20
214.640043457031
 30
0.0
 11
197.3638
 21
209.071027832031
 31
0.0
 0
LINE
 5
3D2
100
AcDbEntity
 8
Layer8
100
AcDbLine
 39
0.25
 370
106
 10
197.3638
 20
209.071027832031
 30
0.0
 11
198.8348
 21
206.534027832031
 31
0.0
 0
LINE
 5
3D3
100
AcDbEntity
 8
Layer8
100
AcDbLine
 39
0.25
 370
106
 10
198.8348
 20
206.534027832031
 30
0.0
 11
208.5148625
 21
212.055340332031
 31
0.0
 0
LINE
 5
3D4
100
AcDbEntity
 8
Layer8
100
AcDbLine
 39
0.25
 370
106
 10
208.5148625
 20
212.055340332031
 30
0.0
 11
210.1248
 21
212.611027832031
 31
0.0
 0
LINE
 5
3D5
100
AcDbEntity
 8
Layer8
100
AcDbLine
 39
0.25
 370
106
 10
210.1248
 20
212.611027832031
 30
0.0
 11
210.786221875
 21
212.417793457031
 31
0.0
 0
LINE
 5
3D6
100
AcDbEntity
 8
Layer8
100
AcDbLine
 39
0.25
 370
106
 10
210.786221875
 20
212.417793457031
 30
0.0
 11
211.474925
 21
212.373902832031
 31
0.0
 0
ARC
 5
3D7
100
AcDbEntity
 8
Layer8
100
AcDbCircle
 39
0.25
 370
106
 10
211.300900155843
 20
215.419986620744
 30
0.0
 40
3.06542251507189
100
AcDbArc
 50
-112.739211208904
 51
174.048536842984
 0
LINE
 5
3D8
100
AcDbEntity
 8
Layer8
100
AcDbLine
 39
0.25
 370
106
 10
208.252
 20
215.737827832031
 30
0.0
 11
206.98421875
 21
214.629327832031
 31
0.0
 0
LINE
 5
3D9
100
AcDbEntity
 8
Layer8
100
AcDbLine
 39
0.25
 370
106
 10
206.98421875
 20
214.629327832031
 30
0.0
 11
197.328
 21
209.042827832031
 31
0.0
 0
LINE
 5
3DA
100
AcDbEntity
 8
Layer8
100
AcDbLine
 39
0.25
 370
106
 10
197.328
 20
209.042827832031
 30
0.0
 11
198.801
 21
206.500827832031
 31
0.0
 0
LINE
 5
3DB
100
AcDbEntity
 8
Layer8
100
AcDbLine
 39
0.25
 370
106
 10
198.801
 20
206.500827832031
 30
0.0
 11
208.501984375
 21
212.037702832031
 31
0.0
 0
LINE
 5
3DC
100
AcDbEntity
 8
Layer8
100
AcDbLine
 39
0.25
 370
106
 10
208.501984375
 20
212.037702832031
 30
0.0
 11
210.116
 21
212.592827832031
 31
0.0
 0
ARC
 5
3DD
100
AcDbEntity
 8
Layer8
100
AcDbCircle
 39
0.25
 370
106
 10
168.229248367183
 20
250.477706407509
 30
0.0
 40
7.08155158971879
100
AcDbArc
 50
-177.889602210883
 51
-121.051736951379
 0
ARC
 5
3DE
100
AcDbEntity
 8
Layer8
100
AcDbCircle
 39
0.25
 370
106
 10
150.822452045142
 20
250.654407900633
 30
0.0
 40
7.39614642598886
100
AcDbArc
 50
-54.8479958490607
 51
-7.3725247291276
 0
ARC
 5
3DF
100
AcDbEntity
 8
Layer8
100
AcDbCircle
 39
0.25
 370
106
 10
159.675786422404
 20
235.367318655792
 30
0.0
 40
7.78545205857671
100
AcDbArc
 50
67.3095128799504
 51
112.521168700355
 0
LINE
 5
3E0
100
AcDbEntity
 8
Layer8
100
AcDbLine
 39
0.25
 370
106
 10
161.1525
 20
250.216927832031
 30
0.0
 11
161.1525
 21
260.270927832031
 31
0.0
 0
LINE
 5
3E1
100
AcDbEntity
 8
Layer8
100
AcDbLine
 39
0.25
 370
106
 10
161.1525
 20
260.270927832031
 30
0.0
 11
158.1855
 21
260.270927832031
 31
0.0
 0
LINE
 5
3E2
100
AcDbEntity
 8
Layer8
100
AcDbLine
 39
0.25
 370
106
 10
158.1855
 20
260.270927832031
 30
0.0
 11
158.157453125
 21
249.705334082031
 31
0.0
 0
LINE
 5
3E3
100
AcDbEntity
 8
Layer8
100
AcDbLine
 39
0.25
 370
106
 10
155.080765625
 20
244.607115332031
 30
0.0
 11
145.9855
 21
239.440927832031
 31
0.0
 0
LINE
 5
3E4
100
AcDbEntity
 8
Layer8
100
AcDbLine
 39
0.25
 370
106
 10
145.9855
 20
239.440927832031
 30
0.0
 11
147.2395
 21
237.247927832031
 31
0.0
 0
LINE
 5
3E5
100
AcDbEntity
 8
Layer8
100
AcDbLine
 39
0.25
 370
106
 10
147.2395
 20
237.247927832031
 30
0.0
 11
156.693765625
 21
242.559037207031
 31
0.0
 0
LINE
 5
3E6
100
AcDbEntity
 8
Layer8
100
AcDbLine
 39
0.25
 370
106
 10
162.679046875
 20
242.550193457031
 30
0.0
 11
172.1225
 21
237.234927832031
 31
0.0
 0
LINE
 5
3E7
100
AcDbEntity
 8
Layer8
100
AcDbLine
 39
0.25
 370
106
 10
172.1225
 20
237.234927832031
 30
0.0
 11
173.3785
 21
239.427927832031
 31
0.0
 0
LINE
 5
3E8
100
AcDbEntity
 8
Layer8
100
AcDbLine
 39
0.25
 370
106
 10
173.3785
 20
239.427927832031
 30
0.0
 11
164.5765
 21
244.410927832031
 31
0.0
 0
LWPOLYLINE
 5
3E9
100
AcDbEntity
 8
Layer8
100
AcDbPolyline
 39
0.25
 370
106
 90
5              
 70
 1
 43
0.0
 10
158.274
 20
260.361027832031
 10
161.069
 20
260.361027832031
 10
161.069
 20
260.345027832031
 10
158.274
 20
260.345027832031
 10
158.274
 20
260.361027832031
 0
LWPOLYLINE
 5
3EA
100
AcDbEntity
 8
Layer8
100
AcDbPolyline
 39
0.25
 370
106
 90
5              
 70
 1
 43
0.0
 10
158.274
 20
260.361027832031
 10
161.069
 20
260.361027832031
 10
161.069
 20
260.345027832031
 10
158.274
 20
260.345027832031
 10
158.274
 20
260.361027832031
 0
LWPOLYLINE
 5
3EB
100
AcDbEntity
 8
Layer8
100
AcDbPolyline
 39
0.25
 370
106
 90
5              
 70
 1
 43
0.0
 10
158.274
 20
260.361027832031
 10
161.069
 20
260.361027832031
 10
161.069
 20
260.345027832031
 10
158.274
 20
260.345027832031
 10
158.274
 20
260.361027832031
 0
LWPOLYLINE
 5
3EC
100
AcDbEntity
 8
Layer8
100
AcDbPolyline
 39
0.25
 370
106
 90
5              
 70
 1
 43
0.0
 10
158.274
 20
260.361027832031
 10
161.069
 20
260.361027832031
 10
161.069
 20
260.345027832031
 10
158.274
 20
260.345027832031
 10
158.274
 20
260.361027832031
 0
LWPOLYLINE
 5
3ED
100
AcDbEntity
 8
Layer8
100
AcDbPolyline
 39
0.25
 370
106
 90
5              
 70
 1
 43
0.0
 10
158.274
 20
260.361027832031
 10
161.069
 20
260.361027832031
 10
161.069
 20
260.345027832031
 10
158.274
 20
260.345027832031
 10
158.274
 20
260.361027832031
 0
LWPOLYLINE
 5
3EE
100
AcDbEntity
 8
Layer8
100
AcDbPolyline
 39
0.25
 370
106
 90
5              
 70
 1
 43
0.0
 10
158.274
 20
260.361027832031
 10
161.069
 20
260.361027832031
 10
161.069
 20
260.345027832031
 10
158.274
 20
260.345027832031
 10
158.274
 20
260.361027832031
 0
ARC
 5
3EF
100
AcDbEntity
 8
Layer8
100
AcDbCircle
 39
0.25
 370
106
 10
168.385292883694
 20
250.549118712465
 30
0.0
 40
7.23710649846287
100
AcDbArc
 50
-177.253423625078
 51
-121.633943579025
 0
ARC
 5
3F0
100
AcDbEntity
 8
Layer8
100
AcDbCircle
 39
0.25
 370
106
 10
150.819761091464
 20
250.63503316767
 30
0.0
 40
7.39371178610418
100
AcDbArc
 50
-54.9199456486696
 51
-7.34913402074552
 0
ARC
 5
3F1
100
AcDbEntity
 8
Layer8
100
AcDbCircle
 39
0.25
 370
106
 10
159.675985004256
 20
235.330867501663
 30
0.0
 40
7.7976920329524
100
AcDbArc
 50
67.2877205974721
 51
112.548472856443
 0
LINE
 5
3F2
100
AcDbEntity
 8
Layer8
100
AcDbLine
 39
0.25
 370
106
 10
161.1565
 20
250.202327832031
 30
0.0
 11
161.1565
 21
260.270327832031
 31
0.0
 0
LINE
 5
3F3
100
AcDbEntity
 8
Layer8
100
AcDbLine
 39
0.25
 370
106
 10
161.1565
 20
260.270327832031
 30
0.0
 11
158.1805
 21
260.270327832031
 31
0.0
 0
LINE
 5
3F4
100
AcDbEntity
 8
Layer8
100
AcDbLine
 39
0.25
 370
106
 10
158.1805
 20
260.270327832031
 30
0.0
 11
158.152734375
 21
249.689265332031
 31
0.0
 0
LINE
 5
3F5
100
AcDbEntity
 8
Layer8
100
AcDbLine
 39
0.25
 370
106
 10
155.069078125
 20
244.584390332031
 30
0.0
 11
145.9505
 21
239.410327832031
 31
0.0
 0
LINE
 5
3F6
100
AcDbEntity
 8
Layer8
100
AcDbLine
 39
0.25
 370
106
 10
145.9505
 20
239.410327832031
 30
0.0
 11
147.2085
 21
237.213327832031
 31
0.0
 0
LINE
 5
3F7
100
AcDbEntity
 8
Layer8
100
AcDbLine
 39
0.25
 370
106
 10
147.2085
 20
237.213327832031
 30
0.0
 11
156.68584375
 21
242.532468457031
 31
0.0
 0
LINE
 5
3F8
100
AcDbEntity
 8
Layer8
100
AcDbLine
 39
0.25
 370
106
 10
162.686703125
 20
242.523890332031
 30
0.0
 11
172.1545
 21
237.200327832031
 31
0.0
 0
LINE
 5
3F9
100
AcDbEntity
 8
Layer8
100
AcDbLine
 39
0.25
 370
106
 10
172.1545
 20
237.200327832031
 30
0.0
 11
173.4125
 21
239.397327832031
 31
0.0
 0
LINE
 5
3FA
100
AcDbEntity
 8
Layer8
100
AcDbLine
 39
0.25
 370
106
 10
173.4125
 20
239.397327832031
 30
0.0
 11
164.5895
 21
244.387327832031
 31
0.0
 0
LINE
 5
3FB
100
AcDbEntity
 8
Layer8
100
AcDbLine
 39
0.25
 370
106
 10
140.6705
 20
233.543827832031
 30
0.0
 11
140.165375
 21
234.667952832031
 31
0.0
 0
LINE
 5
3FC
100
AcDbEntity
 8
Layer8
100
AcDbLine
 39
0.25
 370
106
 10
140.165375
 20
234.667952832031
 30
0.0
 11
139.4855
 21
235.681827832031
 31
0.0
 0
LINE
 5
3FD
100
AcDbEntity
 8
Layer8
100
AcDbLine
 39
0.25
 370
106
 10
139.4855
 20
235.681827832031
 30
0.0
 11
145.7685
 21
239.203827832031
 31
0.0
 0
LINE
 5
3FE
100
AcDbEntity
 8
Layer8
100
AcDbLine
 39
0.25
 370
106
 10
145.7685
 20
239.203827832031
 30
0.0
 11
146.9905
 21
237.088827832031
 31
0.0
 0
LINE
 5
3FF
100
AcDbEntity
 8
Layer8
100
AcDbLine
 39
0.25
 370
106
 10
146.9905
 20
237.088827832031
 30
0.0
 11
140.6705
 21
233.543827832031
 31
0.0
 0
CIRCLE
 5
400
100
AcDbEntity
 8
Layer8
100
AcDbCircle
 39
0.25
 370
106
 10
186.00898125
 20
230.315199707031
 30
0.0
 40
2.56574999999998
 370
106
 0
CIRCLE
 5
401
100
AcDbEntity
 8
Layer8
100
AcDbCircle
 39
0.25
 370
106
 10
186.00898125
 20
230.315199707031
 30
0.0
 40
2.56574999999998
 370
106
 0
CIRCLE
 5
402
100
AcDbEntity
 8
Layer8
100
AcDbCircle
 39
0.25
 370
106
 10
185.956528125
 20
230.352374707031
 30
0.0
 40
2.20586718749999
 370
106
 0
LINE
 5
403
100
AcDbEntity
 8
Layer8
100
AcDbLine
 39
0.25
 370
106
 10
140.6339
 20
233.500827832031
 30
0.0
 11
140.12315
 21
234.639952832031
 31
0.0
 0
LINE
 5
404
100
AcDbEntity
 8
Layer8
100
AcDbLine
 39
0.25
 370
106
 10
140.12315
 20
234.639952832031
 30
0.0
 11
139.4369
 21
235.668827832031
 31
0.0
 0
LINE
 5
405
100
AcDbEntity
 8
Layer8
100
AcDbLine
 39
0.25
 370
106
 10
139.4369
 20
235.668827832031
 30
0.0
 11
145.7909
 21
239.236827832031
 31
0.0
 0
LINE
 5
406
100
AcDbEntity
 8
Layer8
100
AcDbLine
 39
0.25
 370
106
 10
145.7909
 20
239.236827832031
 30
0.0
 11
147.0269
 21
237.093827832031
 31
0.0
 0
LINE
 5
407
100
AcDbEntity
 8
Layer8
100
AcDbLine
 39
0.25
 370
106
 10
147.0269
 20
237.093827832031
 30
0.0
 11
140.6339
 21
233.500827832031
 31
0.0
 0
CIRCLE
 5
408
100
AcDbEntity
 8
Layer8
100
AcDbCircle
 39
0.25
 370
106
 10
185.9496734375
 20
230.361755957031
 30
0.0
 40
2.21154296875
 370
106
 0
ARC
 5
409
100
AcDbEntity
 8
Layer8
100
AcDbCircle
 39
0.25
 370
106
 10
185.953019350021
 20
230.341550226654
 30
0.0
 40
3.05172154199588
100
AcDbArc
 50
177.102217520267
 51
109.522583187787
 0
LINE
 5
40A
100
AcDbEntity
 8
Layer8
100
AcDbLine
 39
0.25
 370
106
 10
181.4272
 20
231.735827832031
 30
0.0
 11
182.9052
 21
230.495827832031
 31
0.0
 0
LINE
 5
40B
100
AcDbEntity
 8
Layer8
100
AcDbLine
 39
0.25
 370
106
 10
184.9332
 20
233.217827832031
 30
0.0
 11
183.008059375
 21
233.769296582031
 31
0.0
 0
LINE
 5
40C
100
AcDbEntity
 8
Layer8
100
AcDbLine
 39
0.25
 370
106
 10
183.008059375
 20
233.769296582031
 30
0.0
 11
173.6262
 21
239.213827832031
 31
0.0
 0
LINE
 5
40D
100
AcDbEntity
 8
Layer8
100
AcDbLine
 39
0.25
 370
106
 10
173.6262
 20
239.213827832031
 30
0.0
 11
172.3692
 21
237.046827832031
 31
0.0
 0
LINE
 5
40E
100
AcDbEntity
 8
Layer8
100
AcDbLine
 39
0.25
 370
106
 10
172.3692
 20
237.046827832031
 30
0.0
 11
181.4272
 21
231.735827832031
 31
0.0
 0
CIRCLE
 5
40F
100
AcDbEntity
 8
Layer8
100
AcDbCircle
 39
0.25
 370
106
 10
159.683
 20
275.756927832031
 30
0.0
 40
2.21199999999999
 370
106
 0
ARC
 5
410
100
AcDbEntity
 8
Layer8
100
AcDbCircle
 39
0.25
 370
106
 10
185.940201604466
 20
230.353768571219
 30
0.0
 40
3.0535701003895
100
AcDbArc
 50
177.153164435991
 51
109.430325815911
 0
LINE
 5
411
100
AcDbEntity
 8
Layer8
100
AcDbLine
 39
0.25
 370
106
 10
181.4094
 20
231.750427832031
 30
0.0
 11
182.8904
 21
230.505427832031
 31
0.0
 0
LINE
 5
412
100
AcDbEntity
 8
Layer8
100
AcDbLine
 39
0.25
 370
106
 10
184.9244
 20
233.233427832031
 30
0.0
 11
182.996025
 21
233.788302832031
 31
0.0
 0
LINE
 5
413
100
AcDbEntity
 8
Layer8
100
AcDbLine
 39
0.25
 370
106
 10
182.996025
 20
233.788302832031
 30
0.0
 11
173.5944
 21
239.248427832031
 31
0.0
 0
LINE
 5
414
100
AcDbEntity
 8
Layer8
100
AcDbLine
 39
0.25
 370
106
 10
173.5944
 20
239.248427832031
 30
0.0
 11
172.3334
 21
237.076427832031
 31
0.0
 0
LINE
 5
415
100
AcDbEntity
 8
Layer8
100
AcDbLine
 39
0.25
 370
106
 10
172.3334
 20
237.076427832031
 30
0.0
 11
181.4094
 21
231.750427832031
 31
0.0
 0
CIRCLE
 5
416
100
AcDbEntity
 8
Layer8
100
AcDbCircle
 39
0.25
 370
106
 10
159.683
 20
275.756927832031
 30
0.0
 40
2.21199999999999
 370
106
 0
ARC
 5
417
100
AcDbEntity
 8
Layer8
100
AcDbCircle
 39
0.25
 370
106
 10
159.751923558824
 20
275.766416649963
 30
0.0
 40
3.07922600250988
100
AcDbArc
 50
113.72193357901
 51
-128.240366047823
 0
ARC
 5
418
100
AcDbEntity
 8
Layer8
100
AcDbCircle
 39
0.25
 370
106
 10
159.625222069844
 20
275.73892161202
 30
0.0
 40
3.05606853823171
100
AcDbArc
 50
-53.0096249146381
 51
111.339147262816
 0
ARC
 5
419
100
AcDbEntity
 8
Layer8
100
AcDbCircle
 39
0.25
 370
106
 10
159.751543013257
 20
275.766968763098
 30
0.0
 40
3.07856744792112
100
AcDbArc
 50
113.719583385001
 51
-153.528261222169
 0
ARC
 5
41A
100
AcDbEntity
 8
Layer8
100
AcDbCircle
 39
0.25
 370
106
 10
159.625222069844
 20
275.73892161202
 30
0.0
 40
3.05606853823171
100
AcDbArc
 50
-53.0096249146381
 51
111.339147262816
 0
LINE
 5
41B
100
AcDbEntity
 8
Layer8
100
AcDbLine
 39
0.25
 370
106
 10
157.846
 20
273.347927832031
 30
0.0
 11
158.213
 21
271.123927832031
 31
0.0
 0
LINE
 5
41C
100
AcDbEntity
 8
Layer8
100
AcDbLine
 39
0.25
 370
106
 10
158.213
 20
271.123927832031
 30
0.0
 11
158.213
 21
260.461927832031
 31
0.0
 0
LINE
 5
41D
100
AcDbEntity
 8
Layer8
100
AcDbLine
 39
0.25
 370
106
 10
158.213
 20
260.461927832031
 30
0.0
 11
161.105
 21
260.461927832031
 31
0.0
 0
LINE
 5
41E
100
AcDbEntity
 8
Layer8
100
AcDbLine
 39
0.25
 370
106
 10
161.105
 20
260.461927832031
 30
0.0
 11
161.13471875
 21
271.637427832031
 31
0.0
 0
LINE
 5
41F
100
AcDbEntity
 8
Layer8
100
AcDbLine
 39
0.25
 370
106
 10
161.13471875
 20
271.637427832031
 30
0.0
 11
161.464
 21
273.297927832031
 31
0.0
 0
LINE
 5
420
100
AcDbEntity
 8
Layer8
100
AcDbLine
 39
0.25
 370
106
 10
156.99575
 20
274.394677832031
 30
0.0
 11
157.846
 21
273.347927832031
 31
0.0
 0
LINE
 5
421
100
AcDbEntity
 8
Layer8
100
AcDbLine
 39
0.25
 370
106
 10
157.846
 20
273.347927832031
 30
0.0
 11
158.18246875
 21
271.651193457031
 31
0.0
 0
LINE
 5
422
100
AcDbEntity
 8
Layer8
100
AcDbLine
 39
0.25
 370
106
 10
158.18246875
 20
271.651193457031
 30
0.0
 11
158.213
 21
260.461927832031
 31
0.0
 0
LINE
 5
423
100
AcDbEntity
 8
Layer8
100
AcDbLine
 39
0.25
 370
106
 10
158.213
 20
260.461927832031
 30
0.0
 11
161.105
 21
260.461927832031
 31
0.0
 0
LINE
 5
424
100
AcDbEntity
 8
Layer8
100
AcDbLine
 39
0.25
 370
106
 10
161.105
 20
260.461927832031
 30
0.0
 11
161.13471875
 21
271.637427832031
 31
0.0
 0
LINE
 5
425
100
AcDbEntity
 8
Layer8
100
AcDbLine
 39
0.25
 370
106
 10
161.13471875
 20
271.637427832031
 30
0.0
 11
161.464
 21
273.297927832031
 31
0.0
 0
ARC
 5
426
100
AcDbEntity
 8
Layer8
100
AcDbCircle
 39
0.25
 370
106
 10
151.01701164216
 20
220.000417880845
 30
0.0
 40
7.24304717643373
100
AcDbArc
 50
-58.2732899001742
 51
-2.71976504132954
 0
ARC
 5
427
100
AcDbEntity
 8
Layer8
100
AcDbCircle
 39
0.25
 370
106
 10
159.906495188954
 20
205.627521979949
 30
0.0
 40
7.11961132892836
100
AcDbArc
 50
63.6559141470545
 51
120.361113669541
 0
LINE
 5
428
100
AcDbEntity
 8
Layer8
100
AcDbLine
 39
0.25
 370
106
 10
158.2519
 20
219.656727832031
 30
0.0
 11
158.2429
 21
230.642727832031
 31
0.0
 0
LINE
 5
429
100
AcDbEntity
 8
Layer8
100
AcDbLine
 39
0.25
 370
106
 10
158.2429
 20
230.642727832031
 30
0.0
 11
161.2069
 21
230.642727832031
 31
0.0
 0
LINE
 5
42A
100
AcDbEntity
 8
Layer8
100
AcDbLine
 39
0.25
 370
106
 10
161.2069
 20
230.642727832031
 30
0.0
 11
161.2069
 21
219.656727832031
 31
0.0
 0
LINE
 5
42B
100
AcDbEntity
 8
Layer8
100
AcDbLine
 39
0.25
 370
106
 10
161.2069
 20
219.656727832031
 30
0.0
 11
161.492025
 21
218.018680957031
 31
0.0
 0
LINE
 5
42C
100
AcDbEntity
 8
Layer8
100
AcDbLine
 39
0.25
 370
106
 10
161.492025
 20
218.018680957031
 30
0.0
 11
162.2609
 21
216.414852832031
 31
0.0
 0
LINE
 5
42D
100
AcDbEntity
 8
Layer8
100
AcDbLine
 39
0.25
 370
106
 10
162.2609
 20
216.414852832031
 30
0.0
 11
163.383775
 21
215.011462207031
 31
0.0
 0
LINE
 5
42E
100
AcDbEntity
 8
Layer8
100
AcDbLine
 39
0.25
 370
106
 10
163.383775
 20
215.011462207031
 30
0.0
 11
164.7309
 21
213.974727832031
 31
0.0
 0
LINE
 5
42F
100
AcDbEntity
 8
Layer8
100
AcDbLine
 39
0.25
 370
106
 10
164.7309
 20
213.974727832031
 30
0.0
 11
172.6929
 21
209.274727832031
 31
0.0
 0
LINE
 5
430
100
AcDbEntity
 8
Layer8
100
AcDbLine
 39
0.25
 370
106
 10
172.6929
 20
209.274727832031
 30
0.0
 11
171.4319
 21
207.086727832031
 31
0.0
 0
LINE
 5
431
100
AcDbEntity
 8
Layer8
100
AcDbLine
 39
0.25
 370
106
 10
171.4319
 20
207.086727832031
 30
0.0
 11
163.0659
 21
212.007727832031
 31
0.0
 0
LINE
 5
432
100
AcDbEntity
 8
Layer8
100
AcDbLine
 39
0.25
 370
106
 10
156.3079
 20
211.770727832031
 30
0.0
 11
147.3099
 21
206.681727832031
 31
0.0
 0
LINE
 5
433
100
AcDbEntity
 8
Layer8
100
AcDbLine
 39
0.25
 370
106
 10
147.3099
 20
206.681727832031
 30
0.0
 11
146.0489
 21
208.872727832031
 31
0.0
 0
LINE
 5
434
100
AcDbEntity
 8
Layer8
100
AcDbLine
 39
0.25
 370
106
 10
146.0489
 20
208.872727832031
 30
0.0
 11
154.8259
 21
213.839727832031
 31
0.0
 0
CIRCLE
 5
435
100
AcDbEntity
 8
Layer8
100
AcDbCircle
 39
0.25
 370
106
 10
159.600125
 20
215.279610644531
 30
0.0
 40
2.56574609375002
 370
106
 0
CIRCLE
 5
436
100
AcDbEntity
 8
Layer8
100
AcDbCircle
 39
0.25
 370
106
 10
159.600125
 20
215.279610644531
 30
0.0
 40
2.56574609375002
 370
106
 0
CIRCLE
 5
437
100
AcDbEntity
 8
Layer8
100
AcDbCircle
 39
0.25
 370
106
 10
159.5453625
 20
215.317802832031
 30
0.0
 40
2.20486718749999
 370
106
 0
ARC
 5
438
100
AcDbEntity
 8
Layer8
100
AcDbCircle
 39
0.25
 370
106
 10
151.005198058247
 20
219.986709351592
 30
0.0
 40
7.25171749982836
100
AcDbArc
 50
-58.3201495979972
 51
-2.74412822853512
 0
ARC
 5
439
100
AcDbEntity
 8
Layer8
100
AcDbCircle
 39
0.25
 370
106
 10
159.908804994355
 20
205.562832656655
 30
0.0
 40
7.15783297878543
100
AcDbArc
 50
63.7324481808123
 51
120.28962182997
 0
LINE
 5
43A
100
AcDbEntity
 8
Layer8
100
AcDbLine
 39
0.25
 370
106
 10
158.2486
 20
219.639527832031
 30
0.0
 11
158.2396
 21
230.643527832031
 31
0.0
 0
LINE
 5
43B
100
AcDbEntity
 8
Layer8
100
AcDbLine
 39
0.25
 370
106
 10
158.2396
 20
230.643527832031
 30
0.0
 11
161.2116
 21
230.643527832031
 31
0.0
 0
LINE
 5
43C
100
AcDbEntity
 8
Layer8
100
AcDbLine
 39
0.25
 370
106
 10
161.2116
 20
230.643527832031
 30
0.0
 11
161.2116
 21
219.639527832031
 31
0.0
 0
LINE
 5
43D
100
AcDbEntity
 8
Layer8
100
AcDbLine
 39
0.25
 370
106
 10
161.2116
 20
219.639527832031
 30
0.0
 11
161.497553125
 21
217.999824707031
 31
0.0
 0
LINE
 5
43E
100
AcDbEntity
 8
Layer8
100
AcDbLine
 39
0.25
 370
106
 10
161.497553125
 20
217.999824707031
 30
0.0
 11
162.268475
 21
216.394152832031
 31
0.0
 0
LINE
 5
43F
100
AcDbEntity
 8
Layer8
100
AcDbLine
 39
0.25
 370
106
 10
162.268475
 20
216.394152832031
 30
0.0
 11
163.393959375
 21
214.988918457031
 31
0.0
 0
LINE
 5
440
100
AcDbEntity
 8
Layer8
100
AcDbLine
 39
0.25
 370
106
 10
163.393959375
 20
214.988918457031
 30
0.0
 11
164.7436
 21
213.950527832031
 31
0.0
 0
LINE
 5
441
100
AcDbEntity
 8
Layer8
100
AcDbLine
 39
0.25
 370
106
 10
164.7436
 20
213.950527832031
 30
0.0
 11
172.7266
 21
209.243527832031
 31
0.0
 0
LINE
 5
442
100
AcDbEntity
 8
Layer8
100
AcDbLine
 39
0.25
 370
106
 10
172.7266
 20
209.243527832031
 30
0.0
 11
171.4616
 21
207.054527832031
 31
0.0
 0
LINE
 5
443
100
AcDbEntity
 8
Layer8
100
AcDbLine
 39
0.25
 370
106
 10
171.4616
 20
207.054527832031
 30
0.0
 11
163.0766
 21
211.981527832031
 31
0.0
 0
LINE
 5
444
100
AcDbEntity
 8
Layer8
100
AcDbLine
 39
0.25
 370
106
 10
156.2986
 20
211.743527832031
 30
0.0
 11
147.2786
 21
206.648527832031
 31
0.0
 0
LINE
 5
445
100
AcDbEntity
 8
Layer8
100
AcDbLine
 39
0.25
 370
106
 10
147.2786
 20
206.648527832031
 30
0.0
 11
146.0136
 21
208.841527832031
 31
0.0
 0
LINE
 5
446
100
AcDbEntity
 8
Layer8
100
AcDbLine
 39
0.25
 370
106
 10
146.0136
 20
208.841527832031
 30
0.0
 11
154.8136
 21
213.815527832031
 31
0.0
 0
CIRCLE
 5
447
100
AcDbEntity
 8
Layer8
100
AcDbCircle
 39
0.25
 370
106
 10
159.53821875
 20
215.326776269531
 30
0.0
 40
2.21071484375
 370
106
 0
ARC
 5
448
100
AcDbEntity
 8
Layer8
100
AcDbCircle
 39
0.25
 370
106
 10
159.564424299783
 20
215.296457680898
 30
0.0
 40
3.06942191874451
100
AcDbArc
 50
178.69377956088
 51
109.184065461112
 0
LINE
 5
449
100
AcDbEntity
 8
Layer8
100
AcDbLine
 39
0.25
 370
106
 10
158.5558
 20
218.195427832031
 30
0.0
 11
156.597346875
 21
218.729990332031
 31
0.0
 0
LINE
 5
44A
100
AcDbEntity
 8
Layer8
100
AcDbLine
 39
0.25
 370
106
 10
156.597346875
 20
218.729990332031
 30
0.0
 11
147.2008
 21
224.156427832031
 31
0.0
 0
LINE
 5
44B
100
AcDbEntity
 8
Layer8
100
AcDbLine
 39
0.25
 370
106
 10
147.2008
 20
224.156427832031
 30
0.0
 11
145.9458
 21
221.985427832031
 31
0.0
 0
LINE
 5
44C
100
AcDbEntity
 8
Layer8
100
AcDbLine
 39
0.25
 370
106
 10
145.9458
 20
221.985427832031
 30
0.0
 11
155.381034375
 21
216.425802832031
 31
0.0
 0
LINE
 5
44D
100
AcDbEntity
 8
Layer8
100
AcDbLine
 39
0.25
 370
106
 10
155.381034375
 20
216.425802832031
 30
0.0
 11
156.4958
 21
215.366427832031
 31
0.0
 0
ARC
 5
44E
100
AcDbEntity
 8
Layer8
100
AcDbCircle
 39
0.25
 370
106
 10
159.522310659334
 20
215.322857230317
 30
0.0
 40
3.04975899901727
100
AcDbArc
 50
-157.909977000234
 51
108.640871345144
 0
LINE
 5
44F
100
AcDbEntity
 8
Layer8
100
AcDbLine
 39
0.25
 370
106
 10
158.5475
 20
218.212627832031
 30
0.0
 11
156.58465625
 21
218.750018457031
 31
0.0
 0
LINE
 5
450
100
AcDbEntity
 8
Layer8
100
AcDbLine
 39
0.25
 370
106
 10
156.58465625
 20
218.750018457031
 30
0.0
 11
147.1685
 21
224.191627832031
 31
0.0
 0
LINE
 5
451
100
AcDbEntity
 8
Layer8
100
AcDbLine
 39
0.25
 370
106
 10
147.1685
 20
224.191627832031
 30
0.0
 11
145.9095
 21
222.013627832031
 31
0.0
 0
LINE
 5
452
100
AcDbEntity
 8
Layer8
100
AcDbLine
 39
0.25
 370
106
 10
145.9095
 20
222.013627832031
 30
0.0
 11
155.366046875
 21
216.438643457031
 31
0.0
 0
LINE
 5
453
100
AcDbEntity
 8
Layer8
100
AcDbLine
 39
0.25
 370
106
 10
155.366046875
 20
216.438643457031
 30
0.0
 11
156.4845
 21
215.375627832031
 31
0.0
 0
LINE
 5
454
100
AcDbEntity
 8
Layer8
100
AcDbLine
 39
0.25
 370
106
 10
156.4845
 20
215.375627832031
 30
0.0
 11
156.696421875
 21
214.175955957031
 31
0.0
 0
LINE
 5
455
100
AcDbEntity
 8
Layer8
100
AcDbLine
 39
0.25
 370
106
 10
145.7035
 20
222.205627832031
 30
0.0
 11
139.4965
 21
225.836627832031
 31
0.0
 0
LINE
 5
456
100
AcDbEntity
 8
Layer8
100
AcDbLine
 39
0.25
 370
106
 10
139.4965
 20
225.836627832031
 30
0.0
 11
140.178375
 21
226.852377832031
 31
0.0
 0
LINE
 5
457
100
AcDbEntity
 8
Layer8
100
AcDbLine
 39
0.25
 370
106
 10
140.178375
 20
226.852377832031
 30
0.0
 11
140.6765
 21
227.977627832031
 31
0.0
 0
LINE
 5
458
100
AcDbEntity
 8
Layer8
100
AcDbLine
 39
0.25
 370
106
 10
140.6765
 20
227.977627832031
 30
0.0
 11
146.9305
 21
224.320627832031
 31
0.0
 0
LINE
 5
459
100
AcDbEntity
 8
Layer8
100
AcDbLine
 39
0.25
 370
106
 10
146.9305
 20
224.320627832031
 30
0.0
 11
145.7035
 21
222.205627832031
 31
0.0
 0
LINE
 5
45A
100
AcDbEntity
 8
Layer8
100
AcDbLine
 39
0.25
 370
106
 10
145.7538
 20
222.170127832031
 30
0.0
 11
139.4478
 21
225.852127832031
 31
0.0
 0
LINE
 5
45B
100
AcDbEntity
 8
Layer8
100
AcDbLine
 39
0.25
 370
106
 10
139.4478
 20
225.852127832031
 30
0.0
 11
140.139925
 21
226.882252832031
 31
0.0
 0
LINE
 5
45C
100
AcDbEntity
 8
Layer8
100
AcDbLine
 39
0.25
 370
106
 10
140.139925
 20
226.882252832031
 30
0.0
 11
140.6468
 21
228.024127832031
 31
0.0
 0
LINE
 5
45D
100
AcDbEntity
 8
Layer8
100
AcDbLine
 39
0.25
 370
106
 10
140.6468
 20
228.024127832031
 30
0.0
 11
147.0008
 21
224.315127832031
 31
0.0
 0
LINE
 5
45E
100
AcDbEntity
 8
Layer8
100
AcDbLine
 39
0.25
 370
106
 10
147.0008
 20
224.315127832031
 30
0.0
 11
145.7538
 21
222.170127832031
 31
0.0
 0
LINE
 5
45F
100
AcDbEntity
 8
Layer8
100
AcDbLine
 39
0.25
 370
106
 10
107.802
 20
242.849827832031
 30
0.0
 11
107.777
 21
230.836827832031
 31
0.0
 0
LINE
 5
460
100
AcDbEntity
 8
Layer8
100
AcDbLine
 39
0.25
 370
106
 10
107.777
 20
230.836827832031
 30
0.0
 11
104.988
 21
230.836827832031
 31
0.0
 0
LINE
 5
461
100
AcDbEntity
 8
Layer8
100
AcDbLine
 39
0.25
 370
106
 10
104.988
 20
230.836827832031
 30
0.0
 11
104.965
 21
242.821827832031
 31
0.0
 0
LINE
 5
462
100
AcDbEntity
 8
Layer8
100
AcDbLine
 39
0.25
 370
106
 10
104.965
 20
242.821827832031
 30
0.0
 11
106.38275
 21
242.973827832031
 31
0.0
 0
LINE
 5
463
100
AcDbEntity
 8
Layer8
100
AcDbLine
 39
0.25
 370
106
 10
106.38275
 20
242.973827832031
 30
0.0
 11
107.802
 21
242.849827832031
 31
0.0
 0
LINE
 5
464
100
AcDbEntity
 8
Layer8
100
AcDbLine
 39
0.25
 370
106
 10
107.802
 20
242.849827832031
 30
0.0
 11
107.777
 21
230.836827832031
 31
0.0
 0
LINE
 5
465
100
AcDbEntity
 8
Layer8
100
AcDbLine
 39
0.25
 370
106
 10
107.777
 20
230.836827832031
 30
0.0
 11
104.983
 21
230.836827832031
 31
0.0
 0
LINE
 5
466
100
AcDbEntity
 8
Layer8
100
AcDbLine
 39
0.25
 370
106
 10
104.983
 20
230.836827832031
 30
0.0
 11
104.959
 21
242.821827832031
 31
0.0
 0
LINE
 5
467
100
AcDbEntity
 8
Layer8
100
AcDbLine
 39
0.25
 370
106
 10
104.959
 20
242.821827832031
 30
0.0
 11
106.380125
 21
242.973827832031
 31
0.0
 0
LINE
 5
468
100
AcDbEntity
 8
Layer8
100
AcDbLine
 39
0.25
 370
106
 10
106.380125
 20
242.973827832031
 30
0.0
 11
107.802
 21
242.849827832031
 31
0.0
 0
LINE
 5
469
100
AcDbEntity
 8
Layer8
100
AcDbLine
 39
0.25
 370
106
 10
110.0344
 20
248.983627832031
 30
0.0
 11
108.4194
 21
248.288627832031
 31
0.0
 0
LINE
 5
46A
100
AcDbEntity
 8
Layer8
100
AcDbLine
 39
0.25
 370
106
 10
108.4194
 20
248.288627832031
 30
0.0
 11
109.06615
 21
246.947502832031
 31
0.0
 0
LINE
 5
46B
100
AcDbEntity
 8
Layer8
100
AcDbLine
 39
0.25
 370
106
 10
109.06615
 20
246.947502832031
 30
0.0
 11
109.9484
 21
245.746627832031
 31
0.0
 0
LINE
 5
46C
100
AcDbEntity
 8
Layer8
100
AcDbLine
 39
0.25
 370
106
 10
109.9484
 20
245.746627832031
 30
0.0
 11
111.0744
 21
246.712627832031
 31
0.0
 0
LINE
 5
46D
100
AcDbEntity
 8
Layer8
100
AcDbLine
 39
0.25
 370
106
 10
111.0744
 20
246.712627832031
 30
0.0
 11
120.0684
 21
251.957627832031
 31
0.0
 0
LINE
 5
46E
100
AcDbEntity
 8
Layer8
100
AcDbLine
 39
0.25
 370
106
 10
120.0684
 20
251.957627832031
 30
0.0
 11
118.8164
 21
254.092627832031
 31
0.0
 0
LINE
 5
46F
100
AcDbEntity
 8
Layer8
100
AcDbLine
 39
0.25
 370
106
 10
118.8164
 20
254.092627832031
 30
0.0
 11
110.0344
 21
248.983627832031
 31
0.0
 0
LINE
 5
470
100
AcDbEntity
 8
Layer8
100
AcDbLine
 39
0.25
 370
106
 10
110.015
 20
248.969827832031
 30
0.0
 11
108.391
 21
248.266827832031
 31
0.0
 0
LINE
 5
471
100
AcDbEntity
 8
Layer8
100
AcDbLine
 39
0.25
 370
106
 10
108.391
 20
248.266827832031
 30
0.0
 11
109.039875
 21
246.914077832031
 31
0.0
 0
LINE
 5
472
100
AcDbEntity
 8
Layer8
100
AcDbLine
 39
0.25
 370
106
 10
109.039875
 20
246.914077832031
 30
0.0
 11
109.928
 21
245.700827832031
 31
0.0
 0
LINE
 5
473
100
AcDbEntity
 8
Layer8
100
AcDbLine
 39
0.25
 370
106
 10
109.928
 20
245.700827832031
 30
0.0
 11
111.061
 21
246.676827832031
 31
0.0
 0
LINE
 5
474
100
AcDbEntity
 8
Layer8
100
AcDbLine
 39
0.25
 370
106
 10
111.061
 20
246.676827832031
 30
0.0
 11
120.104
 21
251.972827832031
 31
0.0
 0
LINE
 5
475
100
AcDbEntity
 8
Layer8
100
AcDbLine
 39
0.25
 370
106
 10
120.104
 20
251.972827832031
 30
0.0
 11
118.845
 21
254.126827832031
 31
0.0
 0
LINE
 5
476
100
AcDbEntity
 8
Layer8
100
AcDbLine
 39
0.25
 370
106
 10
118.845
 20
254.126827832031
 30
0.0
 11
110.015
 21
248.969827832031
 31
0.0
 0
LINE
 5
477
100
AcDbEntity
 8
Layer8
100
AcDbLine
 39
0.25
 370
106
 10
120.2785
 20
208.632327832031
 30
0.0
 11
119.0385
 21
206.487327832031
 31
0.0
 0
LINE
 5
478
100
AcDbEntity
 8
Layer8
100
AcDbLine
 39
0.25
 370
106
 10
119.0385
 20
206.487327832031
 30
0.0
 11
127.8935
 21
201.525327832031
 31
0.0
 0
LINE
 5
479
100
AcDbEntity
 8
Layer8
100
AcDbLine
 39
0.25
 370
106
 10
127.8935
 20
201.525327832031
 30
0.0
 11
129.1565
 21
200.535327832031
 31
0.0
 0
LINE
 5
47A
100
AcDbEntity
 8
Layer8
100
AcDbLine
 39
0.25
 370
106
 10
129.1565
 20
200.535327832031
 30
0.0
 11
130.114375
 21
201.696327832031
 31
0.0
 0
LINE
 5
47B
100
AcDbEntity
 8
Layer8
100
AcDbLine
 39
0.25
 370
106
 10
130.114375
 20
201.696327832031
 30
0.0
 11
130.8375
 21
203.025327832031
 31
0.0
 0
LINE
 5
47C
100
AcDbEntity
 8
Layer8
100
AcDbLine
 39
0.25
 370
106
 10
130.8375
 20
203.025327832031
 30
0.0
 11
129.3575
 21
203.548327832031
 31
0.0
 0
LINE
 5
47D
100
AcDbEntity
 8
Layer8
100
AcDbLine
 39
0.25
 370
106
 10
129.3575
 20
203.548327832031
 30
0.0
 11
120.2785
 21
208.632327832031
 31
0.0
 0
LINE
 5
47E
100
AcDbEntity
 8
Layer8
100
AcDbLine
 39
0.25
 370
106
 10
120.2512
 20
208.665127832031
 30
0.0
 11
119.0022
 21
206.502127832031
 31
0.0
 0
LINE
 5
47F
100
AcDbEntity
 8
Layer8
100
AcDbLine
 39
0.25
 370
106
 10
119.0022
 20
206.502127832031
 30
0.0
 11
127.9102
 21
201.497127832031
 31
0.0
 0
LINE
 5
480
100
AcDbEntity
 8
Layer8
100
AcDbLine
 39
0.25
 370
106
 10
127.9102
 20
201.497127832031
 30
0.0
 11
129.1822
 21
200.497127832031
 31
0.0
 0
LINE
 5
481
100
AcDbEntity
 8
Layer8
100
AcDbLine
 39
0.25
 370
106
 10
129.1822
 20
200.497127832031
 30
0.0
 11
130.145325
 21
201.668877832031
 31
0.0
 0
LINE
 5
482
100
AcDbEntity
 8
Layer8
100
AcDbLine
 39
0.25
 370
106
 10
130.145325
 20
201.668877832031
 30
0.0
 11
130.8722
 21
203.010127832031
 31
0.0
 0
LINE
 5
483
100
AcDbEntity
 8
Layer8
100
AcDbLine
 39
0.25
 370
106
 10
130.8722
 20
203.010127832031
 30
0.0
 11
129.3852
 21
203.537127832031
 31
0.0
 0
LINE
 5
484
100
AcDbEntity
 8
Layer8
100
AcDbLine
 39
0.25
 370
106
 10
129.3852
 20
203.537127832031
 30
0.0
 11
120.2512
 21
208.665127832031
 31
0.0
 0
CIRCLE
 5
485
100
AcDbEntity
 8
Layer8
100
AcDbCircle
 39
0.25
 370
106
 10
106.4145
 20
275.822127832031
 30
0.0
 40
2.58474999999999
 370
106
 0
CIRCLE
 5
486
100
AcDbEntity
 8
Layer8
100
AcDbCircle
 39
0.25
 370
106
 10
106.4145
 20
275.822127832031
 30
0.0
 40
2.58474999999999
 370
106
 0
LINE
 5
487
100
AcDbEntity
 8
Layer8
100
AcDbLine
 39
0.25
 370
106
 10
134.3786
 20
186.248627832031
 30
0.0
 11
131.5876
 21
186.248627832031
 31
0.0
 0
LINE
 5
488
100
AcDbEntity
 8
Layer8
100
AcDbLine
 39
0.25
 370
106
 10
131.5876
 20
186.248627832031
 30
0.0
 11
131.5876
 21
197.951627832031
 31
0.0
 0
LINE
 5
489
100
AcDbEntity
 8
Layer8
100
AcDbLine
 39
0.25
 370
106
 10
131.5876
 20
197.951627832031
 30
0.0
 11
132.978225
 21
198.086877832031
 31
0.0
 0
LINE
 5
48A
100
AcDbEntity
 8
Layer8
100
AcDbLine
 39
0.25
 370
106
 10
132.978225
 20
198.086877832031
 30
0.0
 11
134.3786
 21
197.965627832031
 31
0.0
 0
LINE
 5
48B
100
AcDbEntity
 8
Layer8
100
AcDbLine
 39
0.25
 370
106
 10
134.3786
 20
197.965627832031
 30
0.0
 11
134.3786
 21
186.248627832031
 31
0.0
 0
LINE
 5
48C
100
AcDbEntity
 8
Layer8
100
AcDbLine
 39
0.25
 370
106
 10
134.3786
 20
186.248627832031
 30
0.0
 11
131.5876
 21
186.248627832031
 31
0.0
 0
LINE
 5
48D
100
AcDbEntity
 8
Layer8
100
AcDbLine
 39
0.25
 370
106
 10
131.5876
 20
186.248627832031
 30
0.0
 11
131.5876
 21
197.951627832031
 31
0.0
 0
LINE
 5
48E
100
AcDbEntity
 8
Layer8
100
AcDbLine
 39
0.25
 370
106
 10
131.5876
 20
197.951627832031
 30
0.0
 11
132.978225
 21
198.086877832031
 31
0.0
 0
LINE
 5
48F
100
AcDbEntity
 8
Layer8
100
AcDbLine
 39
0.25
 370
106
 10
132.978225
 20
198.086877832031
 30
0.0
 11
134.3786
 21
197.965627832031
 31
0.0
 0
LINE
 5
490
100
AcDbEntity
 8
Layer8
100
AcDbLine
 39
0.25
 370
106
 10
134.3786
 20
197.965627832031
 30
0.0
 11
134.3786
 21
186.248627832031
 31
0.0
 0
ARC
 5
491
100
AcDbEntity
 8
Layer8
100
AcDbCircle
 39
0.25
 370
106
 10
80.7287999999996
 20
250.319065008764
 30
0.0
 40
7.53240131370116
100
AcDbArc
 50
62.9371380212276
 51
117.062861978772
 0
ARC
 5
492
100
AcDbEntity
 8
Layer8
100
AcDbCircle
 39
0.25
 370
106
 10
72.0038157325771
 20
265.258717101195
 30
0.0
 40
7.25043644328526
100
AcDbArc
 50
-58.2434606158167
 51
-2.76682707271081
 0
LINE
 5
493
100
AcDbEntity
 8
Layer8
100
AcDbLine
 39
0.25
 370
106
 10
79.2458
 20
274.958727832031
 30
0.0
 11
82.2038
 21
274.958727832031
 31
0.0
 0
LINE
 5
494
100
AcDbEntity
 8
Layer8
100
AcDbLine
 39
0.25
 370
106
 10
82.2038
 20
274.958727832031
 30
0.0
 11
82.2038
 21
264.908727832031
 31
0.0
 0
LINE
 5
495
100
AcDbEntity
 8
Layer8
100
AcDbLine
 39
0.25
 370
106
 10
82.2038
 20
264.908727832031
 30
0.0
 11
82.4742375
 21
263.250321582031
 31
0.0
 0
LINE
 5
496
100
AcDbEntity
 8
Layer8
100
AcDbLine
 39
0.25
 370
106
 10
82.4742375
 20
263.250321582031
 30
0.0
 11
83.2108
 21
261.601477832031
 31
0.0
 0
LINE
 5
497
100
AcDbEntity
 8
Layer8
100
AcDbLine
 39
0.25
 370
106
 10
83.2108
 20
261.601477832031
 30
0.0
 11
84.3013625
 21
260.152509082031
 31
0.0
 0
LINE
 5
498
100
AcDbEntity
 8
Layer8
100
AcDbLine
 39
0.25
 370
106
 10
84.3013625
 20
260.152509082031
 30
0.0
 11
85.6338
 21
259.093727832031
 31
0.0
 0
LINE
 5
499
100
AcDbEntity
 8
Layer8
100
AcDbLine
 39
0.25
 370
106
 10
85.6338
 20
259.093727832031
 30
0.0
 11
94.4388
 21
254.116727832031
 31
0.0
 0
LINE
 5
49A
100
AcDbEntity
 8
Layer8
100
AcDbLine
 39
0.25
 370
106
 10
94.4388
 20
254.116727832031
 30
0.0
 11
93.1738
 21
251.926727832031
 31
0.0
 0
LINE
 5
49B
100
AcDbEntity
 8
Layer8
100
AcDbLine
 39
0.25
 370
106
 10
93.1738
 20
251.926727832031
 30
0.0
 11
84.1558
 21
257.026727832031
 31
0.0
 0
LINE
 5
49C
100
AcDbEntity
 8
Layer8
100
AcDbLine
 39
0.25
 370
106
 10
77.3018
 20
257.026727832031
 30
0.0
 11
68.3008
 21
251.940727832031
 31
0.0
 0
LINE
 5
49D
100
AcDbEntity
 8
Layer8
100
AcDbLine
 39
0.25
 370
106
 10
68.3008
 20
251.940727832031
 30
0.0
 11
67.0408
 21
254.130727832031
 31
0.0
 0
LINE
 5
49E
100
AcDbEntity
 8
Layer8
100
AcDbLine
 39
0.25
 370
106
 10
67.0408
 20
254.130727832031
 30
0.0
 11
75.8198
 21
259.093727832031
 31
0.0
 0
LINE
 5
49F
100
AcDbEntity
 8
Layer8
100
AcDbLine
 39
0.25
 370
106
 10
79.2458
 20
264.908727832031
 30
0.0
 11
79.2458
 21
274.958727832031
 31
0.0
 0
LWPOLYLINE
 5
4A0
100
AcDbEntity
 8
Layer8
100
AcDbPolyline
 39
0.25
 370
106
 90
5              
 70
 1
 43
0.0
 10
79.329
 20
275.041027832031
 10
82.124
 20
275.041027832031
 10
82.124
 20
275.025027832031
 10
79.329
 20
275.025027832031
 10
79.329
 20
275.041027832031
 0
LWPOLYLINE
 5
4A1
100
AcDbEntity
 8
Layer8
100
AcDbPolyline
 39
0.25
 370
106
 90
5              
 70
 1
 43
0.0
 10
79.329
 20
275.041027832031
 10
82.124
 20
275.041027832031
 10
82.124
 20
275.025027832031
 10
79.329
 20
275.025027832031
 10
79.329
 20
275.041027832031
 0
LWPOLYLINE
 5
4A2
100
AcDbEntity
 8
Layer8
100
AcDbPolyline
 39
0.25
 370
106
 90
5              
 70
 1
 43
0.0
 10
79.329
 20
275.041027832031
 10
82.124
 20
275.041027832031
 10
82.124
 20
275.025027832031
 10
79.329
 20
275.025027832031
 10
79.329
 20
275.041027832031
 0
LWPOLYLINE
 5
4A3
100
AcDbEntity
 8
Layer8
100
AcDbPolyline
 39
0.25
 370
106
 90
5              
 70
 1
 43
0.0
 10
79.329
 20
275.041027832031
 10
82.124
 20
275.041027832031
 10
82.124
 20
275.025027832031
 10
79.329
 20
275.025027832031
 10
79.329
 20
275.041027832031
 0
LWPOLYLINE
 5
4A4
100
AcDbEntity
 8
Layer8
100
AcDbPolyline
 39
0.25
 370
106
 90
5              
 70
 1
 43
0.0
 10
79.329
 20
275.041027832031
 10
82.124
 20
275.041027832031
 10
82.124
 20
275.025027832031
 10
79.329
 20
275.025027832031
 10
79.329
 20
275.041027832031
 0
LWPOLYLINE
 5
4A5
100
AcDbEntity
 8
Layer8
100
AcDbPolyline
 39
0.25
 370
106
 90
5              
 70
 1
 43
0.0
 10
79.329
 20
275.041027832031
 10
82.124
 20
275.041027832031
 10
82.124
 20
275.025027832031
 10
79.329
 20
275.025027832031
 10
79.329
 20
275.041027832031
 0
CIRCLE
 5
4A6
100
AcDbEntity
 8
Layer8
100
AcDbCircle
 39
0.25
 370
106
 10
53.9063
 20
245.269227832031
 30
0.0
 40
2.58475
 370
106
 0
CIRCLE
 5
4A7
100
AcDbEntity
 8
Layer8
100
AcDbCircle
 39
0.25
 370
106
 10
53.9063
 20
245.269227832031
 30
0.0
 40
2.58475
 370
106
 0
CIRCLE
 5
4A8
100
AcDbEntity
 8
Layer8
100
AcDbCircle
 39
0.25
 370
106
 10
54.1711
 20
245.539227832031
 30
0.0
 40
2.22174999999999
 370
106
 0
ARC
 5
4A9
100
AcDbEntity
 8
Layer8
100
AcDbCircle
 39
0.25
 370
106
 10
80.7281999999991
 20
250.269812308251
 30
0.0
 40
7.55711410626928
100
AcDbArc
 50
62.9562375547037
 51
117.04376244529
 0
ARC
 5
4AA
100
AcDbEntity
 8
Layer8
100
AcDbCircle
 39
0.25
 370
106
 10
72.0015017923988
 20
265.242640755344
 30
0.0
 40
7.24910481054018
100
AcDbArc
 50
-58.3510877361986
 51
-2.75960985578372
 0
LINE
 5
4AB
100
AcDbEntity
 8
Layer8
100
AcDbLine
 39
0.25
 370
106
 10
79.2422
 20
274.958627832031
 30
0.0
 11
82.2072
 21
274.958627832031
 31
0.0
 0
LINE
 5
4AC
100
AcDbEntity
 8
Layer8
100
AcDbLine
 39
0.25
 370
106
 10
82.2072
 20
274.958627832031
 30
0.0
 11
82.2072
 21
264.893627832031
 31
0.0
 0
LINE
 5
4AD
100
AcDbEntity
 8
Layer8
100
AcDbLine
 39
0.25
 370
106
 10
82.2072
 20
264.893627832031
 30
0.0
 11
82.478621875
 21
263.232862207031
 31
0.0
 0
LINE
 5
4AE
100
AcDbEntity
 8
Layer8
100
AcDbLine
 39
0.25
 370
106
 10
82.478621875
 20
263.232862207031
 30
0.0
 11
83.217575
 21
261.581752832031
 31
0.0
 0
LINE
 5
4AF
100
AcDbEntity
 8
Layer8
100
AcDbLine
 39
0.25
 370
106
 10
83.217575
 20
261.581752832031
 30
0.0
 11
84.311090625
 21
260.131080957031
 31
0.0
 0
LINE
 5
4B0
100
AcDbEntity
 8
Layer8
100
AcDbLine
 39
0.25
 370
106
 10
84.311090625
 20
260.131080957031
 30
0.0
 11
85.6462
 21
259.071627832031
 31
0.0
 0
LINE
 5
4B1
100
AcDbEntity
 8
Layer8
100
AcDbLine
 39
0.25
 370
106
 10
85.6462
 20
259.071627832031
 30
0.0
 11
94.4742
 21
254.085627832031
 31
0.0
 0
LINE
 5
4B2
100
AcDbEntity
 8
Layer8
100
AcDbLine
 39
0.25
 370
106
 10
94.4742
 20
254.085627832031
 30
0.0
 11
93.2062
 21
251.891627832031
 31
0.0
 0
LINE
 5
4B3
100
AcDbEntity
 8
Layer8
100
AcDbLine
 39
0.25
 370
106
 10
93.2062
 20
251.891627832031
 30
0.0
 11
84.1642
 21
257.000627832031
 31
0.0
 0
LINE
 5
4B4
100
AcDbEntity
 8
Layer8
100
AcDbLine
 39
0.25
 370
106
 10
77.2922
 20
257.000627832031
 30
0.0
 11
68.2682
 21
251.906627832031
 31
0.0
 0
LINE
 5
4B5
100
AcDbEntity
 8
Layer8
100
AcDbLine
 39
0.25
 370
106
 10
68.2682
 20
251.906627832031
 30
0.0
 11
67.0072
 21
254.099627832031
 31
0.0
 0
LINE
 5
4B6
100
AcDbEntity
 8
Layer8
100
AcDbLine
 39
0.25
 370
106
 10
67.0072
 20
254.099627832031
 30
0.0
 11
75.8052
 21
259.071627832031
 31
0.0
 0
LINE
 5
4B7
100
AcDbEntity
 8
Layer8
100
AcDbLine
 39
0.25
 370
106
 10
79.2422
 20
264.893627832031
 30
0.0
 11
79.2422
 21
274.958627832031
 31
0.0
 0
CIRCLE
 5
4B8
100
AcDbEntity
 8
Layer8
100
AcDbCircle
 39
0.25
 370
106
 10
54.1772
 20
245.548627832031
 30
0.0
 40
2.22725
 370
106
 0
ARC
 5
4B9
100
AcDbEntity
 8
Layer8
100
AcDbCircle
 39
0.25
 370
106
 10
54.1690342334298
 20
245.524736003877
 30
0.0
 40
3.05661747649243
100
AcDbArc
 50
56.9482973192889
 51
-10.5378231217698
 0
LINE
 5
4BA
100
AcDbEntity
 8
Layer8
100
AcDbLine
 39
0.25
 370
106
 10
57.1741
 20
244.965727832031
 30
0.0
 11
58.619021875
 21
246.366337207031
 31
0.0
 0
LINE
 5
4BB
100
AcDbEntity
 8
Layer8
100
AcDbLine
 39
0.25
 370
106
 10
58.619021875
 20
246.366337207031
 30
0.0
 11
68.0511
 21
251.725727832031
 31
0.0
 0
LINE
 5
4BC
100
AcDbEntity
 8
Layer8
100
AcDbLine
 39
0.25
 370
106
 10
68.0511
 20
251.725727832031
 30
0.0
 11
66.7971
 21
253.892727832031
 31
0.0
 0
LINE
 5
4BD
100
AcDbEntity
 8
Layer8
100
AcDbLine
 39
0.25
 370
106
 10
66.7971
 20
253.892727832031
 30
0.0
 11
57.24069375
 21
248.553962207031
 31
0.0
 0
LINE
 5
4BE
100
AcDbEntity
 8
Layer8
100
AcDbLine
 39
0.25
 370
106
 10
57.24069375
 20
248.553962207031
 30
0.0
 11
55.8361
 21
248.086727832031
 31
0.0
 0
ARC
 5
4BF
100
AcDbEntity
 8
Layer8
100
AcDbCircle
 39
0.25
 370
106
 10
54.1705580844802
 20
245.533281296809
 30
0.0
 40
3.06664193725992
100
AcDbArc
 50
56.9124276389853
 51
-10.515246611689
 0
LINE
 5
4C0
100
AcDbEntity
 8
Layer8
100
AcDbLine
 39
0.25
 370
106
 10
57.1857
 20
244.973627832031
 30
0.0
 11
58.635153125
 21
246.378190332031
 31
0.0
 0
LINE
 5
4C1
100
AcDbEntity
 8
Layer8
100
AcDbLine
 39
0.25
 370
106
 10
58.635153125
 20
246.378190332031
 30
0.0
 11
68.0867
 21
251.752627832031
 31
0.0
 0
LINE
 5
4C2
100
AcDbEntity
 8
Layer8
100
AcDbLine
 39
0.25
 370
106
 10
68.0867
 20
251.752627832031
 30
0.0
 11
66.8287
 21
253.926627832031
 31
0.0
 0
LINE
 5
4C3
100
AcDbEntity
 8
Layer8
100
AcDbLine
 39
0.25
 370
106
 10
66.8287
 20
253.926627832031
 30
0.0
 11
57.254075
 21
248.572424707031
 31
0.0
 0
LINE
 5
4C4
100
AcDbEntity
 8
Layer8
100
AcDbLine
 39
0.25
 370
106
 10
57.254075
 20
248.572424707031
 30
0.0
 11
55.8447
 21
248.102627832031
 31
0.0
 0
LINE
 5
4C5
100
AcDbEntity
 8
Layer8
100
AcDbLine
 39
0.25
 370
106
 10
104.4919
 20
248.348427832031
 30
0.0
 11
103.92765
 21
247.125052832031
 31
0.0
 0
LINE
 5
4C6
100
AcDbEntity
 8
Layer8
100
AcDbLine
 39
0.25
 370
106
 10
103.92765
 20
247.125052832031
 30
0.0
 11
103.1489
 21
246.007427832031
 31
0.0
 0
LINE
 5
4C7
100
AcDbEntity
 8
Layer8
100
AcDbLine
 39
0.25
 370
106
 10
103.1489
 20
246.007427832031
 30
0.0
 11
102.4199
 21
246.528427832031
 31
0.0
 0
LINE
 5
4C8
100
AcDbEntity
 8
Layer8
100
AcDbLine
 39
0.25
 370
106
 10
102.4199
 20
246.528427832031
 30
0.0
 11
93.4129
 21
251.767427832031
 31
0.0
 0
LINE
 5
4C9
100
AcDbEntity
 8
Layer8
100
AcDbLine
 39
0.25
 370
106
 10
93.4129
 20
251.767427832031
 30
0.0
 11
94.6709
 21
253.898427832031
 31
0.0
 0
LINE
 5
4CA
100
AcDbEntity
 8
Layer8
100
AcDbLine
 39
0.25
 370
106
 10
94.6709
 20
253.898427832031
 30
0.0
 11
103.4619
 21
248.793427832031
 31
0.0
 0
LINE
 5
4CB
100
AcDbEntity
 8
Layer8
100
AcDbLine
 39
0.25
 370
106
 10
103.4619
 20
248.793427832031
 30
0.0
 11
104.4919
 21
248.348427832031
 31
0.0
 0
CIRCLE
 5
4CC
100
AcDbEntity
 8
Layer8
100
AcDbCircle
 39
0.25
 370
106
 10
80.8363
 20
290.310627832031
 30
0.0
 40
2.58500000000001
 370
106
 0
CIRCLE
 5
4CD
100
AcDbEntity
 8
Layer8
100
AcDbCircle
 39
0.25
 370
106
 10
80.8363
 20
290.310627832031
 30
0.0
 40
2.58500000000001
 370
106
 0
CIRCLE
 5
4CE
100
AcDbEntity
 8
Layer8
100
AcDbCircle
 39
0.25
 370
106
 10
80.7377
 20
290.447527832031
 30
0.0
 40
2.21249999999999
 370
106
 0
LINE
 5
4CF
100
AcDbEntity
 8
Layer8
100
AcDbLine
 39
0.25
 370
106
 10
104.4866
 20
248.332727832031
 30
0.0
 11
103.921475
 21
247.098852832031
 31
0.0
 0
LINE
 5
4D0
100
AcDbEntity
 8
Layer8
100
AcDbLine
 39
0.25
 370
106
 10
103.921475
 20
247.098852832031
 30
0.0
 11
103.1396
 21
245.970727832031
 31
0.0
 0
LINE
 5
4D1
100
AcDbEntity
 8
Layer8
100
AcDbLine
 39
0.25
 370
106
 10
103.1396
 20
245.970727832031
 30
0.0
 11
102.4106
 21
246.494727832031
 31
0.0
 0
LINE
 5
4D2
100
AcDbEntity
 8
Layer8
100
AcDbLine
 39
0.25
 370
106
 10
102.4106
 20
246.494727832031
 30
0.0
 11
93.3866
 21
251.781727832031
 31
0.0
 0
LINE
 5
4D3
100
AcDbEntity
 8
Layer8
100
AcDbLine
 39
0.25
 370
106
 10
93.3866
 20
251.781727832031
 30
0.0
 11
94.6446
 21
253.932727832031
 31
0.0
 0
LINE
 5
4D4
100
AcDbEntity
 8
Layer8
100
AcDbLine
 39
0.25
 370
106
 10
94.6446
 20
253.932727832031
 30
0.0
 11
103.4526
 21
248.782727832031
 31
0.0
 0
LINE
 5
4D5
100
AcDbEntity
 8
Layer8
100
AcDbLine
 39
0.25
 370
106
 10
103.4526
 20
248.782727832031
 30
0.0
 11
104.4866
 21
248.332727832031
 31
0.0
 0
CIRCLE
 5
4D6
100
AcDbEntity
 8
Layer8
100
AcDbCircle
 39
0.25
 370
106
 10
80.7377
 20
290.447527832031
 30
0.0
 40
2.21249999999999
 370
106
 0
ARC
 5
4D7
100
AcDbEntity
 8
Layer8
100
AcDbCircle
 39
0.25
 370
106
 10
80.8073447673465
 20
290.454751223483
 30
0.0
 40
3.08194535654682
100
AcDbArc
 50
113.691839599165
 51
-127.769389782537
 0
ARC
 5
4D8
100
AcDbEntity
 8
Layer8
100
AcDbCircle
 39
0.25
 370
106
 10
80.6769657020676
 20
290.427883749348
 30
0.0
 40
3.05693326750975
100
AcDbArc
 50
-52.9993913904935
 51
111.251029253895
 0
ARC
 5
4D9
100
AcDbEntity
 8
Layer8
100
AcDbCircle
 39
0.25
 370
106
 10
80.8062091072893
 20
290.456400708319
 30
0.0
 40
3.07997858573814
100
AcDbArc
 50
113.684823518519
 51
-140.454783095729
 0
ARC
 5
4DA
100
AcDbEntity
 8
Layer8
100
AcDbCircle
 39
0.25
 370
106
 10
80.6769657020676
 20
290.427883749348
 30
0.0
 40
3.05693326750975
100
AcDbArc
 50
-52.9993913904935
 51
111.251029253895
 0
LINE
 5
4DB
100
AcDbEntity
 8
Layer8
100
AcDbLine
 39
0.25
 370
106
 10
78.9197
 20
288.018527832031
 30
0.0
 11
79.2667
 21
285.816527832031
 31
0.0
 0
LINE
 5
4DC
100
AcDbEntity
 8
Layer8
100
AcDbLine
 39
0.25
 370
106
 10
79.2667
 20
285.816527832031
 30
0.0
 11
79.2667
 21
275.148527832031
 31
0.0
 0
LINE
 5
4DD
100
AcDbEntity
 8
Layer8
100
AcDbLine
 39
0.25
 370
106
 10
79.2667
 20
275.148527832031
 30
0.0
 11
82.1607
 21
275.148527832031
 31
0.0
 0
LINE
 5
4DE
100
AcDbEntity
 8
Layer8
100
AcDbLine
 39
0.25
 370
106
 10
82.1607
 20
275.148527832031
 30
0.0
 11
82.190528125
 21
286.329277832031
 31
0.0
 0
LINE
 5
4DF
100
AcDbEntity
 8
Layer8
100
AcDbLine
 39
0.25
 370
106
 10
82.190528125
 20
286.329277832031
 30
0.0
 11
82.5167
 21
287.986527832031
 31
0.0
 0
LINE
 5
4E0
100
AcDbEntity
 8
Layer8
100
AcDbLine
 39
0.25
 370
106
 10
78.43116875
 20
288.495418457031
 30
0.0
 11
78.9197
 21
288.018527832031
 31
0.0
 0
LINE
 5
4E1
100
AcDbEntity
 8
Layer8
100
AcDbLine
 39
0.25
 370
106
 10
78.9197
 20
288.018527832031
 30
0.0
 11
79.2362
 21
286.342324707031
 31
0.0
 0
LINE
 5
4E2
100
AcDbEntity
 8
Layer8
100
AcDbLine
 39
0.25
 370
106
 10
79.2362
 20
286.342324707031
 30
0.0
 11
79.2667
 21
275.148527832031
 31
0.0
 0
LINE
 5
4E3
100
AcDbEntity
 8
Layer8
100
AcDbLine
 39
0.25
 370
106
 10
79.2667
 20
275.148527832031
 30
0.0
 11
82.1607
 21
275.148527832031
 31
0.0
 0
LINE
 5
4E4
100
AcDbEntity
 8
Layer8
100
AcDbLine
 39
0.25
 370
106
 10
82.1607
 20
275.148527832031
 30
0.0
 11
82.190528125
 21
286.329277832031
 31
0.0
 0
LINE
 5
4E5
100
AcDbEntity
 8
Layer8
100
AcDbLine
 39
0.25
 370
106
 10
82.190528125
 20
286.329277832031
 30
0.0
 11
82.5167
 21
287.986527832031
 31
0.0
 0
ARC
 5
4E6
100
AcDbEntity
 8
Layer8
100
AcDbCircle
 39
0.25
 370
106
 10
81.0078077658037
 20
210.235900605863
 30
0.0
 40
7.20260815464529
100
AcDbArc
 50
-117.414059591132
 51
-61.4999578504379
 0
ARC
 5
4E7
100
AcDbEntity
 8
Layer8
100
AcDbCircle
 39
0.25
 370
106
 10
89.5947379086169
 20
195.272020956551
 30
0.0
 40
7.53303939398676
100
AcDbArc
 50
122.966909695045
 51
177.062010309642
 0
ARC
 5
4E8
100
AcDbEntity
 8
Layer8
100
AcDbCircle
 39
0.25
 370
106
 10
72.2872736179533
 20
195.183628219999
 30
0.0
 40
7.25480078119094
100
AcDbArc
 50
1.77329942503636
 51
57.2343696907849
 0
LINE
 5
4E9
100
AcDbEntity
 8
Layer8
100
AcDbLine
 39
0.25
 370
106
 10
67.5096
 20
206.307127832031
 30
0.0
 11
68.9876
 21
208.869127832031
 31
0.0
 0
LINE
 5
4EA
100
AcDbEntity
 8
Layer8
100
AcDbLine
 39
0.25
 370
106
 10
68.9876
 20
208.869127832031
 30
0.0
 11
77.6916
 21
203.842127832031
 31
0.0
 0
LINE
 5
4EB
100
AcDbEntity
 8
Layer8
100
AcDbLine
 39
0.25
 370
106
 10
84.4446
 20
203.906127832031
 30
0.0
 11
93.1566
 21
209.040127832031
 31
0.0
 0
LINE
 5
4EC
100
AcDbEntity
 8
Layer8
100
AcDbLine
 39
0.25
 370
106
 10
93.1566
 20
209.040127832031
 30
0.0
 11
94.4216
 21
206.852127832031
 31
0.0
 0
LINE
 5
4ED
100
AcDbEntity
 8
Layer8
100
AcDbLine
 39
0.25
 370
106
 10
94.4216
 20
206.852127832031
 30
0.0
 11
85.4956
 21
201.592127832031
 31
0.0
 0
LINE
 5
4EE
100
AcDbEntity
 8
Layer8
100
AcDbLine
 39
0.25
 370
106
 10
82.0716
 20
195.658127832031
 30
0.0
 11
81.9756
 21
185.319127832031
 31
0.0
 0
LINE
 5
4EF
100
AcDbEntity
 8
Layer8
100
AcDbLine
 39
0.25
 370
106
 10
81.9756
 20
185.319127832031
 30
0.0
 11
79.4496
 21
185.321127832031
 31
0.0
 0
LINE
 5
4F0
100
AcDbEntity
 8
Layer8
100
AcDbLine
 39
0.25
 370
106
 10
79.4496
 20
185.321127832031
 30
0.0
 11
79.5386
 21
195.408127832031
 31
0.0
 0
LINE
 5
4F1
100
AcDbEntity
 8
Layer8
100
AcDbLine
 39
0.25
 370
106
 10
76.2136
 20
201.284127832031
 30
0.0
 11
67.5096
 21
206.307127832031
 31
0.0
 0
LWPOLYLINE
 5
4F2
100
AcDbEntity
 8
Layer8
100
AcDbPolyline
 39
0.25
 370
106
 90
5              
 70
 1
 43
0.0
 10
93.2822
 20
236.070027832031
 10
93.2792
 20
236.071027832031
 10
93.9762
 20
237.384027832031
 10
93.9802
 20
237.382027832031
 10
93.2822
 20
236.070027832031
 0
LWPOLYLINE
 5
4F3
100
AcDbEntity
 8
Layer8
100
AcDbPolyline
 39
0.25
 370
106
 90
5              
 70
 1
 43
0.0
 10
93.2646
 20
236.053327832031
 10
93.2606
 20
236.055327832031
 10
93.9936
 20
237.401327832031
 10
93.9966
 20
237.400327832031
 10
93.2646
 20
236.053327832031
 0
LWPOLYLINE
 5
4F4
100
AcDbEntity
 8
Layer8
100
AcDbPolyline
 39
0.25
 370
106
 90
5              
 70
 1
 43
0.0
 10
93.2822
 20
236.070027832031
 10
93.2792
 20
236.071027832031
 10
93.9762
 20
237.384027832031
 10
93.9802
 20
237.382027832031
 10
93.2822
 20
236.070027832031
 0
LWPOLYLINE
 5
4F5
100
AcDbEntity
 8
Layer8
100
AcDbPolyline
 39
0.25
 370
106
 90
5              
 70
 1
 43
0.0
 10
93.2646
 20
236.053327832031
 10
93.2606
 20
236.055327832031
 10
93.9936
 20
237.401327832031
 10
93.9966
 20
237.400327832031
 10
93.2646
 20
236.053327832031
 0
LWPOLYLINE
 5
4F6
100
AcDbEntity
 8
Layer8
100
AcDbPolyline
 39
0.25
 370
106
 90
5              
 70
 1
 43
0.0
 10
93.2822
 20
236.070027832031
 10
93.2792
 20
236.071027832031
 10
93.9762
 20
237.384027832031
 10
93.9802
 20
237.382027832031
 10
93.2822
 20
236.070027832031
 0
LWPOLYLINE
 5
4F7
100
AcDbEntity
 8
Layer8
100
AcDbPolyline
 39
0.25
 370
106
 90
5              
 70
 1
 43
0.0
 10
93.2646
 20
236.053327832031
 10
93.2606
 20
236.055327832031
 10
93.9936
 20
237.401327832031
 10
93.9966
 20
237.400327832031
 10
93.2646
 20
236.053327832031
 0
CIRCLE
 5
4F8
100
AcDbEntity
 8
Layer8
100
AcDbCircle
 39
0.25
 370
106
 10
80.5135796875
 20
169.589413769531
 30
0.0
 40
2.5657734375
 370
106
 0
CIRCLE
 5
4F9
100
AcDbEntity
 8
Layer8
100
AcDbCircle
 39
0.25
 370
106
 10
80.5135796875
 20
169.589413769531
 30
0.0
 40
2.5657734375
 370
106
 0
CIRCLE
 5
4FA
100
AcDbEntity
 8
Layer8
100
AcDbCircle
 39
0.25
 370
106
 10
80.4134609375
 20
169.950351269531
 30
0.0
 40
2.19584375000002
 370
106
 0
ARC
 5
4FB
100
AcDbEntity
 8
Layer8
100
AcDbCircle
 39
0.25
 370
106
 10
81.0082225336175
 20
210.283349219532
 30
0.0
 40
7.22331976022287
100
AcDbArc
 50
-117.412976431771
 51
-61.5206927203764
 0
ARC
 5
4FC
100
AcDbEntity
 8
Layer8
100
AcDbCircle
 39
0.25
 370
106
 10
89.611096833142
 20
195.284812167073
 30
0.0
 40
7.54649412453337
100
AcDbArc
 50
122.94010444168
 51
177.050461001419
 0
ARC
 5
4FD
100
AcDbEntity
 8
Layer8
100
AcDbCircle
 39
0.25
 370
106
 10
72.2820603543858
 20
195.200009168176
 30
0.0
 40
7.25700121027865
100
AcDbArc
 50
1.7697524472377
 51
57.3186219009764
 0
LINE
 5
4FE
100
AcDbEntity
 8
Layer8
100
AcDbLine
 39
0.25
 370
106
 10
67.4756
 20
206.339127832031
 30
0.0
 11
68.9586
 21
208.905127832031
 31
0.0
 0
LINE
 5
4FF
100
AcDbEntity
 8
Layer8
100
AcDbLine
 39
0.25
 370
106
 10
68.9586
 20
208.905127832031
 30
0.0
 11
77.6826
 21
203.871127832031
 31
0.0
 0
LINE
 5
500
100
AcDbEntity
 8
Layer8
100
AcDbLine
 39
0.25
 370
106
 10
84.4526
 20
203.934127832031
 30
0.0
 11
93.1886
 21
209.076127832031
 31
0.0
 0
LINE
 5
501
100
AcDbEntity
 8
Layer8
100
AcDbLine
 39
0.25
 370
106
 10
93.1886
 20
209.076127832031
 30
0.0
 11
94.4566
 21
206.883127832031
 31
0.0
 0
LINE
 5
502
100
AcDbEntity
 8
Layer8
100
AcDbLine
 39
0.25
 370
106
 10
94.4566
 20
206.883127832031
 30
0.0
 11
85.5076
 21
201.618127832031
 31
0.0
 0
LINE
 5
503
100
AcDbEntity
 8
Layer8
100
AcDbLine
 39
0.25
 370
106
 10
82.0746
 20
195.673127832031
 30
0.0
 11
81.9766
 21
185.318127832031
 31
0.0
 0
LINE
 5
504
100
AcDbEntity
 8
Layer8
100
AcDbLine
 39
0.25
 370
106
 10
81.9766
 20
185.318127832031
 30
0.0
 11
79.4456
 21
185.322127832031
 31
0.0
 0
LINE
 5
505
100
AcDbEntity
 8
Layer8
100
AcDbLine
 39
0.25
 370
106
 10
79.4456
 20
185.322127832031
 30
0.0
 11
79.5356
 21
195.424127832031
 31
0.0
 0
LINE
 5
506
100
AcDbEntity
 8
Layer8
100
AcDbLine
 39
0.25
 370
106
 10
76.2006
 20
201.308127832031
 30
0.0
 11
67.4756
 21
206.339127832031
 31
0.0
 0
CIRCLE
 5
507
100
AcDbEntity
 8
Layer8
100
AcDbCircle
 39
0.25
 370
106
 10
80.4134609375
 20
169.950351269531
 30
0.0
 40
2.19584375000002
 370
106
 0
CIRCLE
 5
508
100
AcDbEntity
 8
Layer8
100
AcDbCircle
 39
0.25
 370
106
 10
54.9706171875
 20
215.431912207031
 30
0.0
 40
2.56562109374999
 370
106
 0
CIRCLE
 5
509
100
AcDbEntity
 8
Layer8
100
AcDbCircle
 39
0.25
 370
106
 10
54.9706171875
 20
215.431912207031
 30
0.0
 40
2.56562109374999
 370
106
 0
CIRCLE
 5
50A
100
AcDbEntity
 8
Layer8
100
AcDbCircle
 39
0.25
 370
106
 10
54.80134375
 20
215.408938769531
 30
0.0
 40
2.20634765625
 370
106
 0
ARC
 5
50B
100
AcDbEntity
 8
Layer8
100
AcDbCircle
 39
0.25
 370
106
 10
80.3624350448701
 20
169.94813262449
 30
0.0
 40
3.07529106191363
100
AcDbArc
 50
-74.360182515626
 51
49.0495395142673
 0
ARC
 5
50C
100
AcDbEntity
 8
Layer8
100
AcDbCircle
 39
0.25
 370
106
 10
80.4654743036759
 20
169.963374377497
 30
0.0
 40
3.06393322403039
100
AcDbArc
 50
117.430606563378
 51
-76.2928891828695
 0
ARC
 5
50D
100
AcDbEntity
 8
Layer8
100
AcDbCircle
 39
0.25
 370
106
 10
80.3624350448701
 20
169.94813262449
 30
0.0
 40
3.07529106191363
100
AcDbArc
 50
-74.360182515626
 51
49.0495395142673
 0
ARC
 5
50E
100
AcDbEntity
 8
Layer8
100
AcDbCircle
 39
0.25
 370
106
 10
80.4602439785396
 20
169.961411671275
 30
0.0
 40
3.06327080866284
100
AcDbArc
 50
117.326865155328
 51
-76.1891477748193
 0
LINE
 5
50F
100
AcDbEntity
 8
Layer8
100
AcDbLine
 39
0.25
 370
106
 10
82.378
 20
172.270827832031
 30
0.0
 11
81.88865625
 21
174.231280957031
 31
0.0
 0
LINE
 5
510
100
AcDbEntity
 8
Layer8
100
AcDbLine
 39
0.25
 370
106
 10
81.88865625
 20
174.231280957031
 30
0.0
 11
81.935
 21
185.125827832031
 31
0.0
 0
LINE
 5
511
100
AcDbEntity
 8
Layer8
100
AcDbLine
 39
0.25
 370
106
 10
81.935
 20
185.125827832031
 30
0.0
 11
79.465
 21
185.129827832031
 31
0.0
 0
LINE
 5
512
100
AcDbEntity
 8
Layer8
100
AcDbLine
 39
0.25
 370
106
 10
79.465
 20
185.129827832031
 30
0.0
 11
79.341078125
 21
174.138468457031
 31
0.0
 0
LINE
 5
513
100
AcDbEntity
 8
Layer8
100
AcDbLine
 39
0.25
 370
106
 10
79.341078125
 20
174.138468457031
 30
0.0
 11
79.054
 21
172.682827832031
 31
0.0
 0
LINE
 5
514
100
AcDbEntity
 8
Layer8
100
AcDbLine
 39
0.25
 370
106
 10
82.378
 20
172.270827832031
 30
0.0
 11
81.88865625
 21
174.231280957031
 31
0.0
 0
LINE
 5
515
100
AcDbEntity
 8
Layer8
100
AcDbLine
 39
0.25
 370
106
 10
81.88865625
 20
174.231280957031
 30
0.0
 11
81.935
 21
185.125827832031
 31
0.0
 0
LINE
 5
516
100
AcDbEntity
 8
Layer8
100
AcDbLine
 39
0.25
 370
106
 10
81.935
 20
185.125827832031
 30
0.0
 11
79.465
 21
185.129827832031
 31
0.0
 0
LINE
 5
517
100
AcDbEntity
 8
Layer8
100
AcDbLine
 39
0.25
 370
106
 10
79.465
 20
185.129827832031
 30
0.0
 11
79.341078125
 21
174.138468457031
 31
0.0
 0
LINE
 5
518
100
AcDbEntity
 8
Layer8
100
AcDbLine
 39
0.25
 370
106
 10
79.341078125
 20
174.138468457031
 30
0.0
 11
79.054
 21
172.682827832031
 31
0.0
 0
CIRCLE
 5
519
100
AcDbEntity
 8
Layer8
100
AcDbCircle
 39
0.25
 370
106
 10
54.83394375
 20
215.510298144531
 30
0.0
 40
2.23472265625001
 370
106
 0
ARC
 5
51A
100
AcDbEntity
 8
Layer8
100
AcDbCircle
 39
0.25
 370
106
 10
54.8307058026123
 20
215.40874626173
 30
0.0
 40
3.02313416890162
100
AcDbArc
 50
6.39992433611584
 51
-67.7993694377306
 0
LINE
 5
51B
100
AcDbEntity
 8
Layer8
100
AcDbLine
 39
0.25
 370
106
 10
55.973
 20
212.609727832031
 30
0.0
 11
58.052
 21
211.819727832031
 31
0.0
 0
LINE
 5
51C
100
AcDbEntity
 8
Layer8
100
AcDbLine
 39
0.25
 370
106
 10
58.052
 20
211.819727832031
 30
0.0
 11
67.265
 21
206.534727832031
 31
0.0
 0
LINE
 5
51D
100
AcDbEntity
 8
Layer8
100
AcDbLine
 39
0.25
 370
106
 10
67.265
 20
206.534727832031
 30
0.0
 11
68.734
 21
209.071727832031
 31
0.0
 0
LINE
 5
51E
100
AcDbEntity
 8
Layer8
100
AcDbLine
 39
0.25
 370
106
 10
68.734
 20
209.071727832031
 30
0.0
 11
59.098265625
 21
214.640180957031
 31
0.0
 0
LINE
 5
51F
100
AcDbEntity
 8
Layer8
100
AcDbLine
 39
0.25
 370
106
 10
59.098265625
 20
214.640180957031
 30
0.0
 11
57.835
 21
215.745727832031
 31
0.0
 0
ARC
 5
520
100
AcDbEntity
 8
Layer8
100
AcDbCircle
 39
0.25
 370
106
 10
54.8344774375396
 20
215.513231887738
 30
0.0
 40
3.08232079048624
100
AcDbArc
 50
6.31420574347627
 51
-67.4180978572365
 0
LINE
 5
521
100
AcDbEntity
 8
Layer8
100
AcDbLine
 39
0.25
 370
106
 10
56.0181
 20
212.667227832031
 30
0.0
 11
58.1181
 21
211.867227832031
 31
0.0
 0
LINE
 5
522
100
AcDbEntity
 8
Layer8
100
AcDbLine
 39
0.25
 370
106
 10
58.1181
 20
211.867227832031
 30
0.0
 11
67.4271
 21
206.500227832031
 31
0.0
 0
LINE
 5
523
100
AcDbEntity
 8
Layer8
100
AcDbLine
 39
0.25
 370
106
 10
67.4271
 20
206.500227832031
 30
0.0
 11
68.9121
 21
209.076227832031
 31
0.0
 0
LINE
 5
524
100
AcDbEntity
 8
Layer8
100
AcDbLine
 39
0.25
 370
106
 10
68.9121
 20
209.076227832031
 30
0.0
 11
59.175146875
 21
214.729821582031
 31
0.0
 0
LINE
 5
525
100
AcDbEntity
 8
Layer8
100
AcDbLine
 39
0.25
 370
106
 10
59.175146875
 20
214.729821582031
 30
0.0
 11
57.8981
 21
215.852227832031
 31
0.0
 0
LWPOLYLINE
 5
526
100
AcDbEntity
 8
Layer8
100
AcDbPolyline
 39
0.25
 370
106
 90
5              
 70
 1
 43
0.0
 10
93.7553
 20
237.305127832031
 10
93.7463
 20
237.294127832031
 10
92.7343
 20
239.224127832031
 10
92.7453
 20
239.224127832031
 10
93.7553
 20
237.305127832031
 0
LWPOLYLINE
 5
527
100
AcDbEntity
 8
Layer8
100
AcDbPolyline
 39
0.25
 370
106
 90
5              
 70
 1
 43
0.0
 10
93.771
 20
237.224027832031
 10
93.76
 20
237.213027832031
 10
92.682
 20
239.223027832031
 10
92.693
 20
239.223027832031
 10
93.771
 20
237.224027832031
 0
LWPOLYLINE
 5
528
100
AcDbEntity
 8
Layer8
100
AcDbPolyline
 39
0.25
 370
106
 90
5              
 70
 1
 43
0.0
 10
107.826
 20
260.361027832031
 10
105.031
 20
260.361027832031
 10
105.031
 20
260.345027832031
 10
107.826
 20
260.345027832031
 10
107.826
 20
260.361027832031
 0
LWPOLYLINE
 5
529
100
AcDbEntity
 8
Layer8
100
AcDbPolyline
 39
0.25
 370
106
 90
5              
 70
 1
 43
0.0
 10
107.826
 20
260.361027832031
 10
105.031
 20
260.361027832031
 10
105.031
 20
260.345027832031
 10
107.826
 20
260.345027832031
 10
107.826
 20
260.361027832031
 0
LWPOLYLINE
 5
52A
100
AcDbEntity
 8
Layer8
100
AcDbPolyline
 39
0.25
 370
106
 90
5              
 70
 1
 43
0.0
 10
107.826
 20
260.361027832031
 10
105.031
 20
260.361027832031
 10
105.031
 20
260.345027832031
 10
107.826
 20
260.345027832031
 10
107.826
 20
260.361027832031
 0
LWPOLYLINE
 5
52B
100
AcDbEntity
 8
Layer8
100
AcDbPolyline
 39
0.25
 370
106
 90
5              
 70
 1
 43
0.0
 10
107.826
 20
260.361027832031
 10
105.031
 20
260.361027832031
 10
105.031
 20
260.345027832031
 10
107.826
 20
260.345027832031
 10
107.826
 20
260.361027832031
 0
LWPOLYLINE
 5
52C
100
AcDbEntity
 8
Layer8
100
AcDbPolyline
 39
0.25
 370
106
 90
5              
 70
 1
 43
0.0
 10
107.826
 20
260.361027832031
 10
105.031
 20
260.361027832031
 10
105.031
 20
260.345027832031
 10
107.826
 20
260.345027832031
 10
107.826
 20
260.361027832031
 0
LWPOLYLINE
 5
52D
100
AcDbEntity
 8
Layer8
100
AcDbPolyline
 39
0.25
 370
106
 90
5              
 70
 1
 43
0.0
 10
107.826
 20
260.361027832031
 10
105.031
 20
260.361027832031
 10
105.031
 20
260.345027832031
 10
107.826
 20
260.345027832031
 10
107.826
 20
260.361027832031
 0
ARC
 5
52E
100
AcDbEntity
 8
Layer8
100
AcDbCircle
 39
0.25
 370
106
 10
115.086892584729
 20
250.480197626547
 30
0.0
 40
7.23209743156848
100
AcDbArc
 50
-177.42458266038
 51
-121.491006648988
 0
ARC
 5
52F
100
AcDbEntity
 8
Layer8
100
AcDbCircle
 39
0.25
 370
106
 10
97.3799032032525
 20
250.664647192707
 30
0.0
 40
7.54782610045676
100
AcDbArc
 50
-53.2967052470449
 51
-7.42293219417972
 0
ARC
 5
530
100
AcDbEntity
 8
Layer8
100
AcDbCircle
 39
0.25
 370
106
 10
106.369032610572
 20
235.079110397951
 30
0.0
 40
7.95575029421092
100
AcDbArc
 50
67.8685466148584
 51
112.290117878157
 0
LINE
 5
531
100
AcDbEntity
 8
Layer8
100
AcDbLine
 39
0.25
 370
106
 10
107.8621
 20
250.155227832031
 30
0.0
 11
107.8621
 21
260.271227832031
 31
0.0
 0
LINE
 5
532
100
AcDbEntity
 8
Layer8
100
AcDbLine
 39
0.25
 370
106
 10
107.8621
 20
260.271227832031
 30
0.0
 11
104.8881
 21
260.271227832031
 31
0.0
 0
LINE
 5
533
100
AcDbEntity
 8
Layer8
100
AcDbLine
 39
0.25
 370
106
 10
104.8881
 20
260.271227832031
 30
0.0
 11
104.864475
 21
249.689524707031
 31
0.0
 0
LINE
 5
534
100
AcDbEntity
 8
Layer8
100
AcDbLine
 39
0.25
 370
106
 10
101.891021875
 20
244.613243457031
 30
0.0
 11
92.5821
 21
239.298227832031
 31
0.0
 0
LINE
 5
535
100
AcDbEntity
 8
Layer8
100
AcDbLine
 39
0.25
 370
106
 10
92.5821
 20
239.298227832031
 30
0.0
 11
93.8451
 21
237.091227832031
 31
0.0
 0
LINE
 5
536
100
AcDbEntity
 8
Layer8
100
AcDbLine
 39
0.25
 370
106
 10
93.8451
 20
237.091227832031
 30
0.0
 11
103.35144375
 21
242.440368457031
 31
0.0
 0
LINE
 5
537
100
AcDbEntity
 8
Layer8
100
AcDbLine
 39
0.25
 370
106
 10
109.366225
 20
242.448696582031
 30
0.0
 11
118.8801
 21
237.103227832031
 31
0.0
 0
LINE
 5
538
100
AcDbEntity
 8
Layer8
100
AcDbLine
 39
0.25
 370
106
 10
118.8801
 20
237.103227832031
 30
0.0
 11
120.1431
 21
239.311227832031
 31
0.0
 0
LINE
 5
539
100
AcDbEntity
 8
Layer8
100
AcDbLine
 39
0.25
 370
106
 10
120.1431
 20
239.311227832031
 30
0.0
 11
111.3091
 21
244.313227832031
 31
0.0
 0
LINE
 5
53A
100
AcDbEntity
 8
Layer8
100
AcDbLine
 39
0.25
 370
106
 10
126.6085
 20
235.682327832031
 30
0.0
 11
125.92325
 21
234.674077832031
 31
0.0
 0
LINE
 5
53B
100
AcDbEntity
 8
Layer8
100
AcDbLine
 39
0.25
 370
106
 10
125.92325
 20
234.674077832031
 30
0.0
 11
125.4225
 21
233.556327832031
 31
0.0
 0
LINE
 5
53C
100
AcDbEntity
 8
Layer8
100
AcDbLine
 39
0.25
 370
106
 10
125.4225
 20
233.556327832031
 30
0.0
 11
119.1035
 21
237.089327832031
 31
0.0
 0
LINE
 5
53D
100
AcDbEntity
 8
Layer8
100
AcDbLine
 39
0.25
 370
106
 10
119.1035
 20
237.089327832031
 30
0.0
 11
120.3255
 21
239.202327832031
 31
0.0
 0
LINE
 5
53E
100
AcDbEntity
 8
Layer8
100
AcDbLine
 39
0.25
 370
106
 10
120.3255
 20
239.202327832031
 30
0.0
 11
126.6085
 21
235.682327832031
 31
0.0
 0
CIRCLE
 5
53F
100
AcDbEntity
 8
Layer8
100
AcDbCircle
 39
0.25
 370
106
 10
80.0895265625
 20
230.315199707031
 30
0.0
 40
2.56624609374998
 370
106
 0
CIRCLE
 5
540
100
AcDbEntity
 8
Layer8
100
AcDbCircle
 39
0.25
 370
106
 10
80.0895265625
 20
230.315199707031
 30
0.0
 40
2.56624609374998
 370
106
 0
CIRCLE
 5
541
100
AcDbEntity
 8
Layer8
100
AcDbCircle
 39
0.25
 370
106
 10
80.1410046875
 20
230.349291894531
 30
0.0
 40
2.204734375
 370
106
 0
LINE
 5
542
100
AcDbEntity
 8
Layer8
100
AcDbLine
 39
0.25
 370
106
 10
126.6597
 20
235.668227832031
 30
0.0
 11
125.966825
 21
234.646852832031
 31
0.0
 0
LINE
 5
543
100
AcDbEntity
 8
Layer8
100
AcDbLine
 39
0.25
 370
106
 10
125.966825
 20
234.646852832031
 30
0.0
 11
125.4607
 21
233.512227832031
 31
0.0
 0
LINE
 5
544
100
AcDbEntity
 8
Layer8
100
AcDbLine
 39
0.25
 370
106
 10
125.4607
 20
233.512227832031
 30
0.0
 11
119.0677
 21
237.093227832031
 31
0.0
 0
LINE
 5
545
100
AcDbEntity
 8
Layer8
100
AcDbLine
 39
0.25
 370
106
 10
119.0677
 20
237.093227832031
 30
0.0
 11
120.3037
 21
239.236227832031
 31
0.0
 0
LINE
 5
546
100
AcDbEntity
 8
Layer8
100
AcDbLine
 39
0.25
 370
106
 10
120.3037
 20
239.236227832031
 30
0.0
 11
126.6597
 21
235.668227832031
 31
0.0
 0
CIRCLE
 5
547
100
AcDbEntity
 8
Layer8
100
AcDbCircle
 39
0.25
 370
106
 10
80.14535
 20
230.359976269531
 30
0.0
 40
2.20980078125001
 370
106
 0
ARC
 5
548
100
AcDbEntity
 8
Layer8
100
AcDbCircle
 39
0.25
 370
106
 10
80.1395292423812
 20
230.347368922563
 30
0.0
 40
3.05871763074559
100
AcDbArc
 50
149.95889281698
 51
2.75951487819016
 0
ARC
 5
549
100
AcDbEntity
 8
Layer8
100
AcDbCircle
 39
0.25
 370
106
 10
80.1490616775785
 20
230.309686200005
 30
0.0
 40
3.08595996898306
100
AcDbArc
 50
70.6668660326745
 51
149.441833333384
 0
LINE
 5
54A
100
AcDbEntity
 8
Layer8
100
AcDbLine
 39
0.25
 370
106
 10
92.4817
 20
239.210627832031
 30
0.0
 11
83.094590625
 21
233.767252832031
 31
0.0
 0
LINE
 5
54B
100
AcDbEntity
 8
Layer8
100
AcDbLine
 39
0.25
 370
106
 10
83.094590625
 20
233.767252832031
 30
0.0
 11
81.1707
 21
233.221627832031
 31
0.0
 0
LINE
 5
54C
100
AcDbEntity
 8
Layer8
100
AcDbLine
 39
0.25
 370
106
 10
83.1947
 20
230.494627832031
 30
0.0
 11
84.6707
 21
231.737627832031
 31
0.0
 0
LINE
 5
54D
100
AcDbEntity
 8
Layer8
100
AcDbLine
 39
0.25
 370
106
 10
84.6707
 20
231.737627832031
 30
0.0
 11
93.7347
 21
237.024627832031
 31
0.0
 0
LINE
 5
54E
100
AcDbEntity
 8
Layer8
100
AcDbLine
 39
0.25
 370
106
 10
93.7347
 20
237.024627832031
 30
0.0
 11
92.4817
 21
239.210627832031
 31
0.0
 0
CIRCLE
 5
54F
100
AcDbEntity
 8
Layer8
100
AcDbCircle
 39
0.25
 370
106
 10
106.4161
 20
275.757527832031
 30
0.0
 40
2.21249999999999
 370
106
 0
ARC
 5
550
100
AcDbEntity
 8
Layer8
100
AcDbCircle
 39
0.25
 370
106
 10
80.1564161389082
 20
230.365520630799
 30
0.0
 40
3.05032102658249
100
AcDbArc
 50
70.4408916533207
 51
2.59878767945717
 0
LINE
 5
551
100
AcDbEntity
 8
Layer8
100
AcDbLine
 39
0.25
 370
106
 10
92.5046
 20
239.250827832031
 30
0.0
 11
83.10275625
 21
233.787280957031
 31
0.0
 0
LINE
 5
552
100
AcDbEntity
 8
Layer8
100
AcDbLine
 39
0.25
 370
106
 10
83.10275625
 20
233.787280957031
 30
0.0
 11
81.1776
 21
233.239827832031
 31
0.0
 0
LINE
 5
553
100
AcDbEntity
 8
Layer8
100
AcDbLine
 39
0.25
 370
106
 10
83.2036
 20
230.503827832031
 30
0.0
 11
84.6836
 21
231.752827832031
 31
0.0
 0
LINE
 5
554
100
AcDbEntity
 8
Layer8
100
AcDbLine
 39
0.25
 370
106
 10
84.6836
 20
231.752827832031
 30
0.0
 11
93.7576
 21
237.057827832031
 31
0.0
 0
LINE
 5
555
100
AcDbEntity
 8
Layer8
100
AcDbLine
 39
0.25
 370
106
 10
93.7576
 20
237.057827832031
 30
0.0
 11
92.5046
 21
239.250827832031
 31
0.0
 0
CIRCLE
 5
556
100
AcDbEntity
 8
Layer8
100
AcDbCircle
 39
0.25
 370
106
 10
106.4161
 20
275.757527832031
 30
0.0
 40
2.21249999999999
 370
106
 0
ARC
 5
557
100
AcDbEntity
 8
Layer8
100
AcDbCircle
 39
0.25
 370
106
 10
106.485913713465
 20
275.761252897358
 30
0.0
 40
3.08347017246269
100
AcDbArc
 50
113.680616159527
 51
-126.93337109993
 0
ARC
 5
558
100
AcDbEntity
 8
Layer8
100
AcDbCircle
 39
0.25
 370
106
 10
106.367379233625
 20
275.746310978616
 30
0.0
 40
3.05169685746292
100
AcDbArc
 50
-51.787436698358
 51
111.529335237721
 0
ARC
 5
559
100
AcDbEntity
 8
Layer8
100
AcDbCircle
 39
0.25
 370
106
 10
106.485913713465
 20
275.761252897358
 30
0.0
 40
3.08347017246269
100
AcDbArc
 50
113.680616159527
 51
-126.93337109993
 0
ARC
 5
55A
100
AcDbEntity
 8
Layer8
100
AcDbCircle
 39
0.25
 370
106
 10
106.367379233625
 20
275.746310978616
 30
0.0
 40
3.05169685746292
100
AcDbArc
 50
-51.787436698358
 51
111.529335237721
 0
LINE
 5
55B
100
AcDbEntity
 8
Layer8
100
AcDbLine
 39
0.25
 370
106
 10
104.6331
 20
273.296527832031
 30
0.0
 11
104.963271875
 21
271.637996582031
 31
0.0
 0
LINE
 5
55C
100
AcDbEntity
 8
Layer8
100
AcDbLine
 39
0.25
 370
106
 10
104.963271875
 20
271.637996582031
 30
0.0
 11
104.9931
 21
260.462527832031
 31
0.0
 0
LINE
 5
55D
100
AcDbEntity
 8
Layer8
100
AcDbLine
 39
0.25
 370
106
 10
104.9931
 20
260.462527832031
 30
0.0
 11
107.8851
 21
260.462527832031
 31
0.0
 0
LINE
 5
55E
100
AcDbEntity
 8
Layer8
100
AcDbLine
 39
0.25
 370
106
 10
107.8851
 20
260.462527832031
 30
0.0
 11
107.9159125
 21
271.650918457031
 31
0.0
 0
LINE
 5
55F
100
AcDbEntity
 8
Layer8
100
AcDbLine
 39
0.25
 370
106
 10
107.9159125
 20
271.650918457031
 30
0.0
 11
108.2551
 21
273.348527832031
 31
0.0
 0
LINE
 5
560
100
AcDbEntity
 8
Layer8
100
AcDbLine
 39
0.25
 370
106
 10
104.6331
 20
273.296527832031
 30
0.0
 11
104.963271875
 21
271.637996582031
 31
0.0
 0
LINE
 5
561
100
AcDbEntity
 8
Layer8
100
AcDbLine
 39
0.25
 370
106
 10
104.963271875
 20
271.637996582031
 30
0.0
 11
104.9931
 21
260.462527832031
 31
0.0
 0
LINE
 5
562
100
AcDbEntity
 8
Layer8
100
AcDbLine
 39
0.25
 370
106
 10
104.9931
 20
260.462527832031
 30
0.0
 11
107.8851
 21
260.462527832031
 31
0.0
 0
LINE
 5
563
100
AcDbEntity
 8
Layer8
100
AcDbLine
 39
0.25
 370
106
 10
107.8851
 20
260.462527832031
 30
0.0
 11
107.9159125
 21
271.650918457031
 31
0.0
 0
LINE
 5
564
100
AcDbEntity
 8
Layer8
100
AcDbLine
 39
0.25
 370
106
 10
107.9159125
 20
271.650918457031
 30
0.0
 11
108.2551
 21
273.348527832031
 31
0.0
 0
ARC
 5
565
100
AcDbEntity
 8
Layer8
100
AcDbCircle
 39
0.25
 370
106
 10
141.566589512028
 20
205.635339267116
 30
0.0
 40
7.11292693137026
100
AcDbArc
 50
-177.678580604141
 51
-121.184945362132
 0
ARC
 5
566
100
AcDbEntity
 8
Layer8
100
AcDbCircle
 39
0.25
 370
106
 10
124.083680449577
 20
205.837667285203
 30
0.0
 40
7.4634848539816
100
AcDbArc
 50
-54.7293559065949
 51
-8.15789579165977
 0
ARC
 5
567
100
AcDbEntity
 8
Layer8
100
AcDbCircle
 39
0.25
 370
106
 10
132.986467823841
 20
190.268203413581
 30
0.0
 40
8.01484987061451
100
AcDbArc
 50
68.1220493842919
 51
111.88154741286
 0
LINE
 5
568
100
AcDbEntity
 8
Layer8
100
AcDbLine
 39
0.25
 370
106
 10
134.4595
 20
205.347227832031
 30
0.0
 11
134.4595
 21
215.387227832031
 31
0.0
 0
LINE
 5
569
100
AcDbEntity
 8
Layer8
100
AcDbLine
 39
0.25
 370
106
 10
134.4595
 20
215.387227832031
 30
0.0
 11
131.5065
 21
215.387227832031
 31
0.0
 0
LINE
 5
56A
100
AcDbEntity
 8
Layer8
100
AcDbLine
 39
0.25
 370
106
 10
131.5065
 20
215.387227832031
 30
0.0
 11
131.471640625
 21
204.778587207031
 31
0.0
 0
LINE
 5
56B
100
AcDbEntity
 8
Layer8
100
AcDbLine
 39
0.25
 370
106
 10
128.393390625
 20
199.744227832031
 30
0.0
 11
119.2695
 21
194.575227832031
 31
0.0
 0
LINE
 5
56C
100
AcDbEntity
 8
Layer8
100
AcDbLine
 39
0.25
 370
106
 10
119.2695
 20
194.575227832031
 30
0.0
 11
120.5365
 21
192.385227832031
 31
0.0
 0
LINE
 5
56D
100
AcDbEntity
 8
Layer8
100
AcDbLine
 39
0.25
 370
106
 10
120.5365
 20
192.385227832031
 30
0.0
 11
129.999421875
 21
197.705634082031
 31
0.0
 0
LINE
 5
56E
100
AcDbEntity
 8
Layer8
100
AcDbLine
 39
0.25
 370
106
 10
135.973046875
 20
197.705821582031
 30
0.0
 11
145.4045
 21
192.408227832031
 31
0.0
 0
LINE
 5
56F
100
AcDbEntity
 8
Layer8
100
AcDbLine
 39
0.25
 370
106
 10
145.4045
 20
192.408227832031
 30
0.0
 11
146.6695
 21
194.587227832031
 31
0.0
 0
LINE
 5
570
100
AcDbEntity
 8
Layer8
100
AcDbLine
 39
0.25
 370
106
 10
146.6695
 20
194.587227832031
 30
0.0
 11
137.8835
 21
199.550227832031
 31
0.0
 0
LWPOLYLINE
 5
571
100
AcDbEntity
 8
Layer8
100
AcDbPolyline
 39
0.25
 370
106
 90
5              
 70
 1
 43
0.0
 10
134.382
 20
215.502027832031
 10
131.589
 20
215.502027832031
 10
131.589
 20
215.486027832031
 10
134.382
 20
215.486027832031
 10
134.382
 20
215.502027832031
 0
LWPOLYLINE
 5
572
100
AcDbEntity
 8
Layer8
100
AcDbPolyline
 39
0.25
 370
106
 90
5              
 70
 1
 43
0.0
 10
134.382
 20
215.502027832031
 10
131.589
 20
215.502027832031
 10
131.589
 20
215.486027832031
 10
134.382
 20
215.486027832031
 10
134.382
 20
215.502027832031
 0
LWPOLYLINE
 5
573
100
AcDbEntity
 8
Layer8
100
AcDbPolyline
 39
0.25
 370
106
 90
5              
 70
 1
 43
0.0
 10
134.382
 20
215.502027832031
 10
131.589
 20
215.502027832031
 10
131.589
 20
215.486027832031
 10
134.382
 20
215.486027832031
 10
134.382
 20
215.502027832031
 0
LWPOLYLINE
 5
574
100
AcDbEntity
 8
Layer8
100
AcDbPolyline
 39
0.25
 370
106
 90
5              
 70
 1
 43
0.0
 10
134.382
 20
215.502027832031
 10
131.589
 20
215.502027832031
 10
131.589
 20
215.486027832031
 10
134.382
 20
215.486027832031
 10
134.382
 20
215.502027832031
 0
LWPOLYLINE
 5
575
100
AcDbEntity
 8
Layer8
100
AcDbPolyline
 39
0.25
 370
106
 90
5              
 70
 1
 43
0.0
 10
134.382
 20
215.502027832031
 10
131.589
 20
215.502027832031
 10
131.589
 20
215.486027832031
 10
134.382
 20
215.486027832031
 10
134.382
 20
215.502027832031
 0
LWPOLYLINE
 5
576
100
AcDbEntity
 8
Layer8
100
AcDbPolyline
 39
0.25
 370
106
 90
5              
 70
 1
 43
0.0
 10
134.382
 20
215.502027832031
 10
131.589
 20
215.502027832031
 10
131.589
 20
215.486027832031
 10
134.382
 20
215.486027832031
 10
134.382
 20
215.502027832031
 0
CIRCLE
 5
577
100
AcDbEntity
 8
Layer8
100
AcDbCircle
 39
0.25
 370
106
 10
106.7498109375
 20
185.435229394531
 30
0.0
 40
2.5659296875
 370
106
 0
CIRCLE
 5
578
100
AcDbEntity
 8
Layer8
100
AcDbCircle
 39
0.25
 370
106
 10
106.7498109375
 20
185.435229394531
 30
0.0
 40
2.5659296875
 370
106
 0
CIRCLE
 5
579
100
AcDbEntity
 8
Layer8
100
AcDbCircle
 39
0.25
 370
106
 10
106.6985203125
 20
185.472435644531
 30
0.0
 40
2.20552343750001
 370
106
 0
ARC
 5
57A
100
AcDbEntity
 8
Layer8
100
AcDbCircle
 39
0.25
 370
106
 10
141.594582602367
 20
205.607433519722
 30
0.0
 40
7.13694060367825
100
AcDbArc
 50
-177.678407289089
 51
-121.208959915021
 0
ARC
 5
57B
100
AcDbEntity
 8
Layer8
100
AcDbCircle
 39
0.25
 370
106
 10
124.064165708538
 20
205.802593259407
 30
0.0
 40
7.47721669431539
100
AcDbArc
 50
-54.732953461736
 51
-8.10796356756719
 0
ARC
 5
57C
100
AcDbEntity
 8
Layer8
100
AcDbCircle
 39
0.25
 370
106
 10
132.986589824353
 20
190.16613608961
 30
0.0
 40
8.06411850880254
100
AcDbArc
 50
68.1995241088559
 51
111.804959433035
 0
LINE
 5
57D
100
AcDbEntity
 8
Layer8
100
AcDbLine
 39
0.25
 370
106
 10
134.4635
 20
205.318327832031
 30
0.0
 11
134.4635
 21
215.386327832031
 31
0.0
 0
LINE
 5
57E
100
AcDbEntity
 8
Layer8
100
AcDbLine
 39
0.25
 370
106
 10
134.4635
 20
215.386327832031
 30
0.0
 11
131.5015
 21
215.386327832031
 31
0.0
 0
LINE
 5
57F
100
AcDbEntity
 8
Layer8
100
AcDbLine
 39
0.25
 370
106
 10
131.5015
 20
215.386327832031
 30
0.0
 11
131.466640625
 21
204.748015332031
 31
0.0
 0
LINE
 5
580
100
AcDbEntity
 8
Layer8
100
AcDbLine
 39
0.25
 370
106
 10
128.381421875
 20
199.697671582031
 30
0.0
 11
119.2325
 21
194.513327832031
 31
0.0
 0
LINE
 5
581
100
AcDbEntity
 8
Layer8
100
AcDbLine
 39
0.25
 370
106
 10
119.2325
 20
194.513327832031
 30
0.0
 11
120.5045
 21
192.316327832031
 31
0.0
 0
LINE
 5
582
100
AcDbEntity
 8
Layer8
100
AcDbLine
 39
0.25
 370
106
 10
120.5045
 20
192.316327832031
 30
0.0
 11
129.9911875
 21
197.653296582031
 31
0.0
 0
LINE
 5
583
100
AcDbEntity
 8
Layer8
100
AcDbLine
 39
0.25
 370
106
 10
135.98140625
 20
197.653530957031
 30
0.0
 11
145.4355
 21
192.341327832031
 31
0.0
 0
LINE
 5
584
100
AcDbEntity
 8
Layer8
100
AcDbLine
 39
0.25
 370
106
 10
145.4355
 20
192.341327832031
 30
0.0
 11
146.7075
 21
194.526327832031
 31
0.0
 0
LINE
 5
585
100
AcDbEntity
 8
Layer8
100
AcDbLine
 39
0.25
 370
106
 10
146.7075
 20
194.526327832031
 30
0.0
 11
137.8965
 21
199.503327832031
 31
0.0
 0
CIRCLE
 5
586
100
AcDbEntity
 8
Layer8
100
AcDbCircle
 39
0.25
 370
106
 10
106.705234375
 20
185.481076269531
 30
0.0
 40
2.21098046874997
 370
106
 0
ARC
 5
587
100
AcDbEntity
 8
Layer8
100
AcDbCircle
 39
0.25
 370
106
 10
106.690289113608
 20
185.449496444876
 30
0.0
 40
3.06260761657988
100
AcDbArc
 50
128.331572617713
 51
2.8154286289179
 0
ARC
 5
588
100
AcDbEntity
 8
Layer8
100
AcDbCircle
 39
0.25
 370
106
 10
106.688619613937
 20
185.421784892784
 30
0.0
 40
3.08336555733119
100
AcDbArc
 50
65.9702455361146
 51
127.987862026425
 0
LINE
 5
589
100
AcDbEntity
 8
Layer8
100
AcDbLine
 39
0.25
 370
106
 10
110.1782
 20
189.152927832031
 30
0.0
 11
107.9442
 21
188.237927832031
 31
0.0
 0
LINE
 5
58A
100
AcDbEntity
 8
Layer8
100
AcDbLine
 39
0.25
 370
106
 10
109.7492
 20
185.599927832031
 30
0.0
 11
111.2292
 21
186.855927832031
 31
0.0
 0
LINE
 5
58B
100
AcDbEntity
 8
Layer8
100
AcDbLine
 39
0.25
 370
106
 10
111.2292
 20
186.855927832031
 30
0.0
 11
120.2872
 21
192.165927832031
 31
0.0
 0
LINE
 5
58C
100
AcDbEntity
 8
Layer8
100
AcDbLine
 39
0.25
 370
106
 10
120.2872
 20
192.165927832031
 30
0.0
 11
119.0262
 21
194.332927832031
 31
0.0
 0
LINE
 5
58D
100
AcDbEntity
 8
Layer8
100
AcDbLine
 39
0.25
 370
106
 10
119.0262
 20
194.332927832031
 30
0.0
 11
110.1782
 21
189.152927832031
 31
0.0
 0
ARC
 5
58E
100
AcDbEntity
 8
Layer8
100
AcDbCircle
 39
0.25
 370
106
 10
106.698117443439
 20
185.462991461757
 30
0.0
 40
3.06688054843724
100
AcDbArc
 50
128.401269970891
 51
2.73677998608126
 0
ARC
 5
58F
100
AcDbEntity
 8
Layer8
100
AcDbCircle
 39
0.25
 370
106
 10
106.695443524699
 20
185.433006212759
 30
0.0
 40
3.08878793959541
100
AcDbArc
 50
65.9851107020776
 51
128.016895501101
 0
LINE
 5
590
100
AcDbEntity
 8
Layer8
100
AcDbLine
 39
0.25
 370
106
 10
110.1925
 20
189.172427832031
 30
0.0
 11
107.9525
 21
188.254427832031
 31
0.0
 0
LINE
 5
591
100
AcDbEntity
 8
Layer8
100
AcDbLine
 39
0.25
 370
106
 10
109.7615
 20
185.609427832031
 30
0.0
 11
111.2455
 21
186.868427832031
 31
0.0
 0
LINE
 5
592
100
AcDbEntity
 8
Layer8
100
AcDbLine
 39
0.25
 370
106
 10
111.2455
 20
186.868427832031
 30
0.0
 11
120.3225
 21
192.194427832031
 31
0.0
 0
LINE
 5
593
100
AcDbEntity
 8
Layer8
100
AcDbLine
 39
0.25
 370
106
 10
120.3225
 20
192.194427832031
 30
0.0
 11
119.0575
 21
194.366427832031
 31
0.0
 0
LINE
 5
594
100
AcDbEntity
 8
Layer8
100
AcDbLine
 39
0.25
 370
106
 10
119.0575
 20
194.366427832031
 30
0.0
 11
110.1925
 21
189.172427832031
 31
0.0
 0
LINE
 5
595
100
AcDbEntity
 8
Layer8
100
AcDbLine
 39
0.25
 370
106
 10
134.3918
 20
215.577227832031
 30
0.0
 11
131.6008
 21
215.577227832031
 31
0.0
 0
LINE
 5
596
100
AcDbEntity
 8
Layer8
100
AcDbLine
 39
0.25
 370
106
 10
131.6008
 20
215.577227832031
 30
0.0
 11
131.6008
 21
222.788227832031
 31
0.0
 0
LINE
 5
597
100
AcDbEntity
 8
Layer8
100
AcDbLine
 39
0.25
 370
106
 10
131.6008
 20
222.788227832031
 30
0.0
 11
133.0378
 21
222.637227832031
 31
0.0
 0
LINE
 5
598
100
AcDbEntity
 8
Layer8
100
AcDbLine
 39
0.25
 370
106
 10
133.0378
 20
222.637227832031
 30
0.0
 11
134.3918
 21
222.776227832031
 31
0.0
 0
LINE
 5
599
100
AcDbEntity
 8
Layer8
100
AcDbLine
 39
0.25
 370
106
 10
134.3918
 20
222.776227832031
 30
0.0
 11
134.3918
 21
215.577227832031
 31
0.0
 0
LINE
 5
59A
100
AcDbEntity
 8
Layer8
100
AcDbLine
 39
0.25
 370
106
 10
134.3918
 20
215.578127832031
 30
0.0
 11
131.6008
 21
215.578127832031
 31
0.0
 0
LINE
 5
59B
100
AcDbEntity
 8
Layer8
100
AcDbLine
 39
0.25
 370
106
 10
131.6008
 20
215.578127832031
 30
0.0
 11
131.6008
 21
222.812127832031
 31
0.0
 0
LINE
 5
59C
100
AcDbEntity
 8
Layer8
100
AcDbLine
 39
0.25
 370
106
 10
131.6008
 20
222.812127832031
 30
0.0
 11
133.0378
 21
222.661127832031
 31
0.0
 0
LINE
 5
59D
100
AcDbEntity
 8
Layer8
100
AcDbLine
 39
0.25
 370
106
 10
133.0378
 20
222.661127832031
 30
0.0
 11
134.3918
 21
222.800127832031
 31
0.0
 0
LINE
 5
59E
100
AcDbEntity
 8
Layer8
100
AcDbLine
 39
0.25
 370
106
 10
134.3918
 20
222.800127832031
 30
0.0
 11
134.3918
 21
215.578127832031
 31
0.0
 0
ARC
 5
59F
100
AcDbEntity
 8
Layer8
100
AcDbCircle
 39
0.25
 370
106
 10
132.9818
 20
161.399101551053
 30
0.0
 40
7.53531717132388
100
AcDbArc
 50
62.939926853754
 51
117.060073146254
 0
ARC
 5
5A0
100
AcDbEntity
 8
Layer8
100
AcDbCircle
 39
0.25
 370
106
 10
141.693990977987
 20
176.337876958866
 30
0.0
 40
7.23838641544601
100
AcDbArc
 50
-177.273259533295
 51
-121.687200317003
 0
LINE
 5
5A1
100
AcDbEntity
 8
Layer8
100
AcDbLine
 39
0.25
 370
106
 10
134.4638
 20
186.043527832031
 30
0.0
 11
131.5078
 21
186.043527832031
 31
0.0
 0
LINE
 5
5A2
100
AcDbEntity
 8
Layer8
100
AcDbLine
 39
0.25
 370
106
 10
131.5078
 20
186.043527832031
 30
0.0
 11
131.5078
 21
175.993527832031
 31
0.0
 0
LINE
 5
5A3
100
AcDbEntity
 8
Layer8
100
AcDbLine
 39
0.25
 370
106
 10
131.5078
 20
175.993527832031
 30
0.0
 11
131.23676875
 21
174.334699707031
 31
0.0
 0
LINE
 5
5A4
100
AcDbEntity
 8
Layer8
100
AcDbLine
 39
0.25
 370
106
 10
131.23676875
 20
174.334699707031
 30
0.0
 11
130.49905
 21
172.685152832031
 31
0.0
 0
LINE
 5
5A5
100
AcDbEntity
 8
Layer8
100
AcDbLine
 39
0.25
 370
106
 10
130.49905
 20
172.685152832031
 30
0.0
 11
129.40770625
 21
171.236043457031
 31
0.0
 0
LINE
 5
5A6
100
AcDbEntity
 8
Layer8
100
AcDbLine
 39
0.25
 370
106
 10
129.40770625
 20
171.236043457031
 30
0.0
 11
128.0758
 21
170.178527832031
 31
0.0
 0
LINE
 5
5A7
100
AcDbEntity
 8
Layer8
100
AcDbLine
 39
0.25
 370
106
 10
128.0758
 20
170.178527832031
 30
0.0
 11
119.2728
 21
165.199527832031
 31
0.0
 0
LINE
 5
5A8
100
AcDbEntity
 8
Layer8
100
AcDbLine
 39
0.25
 370
106
 10
119.2728
 20
165.199527832031
 30
0.0
 11
120.5358
 21
163.011527832031
 31
0.0
 0
LINE
 5
5A9
100
AcDbEntity
 8
Layer8
100
AcDbLine
 39
0.25
 370
106
 10
120.5358
 20
163.011527832031
 30
0.0
 11
129.5538
 21
168.109527832031
 31
0.0
 0
LINE
 5
5AA
100
AcDbEntity
 8
Layer8
100
AcDbLine
 39
0.25
 370
106
 10
136.4098
 20
168.109527832031
 30
0.0
 11
145.4068
 21
163.023527832031
 31
0.0
 0
LINE
 5
5AB
100
AcDbEntity
 8
Layer8
100
AcDbLine
 39
0.25
 370
106
 10
145.4068
 20
163.023527832031
 30
0.0
 11
146.6698
 21
165.213527832031
 31
0.0
 0
LINE
 5
5AC
100
AcDbEntity
 8
Layer8
100
AcDbLine
 39
0.25
 370
106
 10
146.6698
 20
165.213527832031
 30
0.0
 11
137.8918
 21
170.178527832031
 31
0.0
 0
LINE
 5
5AD
100
AcDbEntity
 8
Layer8
100
AcDbLine
 39
0.25
 370
106
 10
134.4638
 20
175.993527832031
 30
0.0
 11
134.4638
 21
186.043527832031
 31
0.0
 0
CIRCLE
 5
5AE
100
AcDbEntity
 8
Layer8
100
AcDbCircle
 39
0.25
 370
106
 10
159.5399
 20
156.620827832031
 30
0.0
 40
2.22174999999999
 370
106
 0
ARC
 5
5AF
100
AcDbEntity
 8
Layer8
100
AcDbCircle
 39
0.25
 370
106
 10
132.982099999999
 20
161.36009267578
 30
0.0
 40
7.55063050329887
100
AcDbArc
 50
62.9311192741134
 51
117.068880725884
 0
ARC
 5
5B0
100
AcDbEntity
 8
Layer8
100
AcDbCircle
 39
0.25
 370
106
 10
141.702354880368
 20
176.322532162856
 30
0.0
 40
7.24242458454925
100
AcDbArc
 50
-177.278303852889
 51
-121.640194444522
 0
LINE
 5
5B1
100
AcDbEntity
 8
Layer8
100
AcDbLine
 39
0.25
 370
106
 10
134.4681
 20
186.043627832031
 30
0.0
 11
131.5041
 21
186.043627832031
 31
0.0
 0
LINE
 5
5B2
100
AcDbEntity
 8
Layer8
100
AcDbLine
 39
0.25
 370
106
 10
131.5041
 20
186.043627832031
 30
0.0
 11
131.5041
 21
175.978627832031
 31
0.0
 0
LINE
 5
5B3
100
AcDbEntity
 8
Layer8
100
AcDbLine
 39
0.25
 370
106
 10
131.5041
 20
175.978627832031
 30
0.0
 11
131.232209375
 21
174.317440332031
 31
0.0
 0
LINE
 5
5B4
100
AcDbEntity
 8
Layer8
100
AcDbLine
 39
0.25
 370
106
 10
131.232209375
 20
174.317440332031
 30
0.0
 11
130.492225
 21
172.665627832031
 31
0.0
 0
LINE
 5
5B5
100
AcDbEntity
 8
Layer8
100
AcDbLine
 39
0.25
 370
106
 10
130.492225
 20
172.665627832031
 30
0.0
 11
129.397678125
 21
171.214815332031
 31
0.0
 0
LINE
 5
5B6
100
AcDbEntity
 8
Layer8
100
AcDbLine
 39
0.25
 370
106
 10
129.397678125
 20
171.214815332031
 30
0.0
 11
128.0621
 21
170.156627832031
 31
0.0
 0
LINE
 5
5B7
100
AcDbEntity
 8
Layer8
100
AcDbLine
 39
0.25
 370
106
 10
128.0621
 20
170.156627832031
 30
0.0
 11
119.2381
 21
165.168627832031
 31
0.0
 0
LINE
 5
5B8
100
AcDbEntity
 8
Layer8
100
AcDbLine
 39
0.25
 370
106
 10
119.2381
 20
165.168627832031
 30
0.0
 11
120.5021
 21
162.976627832031
 31
0.0
 0
LINE
 5
5B9
100
AcDbEntity
 8
Layer8
100
AcDbLine
 39
0.25
 370
106
 10
120.5021
 20
162.976627832031
 30
0.0
 11
129.5461
 21
168.083627832031
 31
0.0
 0
LINE
 5
5BA
100
AcDbEntity
 8
Layer8
100
AcDbLine
 39
0.25
 370
106
 10
136.4181
 20
168.083627832031
 30
0.0
 11
145.4401
 21
162.989627832031
 31
0.0
 0
LINE
 5
5BB
100
AcDbEntity
 8
Layer8
100
AcDbLine
 39
0.25
 370
106
 10
145.4401
 20
162.989627832031
 30
0.0
 11
146.7051
 21
165.182627832031
 31
0.0
 0
LINE
 5
5BC
100
AcDbEntity
 8
Layer8
100
AcDbLine
 39
0.25
 370
106
 10
146.7051
 20
165.182627832031
 30
0.0
 11
137.9031
 21
170.156627832031
 31
0.0
 0
LINE
 5
5BD
100
AcDbEntity
 8
Layer8
100
AcDbLine
 39
0.25
 370
106
 10
134.4681
 20
175.978627832031
 30
0.0
 11
134.4681
 21
186.043627832031
 31
0.0
 0
CIRCLE
 5
5BE
100
AcDbEntity
 8
Layer8
100
AcDbCircle
 39
0.25
 370
106
 10
159.5335
 20
156.629827832031
 30
0.0
 40
2.22725
 370
106
 0
ARC
 5
5BF
100
AcDbEntity
 8
Layer8
100
AcDbCircle
 39
0.25
 370
106
 10
159.507582514388
 20
156.622799437671
 30
0.0
 40
3.0247731337941
100
AcDbArc
 50
-169.148206347236
 51
121.950805661841
 0
LINE
 5
5C0
100
AcDbEntity
 8
Layer8
100
AcDbLine
 39
0.25
 370
106
 10
157.9069
 20
159.189327832031
 30
0.0
 11
156.475728125
 21
159.640765332031
 31
0.0
 0
LINE
 5
5C1
100
AcDbEntity
 8
Layer8
100
AcDbLine
 39
0.25
 370
106
 10
156.475728125
 20
159.640765332031
 30
0.0
 11
146.9149
 21
164.976327832031
 31
0.0
 0
LINE
 5
5C2
100
AcDbEntity
 8
Layer8
100
AcDbLine
 39
0.25
 370
106
 10
146.9149
 20
164.976327832031
 30
0.0
 11
145.6589
 21
162.806327832031
 31
0.0
 0
LINE
 5
5C3
100
AcDbEntity
 8
Layer8
100
AcDbLine
 39
0.25
 370
106
 10
145.6589
 20
162.806327832031
 30
0.0
 11
154.5959
 21
157.782327832031
 31
0.0
 0
LINE
 5
5C4
100
AcDbEntity
 8
Layer8
100
AcDbLine
 39
0.25
 370
106
 10
154.5959
 20
157.782327832031
 30
0.0
 11
155.6099
 21
157.014077832031
 31
0.0
 0
LINE
 5
5C5
100
AcDbEntity
 8
Layer8
100
AcDbLine
 39
0.25
 370
106
 10
155.6099
 20
157.014077832031
 30
0.0
 11
156.5369
 21
156.053327832031
 31
0.0
 0
CIRCLE
 5
5C6
100
AcDbEntity
 8
Layer8
100
AcDbCircle
 39
0.25
 370
106
 10
106.6985203125
 20
156.126209082031
 30
0.0
 40
2.20555078124998
 370
106
 0
ARC
 5
5C7
100
AcDbEntity
 8
Layer8
100
AcDbCircle
 39
0.25
 370
106
 10
159.504853116975
 20
156.631232272147
 30
0.0
 40
3.0357321073569
100
AcDbArc
 50
-169.189144453383
 51
121.95906316592
 0
LINE
 5
5C8
100
AcDbEntity
 8
Layer8
100
AcDbLine
 39
0.25
 370
106
 10
157.898
 20
159.206827832031
 30
0.0
 11
156.46215625
 21
159.659234082031
 31
0.0
 0
LINE
 5
5C9
100
AcDbEntity
 8
Layer8
100
AcDbLine
 39
0.25
 370
106
 10
156.46215625
 20
159.659234082031
 30
0.0
 11
146.883
 21
165.008827832031
 31
0.0
 0
LINE
 5
5CA
100
AcDbEntity
 8
Layer8
100
AcDbLine
 39
0.25
 370
106
 10
146.883
 20
165.008827832031
 30
0.0
 11
145.622
 21
162.833827832031
 31
0.0
 0
LINE
 5
5CB
100
AcDbEntity
 8
Layer8
100
AcDbLine
 39
0.25
 370
106
 10
145.622
 20
162.833827832031
 30
0.0
 11
154.579
 21
157.795827832031
 31
0.0
 0
LINE
 5
5CC
100
AcDbEntity
 8
Layer8
100
AcDbLine
 39
0.25
 370
106
 10
154.579
 20
157.795827832031
 30
0.0
 11
155.594875
 21
157.024202832031
 31
0.0
 0
LINE
 5
5CD
100
AcDbEntity
 8
Layer8
100
AcDbLine
 39
0.25
 370
106
 10
155.594875
 20
157.024202832031
 30
0.0
 11
156.523
 21
156.061827832031
 31
0.0
 0
CIRCLE
 5
5CE
100
AcDbEntity
 8
Layer8
100
AcDbCircle
 39
0.25
 370
106
 10
106.705234375
 20
156.134990332031
 30
0.0
 40
2.2109375
 370
106
 0
ARC
 5
5CF
100
AcDbEntity
 8
Layer8
100
AcDbCircle
 39
0.25
 370
106
 10
106.689905727689
 20
156.102252055934
 30
0.0
 40
3.06290481912015
100
AcDbArc
 50
128.318035643213
 51
2.78227492004407
 0
ARC
 5
5D0
100
AcDbEntity
 8
Layer8
100
AcDbCircle
 39
0.25
 370
106
 10
106.690517016489
 20
156.06384310647
 30
0.0
 40
3.09350678649605
100
AcDbArc
 50
66.0924082467152
 51
127.885837974282
 0
LINE
 5
5D1
100
AcDbEntity
 8
Layer8
100
AcDbLine
 39
0.25
 370
106
 10
110.1782
 20
159.804927832031
 30
0.0
 11
107.9442
 21
158.891927832031
 31
0.0
 0
LINE
 5
5D2
100
AcDbEntity
 8
Layer8
100
AcDbLine
 39
0.25
 370
106
 10
109.7492
 20
156.250927832031
 30
0.0
 11
111.2292
 21
157.507927832031
 31
0.0
 0
LINE
 5
5D3
100
AcDbEntity
 8
Layer8
100
AcDbLine
 39
0.25
 370
106
 10
111.2292
 20
157.507927832031
 30
0.0
 11
120.2872
 21
162.817927832031
 31
0.0
 0
LINE
 5
5D4
100
AcDbEntity
 8
Layer8
100
AcDbLine
 39
0.25
 370
106
 10
120.2872
 20
162.817927832031
 30
0.0
 11
119.0262
 21
164.986927832031
 31
0.0
 0
LINE
 5
5D5
100
AcDbEntity
 8
Layer8
100
AcDbLine
 39
0.25
 370
106
 10
119.0262
 20
164.986927832031
 30
0.0
 11
110.1782
 21
159.804927832031
 31
0.0
 0
LWPOLYLINE
 5
5D6
100
AcDbEntity
 8
Layer8
100
AcDbPolyline
 39
0.25
 370
106
 90
5              
 70
 1
 43
0.0
 10
134.382
 20
274.851027832031
 10
131.589
 20
274.851027832031
 10
131.589
 20
287.636027832031
 10
134.382
 20
287.636027832031
 10
134.382
 20
274.851027832031
 0
LWPOLYLINE
 5
5D7
100
AcDbEntity
 8
Layer8
100
AcDbPolyline
 39
0.25
 370
106
 90
5              
 70
 1
 43
0.0
 10
134.382
 20
274.851027832031
 10
131.589
 20
274.851027832031
 10
131.589
 20
287.636027832031
 10
134.382
 20
287.636027832031
 10
134.382
 20
274.851027832031
 0
ARC
 5
5D8
100
AcDbEntity
 8
Layer8
100
AcDbCircle
 39
0.25
 370
106
 10
106.697795124347
 20
156.116090132598
 30
0.0
 40
3.06705612292613
100
AcDbArc
 50
128.390987646908
 51
2.67867212368019
 0
ARC
 5
5D9
100
AcDbEntity
 8
Layer8
100
AcDbCircle
 39
0.25
 370
106
 10
106.696867739213
 20
156.078064088024
 30
0.0
 40
3.09638035417512
100
AcDbArc
 50
66.0765237849247
 51
127.940556169127
 0
LINE
 5
5DA
100
AcDbEntity
 8
Layer8
100
AcDbLine
 39
0.25
 370
106
 10
110.1925
 20
159.824427832031
 30
0.0
 11
107.9525
 21
158.908427832031
 31
0.0
 0
LINE
 5
5DB
100
AcDbEntity
 8
Layer8
100
AcDbLine
 39
0.25
 370
106
 10
109.7615
 20
156.259427832031
 30
0.0
 11
111.2455
 21
157.520427832031
 31
0.0
 0
LINE
 5
5DC
100
AcDbEntity
 8
Layer8
100
AcDbLine
 39
0.25
 370
106
 10
111.2455
 20
157.520427832031
 30
0.0
 11
120.3225
 21
162.846427832031
 31
0.0
 0
LINE
 5
5DD
100
AcDbEntity
 8
Layer8
100
AcDbLine
 39
0.25
 370
106
 10
120.3225
 20
162.846427832031
 30
0.0
 11
119.0575
 21
165.020427832031
 31
0.0
 0
LINE
 5
5DE
100
AcDbEntity
 8
Layer8
100
AcDbLine
 39
0.25
 370
106
 10
119.0575
 20
165.020427832031
 30
0.0
 11
110.1925
 21
159.824427832031
 31
0.0
 0
ARC
 5
5DF
100
AcDbEntity
 8
Layer8
100
AcDbCircle
 39
0.25
 370
106
 10
132.9808
 20
312.474690655295
 30
0.0
 40
7.53240131369778
100
AcDbArc
 50
-117.062861978786
 51
-62.9371380212173
 0
ARC
 5
5E0
100
AcDbEntity
 8
Layer8
100
AcDbCircle
 39
0.25
 370
106
 10
141.696980351362
 20
297.536797014128
 30
0.0
 40
7.24155802972492
100
AcDbArc
 50
121.699506173765
 51
177.243707253958
 0
LINE
 5
5E1
100
AcDbEntity
 8
Layer8
100
AcDbLine
 39
0.25
 370
106
 10
134.4638
 20
287.835027832031
 30
0.0
 11
131.5078
 21
287.835027832031
 31
0.0
 0
LINE
 5
5E2
100
AcDbEntity
 8
Layer8
100
AcDbLine
 39
0.25
 370
106
 10
131.5078
 20
287.835027832031
 30
0.0
 11
131.5078
 21
297.885027832031
 31
0.0
 0
LINE
 5
5E3
100
AcDbEntity
 8
Layer8
100
AcDbLine
 39
0.25
 370
106
 10
131.5078
 20
297.885027832031
 30
0.0
 11
131.23676875
 21
299.542559082031
 31
0.0
 0
LINE
 5
5E4
100
AcDbEntity
 8
Layer8
100
AcDbLine
 39
0.25
 370
106
 10
131.23676875
 20
299.542559082031
 30
0.0
 11
130.49905
 21
301.191277832031
 31
0.0
 0
LINE
 5
5E5
100
AcDbEntity
 8
Layer8
100
AcDbLine
 39
0.25
 370
106
 10
130.49905
 20
301.191277832031
 30
0.0
 11
129.40770625
 21
302.640121582031
 31
0.0
 0
LINE
 5
5E6
100
AcDbEntity
 8
Layer8
100
AcDbLine
 39
0.25
 370
106
 10
129.40770625
 20
302.640121582031
 30
0.0
 11
128.0758
 21
303.698027832031
 31
0.0
 0
LINE
 5
5E7
100
AcDbEntity
 8
Layer8
100
AcDbLine
 39
0.25
 370
106
 10
128.0758
 20
303.698027832031
 30
0.0
 11
119.2728
 21
308.677027832031
 31
0.0
 0
LINE
 5
5E8
100
AcDbEntity
 8
Layer8
100
AcDbLine
 39
0.25
 370
106
 10
119.2728
 20
308.677027832031
 30
0.0
 11
120.5358
 21
310.867027832031
 31
0.0
 0
LINE
 5
5E9
100
AcDbEntity
 8
Layer8
100
AcDbLine
 39
0.25
 370
106
 10
120.5358
 20
310.867027832031
 30
0.0
 11
129.5538
 21
305.767027832031
 31
0.0
 0
LINE
 5
5EA
100
AcDbEntity
 8
Layer8
100
AcDbLine
 39
0.25
 370
106
 10
136.4078
 20
305.767027832031
 30
0.0
 11
145.4068
 21
310.853027832031
 31
0.0
 0
LINE
 5
5EB
100
AcDbEntity
 8
Layer8
100
AcDbLine
 39
0.25
 370
106
 10
145.4068
 20
310.853027832031
 30
0.0
 11
146.6698
 21
308.665027832031
 31
0.0
 0
LINE
 5
5EC
100
AcDbEntity
 8
Layer8
100
AcDbLine
 39
0.25
 370
106
 10
146.6698
 20
308.665027832031
 30
0.0
 11
137.8918
 21
303.698027832031
 31
0.0
 0
LINE
 5
5ED
100
AcDbEntity
 8
Layer8
100
AcDbLine
 39
0.25
 370
106
 10
134.4638
 20
297.885027832031
 30
0.0
 11
134.4638
 21
287.835027832031
 31
0.0
 0
CIRCLE
 5
5EE
100
AcDbEntity
 8
Layer8
100
AcDbCircle
 39
0.25
 370
106
 10
159.5394
 20
317.254427832031
 30
0.0
 40
2.22175000000001
 370
106
 0
ARC
 5
5EF
100
AcDbEntity
 8
Layer8
100
AcDbCircle
 39
0.25
 370
106
 10
132.9821
 20
312.523115307204
 30
0.0
 40
7.55673286321332
100
AcDbArc
 50
-117.045238079889
 51
-62.9547619201228
 0
ARC
 5
5F0
100
AcDbEntity
 8
Layer8
100
AcDbCircle
 39
0.25
 370
106
 10
141.71246766596
 20
297.549856922968
 30
0.0
 40
7.25281135371661
100
AcDbArc
 50
121.683482565059
 51
177.23501573237
 0
LINE
 5
5F1
100
AcDbEntity
 8
Layer8
100
AcDbLine
 39
0.25
 370
106
 10
134.4681
 20
287.834727832031
 30
0.0
 11
131.5041
 21
287.834727832031
 31
0.0
 0
LINE
 5
5F2
100
AcDbEntity
 8
Layer8
100
AcDbLine
 39
0.25
 370
106
 10
131.5041
 20
287.834727832031
 30
0.0
 11
131.5041
 21
297.899727832031
 31
0.0
 0
LINE
 5
5F3
100
AcDbEntity
 8
Layer8
100
AcDbLine
 39
0.25
 370
106
 10
131.5041
 20
297.899727832031
 30
0.0
 11
131.232209375
 21
299.560071582031
 31
0.0
 0
LINE
 5
5F4
100
AcDbEntity
 8
Layer8
100
AcDbLine
 39
0.25
 370
106
 10
131.232209375
 20
299.560071582031
 30
0.0
 11
130.492225
 21
301.211227832031
 31
0.0
 0
LINE
 5
5F5
100
AcDbEntity
 8
Layer8
100
AcDbLine
 39
0.25
 370
106
 10
130.492225
 20
301.211227832031
 30
0.0
 11
129.397678125
 21
302.662134082031
 31
0.0
 0
LINE
 5
5F6
100
AcDbEntity
 8
Layer8
100
AcDbLine
 39
0.25
 370
106
 10
129.397678125
 20
302.662134082031
 30
0.0
 11
128.0621
 21
303.721727832031
 31
0.0
 0
LINE
 5
5F7
100
AcDbEntity
 8
Layer8
100
AcDbLine
 39
0.25
 370
106
 10
128.0621
 20
303.721727832031
 30
0.0
 11
119.2381
 21
308.707727832031
 31
0.0
 0
LINE
 5
5F8
100
AcDbEntity
 8
Layer8
100
AcDbLine
 39
0.25
 370
106
 10
119.2381
 20
308.707727832031
 30
0.0
 11
120.5021
 21
310.901727832031
 31
0.0
 0
LINE
 5
5F9
100
AcDbEntity
 8
Layer8
100
AcDbLine
 39
0.25
 370
106
 10
120.5021
 20
310.901727832031
 30
0.0
 11
129.5461
 21
305.792727832031
 31
0.0
 0
LINE
 5
5FA
100
AcDbEntity
 8
Layer8
100
AcDbLine
 39
0.25
 370
106
 10
136.4181
 20
305.792727832031
 30
0.0
 11
145.4401
 21
310.885727832031
 31
0.0
 0
LINE
 5
5FB
100
AcDbEntity
 8
Layer8
100
AcDbLine
 39
0.25
 370
106
 10
145.4401
 20
310.885727832031
 30
0.0
 11
146.7051
 21
308.695727832031
 31
0.0
 0
LINE
 5
5FC
100
AcDbEntity
 8
Layer8
100
AcDbLine
 39
0.25
 370
106
 10
146.7051
 20
308.695727832031
 30
0.0
 11
137.9031
 21
303.721727832031
 31
0.0
 0
LINE
 5
5FD
100
AcDbEntity
 8
Layer8
100
AcDbLine
 39
0.25
 370
106
 10
134.4681
 20
297.899727832031
 30
0.0
 11
134.4681
 21
287.834727832031
 31
0.0
 0
CIRCLE
 5
5FE
100
AcDbEntity
 8
Layer8
100
AcDbCircle
 39
0.25
 370
106
 10
159.5331
 20
317.245027832031
 30
0.0
 40
2.22725
 370
106
 0
ARC
 5
5FF
100
AcDbEntity
 8
Layer8
100
AcDbCircle
 39
0.25
 370
106
 10
159.557925950014
 20
317.278797858066
 30
0.0
 40
3.06995264380735
100
AcDbArc
 50
-122.545189852058
 51
169.809705033826
 0
LINE
 5
600
100
AcDbEntity
 8
Layer8
100
AcDbLine
 39
0.25
 370
106
 10
156.5364
 20
317.821927832031
 30
0.0
 11
155.089790625
 21
316.428255957031
 31
0.0
 0
LINE
 5
601
100
AcDbEntity
 8
Layer8
100
AcDbLine
 39
0.25
 370
106
 10
155.089790625
 20
316.428255957031
 30
0.0
 11
145.6574
 21
311.067927832031
 31
0.0
 0
LINE
 5
602
100
AcDbEntity
 8
Layer8
100
AcDbLine
 39
0.25
 370
106
 10
145.6574
 20
311.067927832031
 30
0.0
 11
146.9154
 21
308.902927832031
 31
0.0
 0
LINE
 5
603
100
AcDbEntity
 8
Layer8
100
AcDbLine
 39
0.25
 370
106
 10
146.9154
 20
308.902927832031
 30
0.0
 11
156.476071875
 21
314.235365332031
 31
0.0
 0
LINE
 5
604
100
AcDbEntity
 8
Layer8
100
AcDbLine
 39
0.25
 370
106
 10
156.476071875
 20
314.235365332031
 30
0.0
 11
157.9064
 21
314.690927832031
 31
0.0
 0
CIRCLE
 5
605
100
AcDbEntity
 8
Layer8
100
AcDbCircle
 39
0.25
 370
106
 10
106.6985609375
 20
317.750876269531
 30
0.0
 40
2.2051015625
 370
106
 0
ARC
 5
606
100
AcDbEntity
 8
Layer8
100
AcDbCircle
 39
0.25
 370
106
 10
159.554299580854
 20
317.270721535841
 30
0.0
 40
3.08017397115935
100
AcDbArc
 50
-122.538016669375
 51
169.821649641753
 0
LINE
 5
607
100
AcDbEntity
 8
Layer8
100
AcDbLine
 39
0.25
 370
106
 10
156.5226
 20
317.815027832031
 30
0.0
 11
155.074584375
 21
316.416418457031
 31
0.0
 0
LINE
 5
608
100
AcDbEntity
 8
Layer8
100
AcDbLine
 39
0.25
 370
106
 10
155.074584375
 20
316.416418457031
 30
0.0
 11
145.6216
 21
311.041027832031
 31
0.0
 0
LINE
 5
609
100
AcDbEntity
 8
Layer8
100
AcDbLine
 39
0.25
 370
106
 10
145.6216
 20
311.041027832031
 30
0.0
 11
146.8826
 21
308.869027832031
 31
0.0
 0
LINE
 5
60A
100
AcDbEntity
 8
Layer8
100
AcDbLine
 39
0.25
 370
106
 10
146.8826
 20
308.869027832031
 30
0.0
 11
156.4620375
 21
314.218168457031
 31
0.0
 0
LINE
 5
60B
100
AcDbEntity
 8
Layer8
100
AcDbLine
 39
0.25
 370
106
 10
156.4620375
 20
314.218168457031
 30
0.0
 11
157.8976
 21
314.674027832031
 31
0.0
 0
CIRCLE
 5
60C
100
AcDbEntity
 8
Layer8
100
AcDbCircle
 39
0.25
 370
106
 10
106.705253125
 20
317.741721582031
 30
0.0
 40
2.21034375000001
 370
106
 0
ARC
 5
60D
100
AcDbEntity
 8
Layer8
100
AcDbCircle
 39
0.25
 370
106
 10
106.714175799902
 20
317.764297460983
 30
0.0
 40
3.03815476914785
100
AcDbArc
 50
-2.64247378864497
 51
-66.1197728845938
 0
LINE
 5
60E
100
AcDbEntity
 8
Layer8
100
AcDbLine
 39
0.25
 370
106
 10
111.2291
 20
316.366227832031
 30
0.0
 11
109.7491
 21
317.624227832031
 31
0.0
 0
LINE
 5
60F
100
AcDbEntity
 8
Layer8
100
AcDbLine
 39
0.25
 370
106
 10
107.9441
 20
314.986227832031
 30
0.0
 11
109.669240625
 21
314.342930957031
 31
0.0
 0
LINE
 5
610
100
AcDbEntity
 8
Layer8
100
AcDbLine
 39
0.25
 370
106
 10
109.669240625
 20
314.342930957031
 30
0.0
 11
119.0261
 21
308.892227832031
 31
0.0
 0
LINE
 5
611
100
AcDbEntity
 8
Layer8
100
AcDbLine
 39
0.25
 370
106
 10
119.0261
 20
308.892227832031
 30
0.0
 11
120.2851
 21
311.057227832031
 31
0.0
 0
LINE
 5
612
100
AcDbEntity
 8
Layer8
100
AcDbLine
 39
0.25
 370
106
 10
120.2851
 20
311.057227832031
 30
0.0
 11
111.2291
 21
316.366227832031
 31
0.0
 0
ARC
 5
613
100
AcDbEntity
 8
Layer8
100
AcDbCircle
 39
0.25
 370
106
 10
106.720426011502
 20
317.753798702137
 30
0.0
 40
3.04655440866415
100
AcDbArc
 50
-2.61826258011679
 51
-66.1393229194004
 0
LINE
 5
614
100
AcDbEntity
 8
Layer8
100
AcDbLine
 39
0.25
 370
106
 10
111.2458
 20
316.353627832031
 30
0.0
 11
109.7638
 21
317.614627832031
 31
0.0
 0
LINE
 5
615
100
AcDbEntity
 8
Layer8
100
AcDbLine
 39
0.25
 370
106
 10
107.9528
 20
314.967627832031
 30
0.0
 11
109.681596875
 21
314.322659082031
 31
0.0
 0
LINE
 5
616
100
AcDbEntity
 8
Layer8
100
AcDbLine
 39
0.25
 370
106
 10
109.681596875
 20
314.322659082031
 30
0.0
 11
119.0578
 21
308.855627832031
 31
0.0
 0
LINE
 5
617
100
AcDbEntity
 8
Layer8
100
AcDbLine
 39
0.25
 370
106
 10
119.0578
 20
308.855627832031
 30
0.0
 11
120.3208
 21
311.027627832031
 31
0.0
 0
LINE
 5
618
100
AcDbEntity
 8
Layer8
100
AcDbLine
 39
0.25
 370
106
 10
120.3208
 20
311.027627832031
 30
0.0
 11
111.2458
 21
316.353627832031
 31
0.0
 0
ARC
 5
619
100
AcDbEntity
 8
Layer8
100
AcDbCircle
 39
0.25
 370
106
 10
115.090084674992
 20
220.00583417491
 30
0.0
 40
7.25249184881287
100
AcDbArc
 50
-177.240941041271
 51
-121.766004017224
 0
ARC
 5
61A
100
AcDbEntity
 8
Layer8
100
AcDbCircle
 39
0.25
 370
106
 10
106.193417351757
 20
205.627879575394
 30
0.0
 40
7.11929643857499
100
AcDbArc
 50
59.6375187803889
 51
116.345453403032
 0
LINE
 5
61B
100
AcDbEntity
 8
Layer8
100
AcDbLine
 39
0.25
 370
106
 10
107.846
 20
219.656727832031
 30
0.0
 11
107.846
 21
230.642727832031
 31
0.0
 0
LINE
 5
61C
100
AcDbEntity
 8
Layer8
100
AcDbLine
 39
0.25
 370
106
 10
107.846
 20
230.642727832031
 30
0.0
 11
104.891
 21
230.642727832031
 31
0.0
 0
LINE
 5
61D
100
AcDbEntity
 8
Layer8
100
AcDbLine
 39
0.25
 370
106
 10
104.891
 20
230.642727832031
 30
0.0
 11
104.891
 21
219.656727832031
 31
0.0
 0
LINE
 5
61E
100
AcDbEntity
 8
Layer8
100
AcDbLine
 39
0.25
 370
106
 10
104.891
 20
219.656727832031
 30
0.0
 11
104.6061875
 21
218.018680957031
 31
0.0
 0
LINE
 5
61F
100
AcDbEntity
 8
Layer8
100
AcDbLine
 39
0.25
 370
106
 10
104.6061875
 20
218.018680957031
 30
0.0
 11
103.838
 21
216.414852832031
 31
0.0
 0
LINE
 5
620
100
AcDbEntity
 8
Layer8
100
AcDbLine
 39
0.25
 370
106
 10
103.838
 20
216.414852832031
 30
0.0
 11
102.7158125
 21
215.011462207031
 31
0.0
 0
LINE
 5
621
100
AcDbEntity
 8
Layer8
100
AcDbLine
 39
0.25
 370
106
 10
102.7158125
 20
215.011462207031
 30
0.0
 11
101.369
 21
213.974727832031
 31
0.0
 0
LINE
 5
622
100
AcDbEntity
 8
Layer8
100
AcDbLine
 39
0.25
 370
106
 10
101.369
 20
213.974727832031
 30
0.0
 11
93.405
 21
209.274727832031
 31
0.0
 0
LINE
 5
623
100
AcDbEntity
 8
Layer8
100
AcDbLine
 39
0.25
 370
106
 10
93.405
 20
209.274727832031
 30
0.0
 11
94.67
 21
207.086727832031
 31
0.0
 0
LINE
 5
624
100
AcDbEntity
 8
Layer8
100
AcDbLine
 39
0.25
 370
106
 10
94.67
 20
207.086727832031
 30
0.0
 11
103.034
 21
212.007727832031
 31
0.0
 0
LINE
 5
625
100
AcDbEntity
 8
Layer8
100
AcDbLine
 39
0.25
 370
106
 10
109.792
 20
211.770727832031
 30
0.0
 11
118.789
 21
206.681727832031
 31
0.0
 0
LINE
 5
626
100
AcDbEntity
 8
Layer8
100
AcDbLine
 39
0.25
 370
106
 10
118.789
 20
206.681727832031
 30
0.0
 11
120.051
 21
208.872727832031
 31
0.0
 0
LINE
 5
627
100
AcDbEntity
 8
Layer8
100
AcDbLine
 39
0.25
 370
106
 10
120.051
 20
208.872727832031
 30
0.0
 11
111.272
 21
213.839727832031
 31
0.0
 0
CIRCLE
 5
628
100
AcDbEntity
 8
Layer8
100
AcDbCircle
 39
0.25
 370
106
 10
106.49974375
 20
215.279610644531
 30
0.0
 40
2.56567578125001
 370
106
 0
CIRCLE
 5
629
100
AcDbEntity
 8
Layer8
100
AcDbCircle
 39
0.25
 370
106
 10
106.49974375
 20
215.279610644531
 30
0.0
 40
2.56567578125001
 370
106
 0
CIRCLE
 5
62A
100
AcDbEntity
 8
Layer8
100
AcDbCircle
 39
0.25
 370
106
 10
106.5542296875
 20
215.318171582031
 30
0.0
 40
2.20508984375002
 370
106
 0
ARC
 5
62B
100
AcDbEntity
 8
Layer8
100
AcDbCircle
 39
0.25
 370
106
 10
115.104746807807
 20
219.993931383682
 30
0.0
 40
7.26429710825893
100
AcDbArc
 50
-177.203598458404
 51
-121.732123715082
 0
ARC
 5
62C
100
AcDbEntity
 8
Layer8
100
AcDbCircle
 39
0.25
 370
106
 10
106.190411826339
 20
205.564241055114
 30
0.0
 40
7.15635618051917
100
AcDbArc
 50
59.7082638100244
 51
116.269073178353
 0
LINE
 5
62D
100
AcDbEntity
 8
Layer8
100
AcDbLine
 39
0.25
 370
106
 10
107.8491
 20
219.639527832031
 30
0.0
 11
107.8491
 21
230.643527832031
 31
0.0
 0
LINE
 5
62E
100
AcDbEntity
 8
Layer8
100
AcDbLine
 39
0.25
 370
106
 10
107.8491
 20
230.643527832031
 30
0.0
 11
104.8851
 21
230.643527832031
 31
0.0
 0
LINE
 5
62F
100
AcDbEntity
 8
Layer8
100
AcDbLine
 39
0.25
 370
106
 10
104.8851
 20
230.643527832031
 30
0.0
 11
104.8851
 21
219.639527832031
 31
0.0
 0
LINE
 5
630
100
AcDbEntity
 8
Layer8
100
AcDbLine
 39
0.25
 370
106
 10
104.8851
 20
219.639527832031
 30
0.0
 11
104.599584375
 21
217.999824707031
 31
0.0
 0
LINE
 5
631
100
AcDbEntity
 8
Layer8
100
AcDbLine
 39
0.25
 370
106
 10
104.599584375
 20
217.999824707031
 30
0.0
 11
103.829475
 21
216.394152832031
 31
0.0
 0
LINE
 5
632
100
AcDbEntity
 8
Layer8
100
AcDbLine
 39
0.25
 370
106
 10
103.829475
 20
216.394152832031
 30
0.0
 11
102.704428125
 21
214.988918457031
 31
0.0
 0
LINE
 5
633
100
AcDbEntity
 8
Layer8
100
AcDbLine
 39
0.25
 370
106
 10
102.704428125
 20
214.988918457031
 30
0.0
 11
101.3541
 21
213.950527832031
 31
0.0
 0
LINE
 5
634
100
AcDbEntity
 8
Layer8
100
AcDbLine
 39
0.25
 370
106
 10
101.3541
 20
213.950527832031
 30
0.0
 11
93.3711
 21
209.243527832031
 31
0.0
 0
LINE
 5
635
100
AcDbEntity
 8
Layer8
100
AcDbLine
 39
0.25
 370
106
 10
93.3711
 20
209.243527832031
 30
0.0
 11
94.6381
 21
207.054527832031
 31
0.0
 0
LINE
 5
636
100
AcDbEntity
 8
Layer8
100
AcDbLine
 39
0.25
 370
106
 10
94.6381
 20
207.054527832031
 30
0.0
 11
103.0231
 21
211.981527832031
 31
0.0
 0
LINE
 5
637
100
AcDbEntity
 8
Layer8
100
AcDbLine
 39
0.25
 370
106
 10
109.8001
 20
211.743527832031
 30
0.0
 11
118.8211
 21
206.648527832031
 31
0.0
 0
LINE
 5
638
100
AcDbEntity
 8
Layer8
100
AcDbLine
 39
0.25
 370
106
 10
118.8211
 20
206.648527832031
 30
0.0
 11
120.0861
 21
208.841527832031
 31
0.0
 0
LINE
 5
639
100
AcDbEntity
 8
Layer8
100
AcDbLine
 39
0.25
 370
106
 10
120.0861
 20
208.841527832031
 30
0.0
 11
111.2841
 21
213.815527832031
 31
0.0
 0
CIRCLE
 5
63A
100
AcDbEntity
 8
Layer8
100
AcDbCircle
 39
0.25
 370
106
 10
106.560759375
 20
215.326771582031
 30
0.0
 40
2.21019531249999
 370
106
 0
ARC
 5
63B
100
AcDbEntity
 8
Layer8
100
AcDbCircle
 39
0.25
 370
106
 10
106.559687454202
 20
215.313860749225
 30
0.0
 40
3.04504752255837
100
AcDbArc
 50
71.1344308297596
 51
0.968453538543578
 0
LINE
 5
63C
100
AcDbEntity
 8
Layer8
100
AcDbLine
 39
0.25
 370
106
 10
109.6043
 20
215.365327832031
 30
0.0
 11
110.717940625
 21
216.426687207031
 31
0.0
 0
LINE
 5
63D
100
AcDbEntity
 8
Layer8
100
AcDbLine
 39
0.25
 370
106
 10
110.717940625
 20
216.426687207031
 30
0.0
 11
120.1553
 21
221.986327832031
 31
0.0
 0
LINE
 5
63E
100
AcDbEntity
 8
Layer8
100
AcDbLine
 39
0.25
 370
106
 10
120.1553
 20
221.986327832031
 30
0.0
 11
118.8993
 21
224.156327832031
 31
0.0
 0
LINE
 5
63F
100
AcDbEntity
 8
Layer8
100
AcDbLine
 39
0.25
 370
106
 10
118.8993
 20
224.156327832031
 30
0.0
 11
109.50245625
 21
218.731734082031
 31
0.0
 0
LINE
 5
640
100
AcDbEntity
 8
Layer8
100
AcDbLine
 39
0.25
 370
106
 10
109.50245625
 20
218.731734082031
 30
0.0
 11
107.5443
 21
218.195327832031
 31
0.0
 0
ARC
 5
641
100
AcDbEntity
 8
Layer8
100
AcDbCircle
 39
0.25
 370
106
 10
106.569197016294
 20
215.329551729395
 30
0.0
 40
3.04703346478326
100
AcDbArc
 50
71.1652625420198
 51
0.843871350155883
 0
LINE
 5
642
100
AcDbEntity
 8
Layer8
100
AcDbLine
 39
0.25
 370
106
 10
109.6159
 20
215.374427832031
 30
0.0
 11
110.73280625
 21
216.438459082031
 31
0.0
 0
LINE
 5
643
100
AcDbEntity
 8
Layer8
100
AcDbLine
 39
0.25
 370
106
 10
110.73280625
 20
216.438459082031
 30
0.0
 11
120.1899
 21
222.016427832031
 31
0.0
 0
LINE
 5
644
100
AcDbEntity
 8
Layer8
100
AcDbLine
 39
0.25
 370
106
 10
120.1899
 20
222.016427832031
 30
0.0
 11
118.9319
 21
224.190427832031
 31
0.0
 0
LINE
 5
645
100
AcDbEntity
 8
Layer8
100
AcDbLine
 39
0.25
 370
106
 10
118.9319
 20
224.190427832031
 30
0.0
 11
109.51455625
 21
218.750490332031
 31
0.0
 0
LINE
 5
646
100
AcDbEntity
 8
Layer8
100
AcDbLine
 39
0.25
 370
106
 10
109.51455625
 20
218.750490332031
 30
0.0
 11
107.5529
 21
218.213427832031
 31
0.0
 0
LINE
 5
647
100
AcDbEntity
 8
Layer8
100
AcDbLine
 39
0.25
 370
106
 10
120.3882
 20
222.171927832031
 30
0.0
 11
119.1412
 21
224.296927832031
 31
0.0
 0
LINE
 5
648
100
AcDbEntity
 8
Layer8
100
AcDbLine
 39
0.25
 370
106
 10
119.1412
 20
224.296927832031
 30
0.0
 11
125.4702
 21
227.963927832031
 31
0.0
 0
LINE
 5
649
100
AcDbEntity
 8
Layer8
100
AcDbLine
 39
0.25
 370
106
 10
125.4702
 20
227.963927832031
 30
0.0
 11
125.969325
 21
226.833302832031
 31
0.0
 0
LINE
 5
64A
100
AcDbEntity
 8
Layer8
100
AcDbLine
 39
0.25
 370
106
 10
125.969325
 20
226.833302832031
 30
0.0
 11
126.6552
 21
225.812927832031
 31
0.0
 0
LINE
 5
64B
100
AcDbEntity
 8
Layer8
100
AcDbLine
 39
0.25
 370
106
 10
126.6552
 20
225.812927832031
 30
0.0
 11
120.3882
 21
222.171927832031
 31
0.0
 0
LINE
 5
64C
100
AcDbEntity
 8
Layer8
100
AcDbLine
 39
0.25
 370
106
 10
120.3534
 20
222.171027832031
 30
0.0
 11
119.1044
 21
224.315027832031
 31
0.0
 0
LINE
 5
64D
100
AcDbEntity
 8
Layer8
100
AcDbLine
 39
0.25
 370
106
 10
119.1044
 20
224.315027832031
 30
0.0
 11
125.4484
 21
228.008027832031
 31
0.0
 0
LINE
 5
64E
100
AcDbEntity
 8
Layer8
100
AcDbLine
 39
0.25
 370
106
 10
125.4484
 20
228.008027832031
 30
0.0
 11
125.947275
 21
226.869777832031
 31
0.0
 0
LINE
 5
64F
100
AcDbEntity
 8
Layer8
100
AcDbLine
 39
0.25
 370
106
 10
125.947275
 20
226.869777832031
 30
0.0
 11
126.6344
 21
225.841027832031
 31
0.0
 0
LINE
 5
650
100
AcDbEntity
 8
Layer8
100
AcDbLine
 39
0.25
 370
106
 10
126.6344
 20
225.841027832031
 30
0.0
 11
120.3534
 21
222.171027832031
 31
0.0
 0
ARC
 5
651
100
AcDbEntity
 8
Layer8
100
AcDbCircle
 39
0.25
 370
106
 10
140.995233889681
 20
264.907016551759
 30
0.0
 40
6.53448046532951
100
AcDbArc
 50
-178.794379329482
 51
-120.617448559851
 0
ARC
 5
652
100
AcDbEntity
 8
Layer8
100
AcDbCircle
 39
0.25
 370
106
 10
124.876508959687
 20
265.278368971655
 30
0.0
 40
6.69230207586603
100
AcDbArc
 50
-63.6090025005136
 51
-3.91426457670552
 0
ARC
 5
653
100
AcDbEntity
 8
Layer8
100
AcDbCircle
 39
0.25
 370
106
 10
132.7582
 20
250.515844808861
 30
0.0
 40
7.52440583999238
100
AcDbArc
 50
62.9060281821459
 51
117.093971817854
 0
LINE
 5
654
100
AcDbEntity
 8
Layer8
100
AcDbLine
 39
0.25
 370
106
 10
134.4622
 20
264.769527832031
 30
0.0
 11
134.4622
 21
274.659527832031
 31
0.0
 0
LINE
 5
655
100
AcDbEntity
 8
Layer8
100
AcDbLine
 39
0.25
 370
106
 10
134.4622
 20
274.659527832031
 30
0.0
 11
131.5052
 21
274.659527832031
 31
0.0
 0
LINE
 5
656
100
AcDbEntity
 8
Layer8
100
AcDbLine
 39
0.25
 370
106
 10
131.5052
 20
274.659527832031
 30
0.0
 11
131.5532
 21
264.821527832031
 31
0.0
 0
LINE
 5
657
100
AcDbEntity
 8
Layer8
100
AcDbLine
 39
0.25
 370
106
 10
127.8512
 20
259.283527832031
 30
0.0
 11
119.0502
 21
254.302527832031
 31
0.0
 0
LINE
 5
658
100
AcDbEntity
 8
Layer8
100
AcDbLine
 39
0.25
 370
106
 10
119.0502
 20
254.302527832031
 30
0.0
 11
120.3142
 21
252.116527832031
 31
0.0
 0
LINE
 5
659
100
AcDbEntity
 8
Layer8
100
AcDbLine
 39
0.25
 370
106
 10
120.3142
 20
252.116527832031
 30
0.0
 11
129.3312
 21
257.214527832031
 31
0.0
 0
LINE
 5
65A
100
AcDbEntity
 8
Layer8
100
AcDbLine
 39
0.25
 370
106
 10
136.1852
 20
257.214527832031
 30
0.0
 11
145.1862
 21
252.128527832031
 31
0.0
 0
LINE
 5
65B
100
AcDbEntity
 8
Layer8
100
AcDbLine
 39
0.25
 370
106
 10
145.1862
 20
252.128527832031
 30
0.0
 11
146.4472
 21
254.318527832031
 31
0.0
 0
LINE
 5
65C
100
AcDbEntity
 8
Layer8
100
AcDbLine
 39
0.25
 370
106
 10
146.4472
 20
254.318527832031
 30
0.0
 11
137.6672
 21
259.283527832031
 31
0.0
 0
CIRCLE
 5
65D
100
AcDbEntity
 8
Layer8
100
AcDbCircle
 39
0.25
 370
106
 10
132.9824
 20
260.270427832031
 30
0.0
 40
2.58474999999999
 370
106
 0
CIRCLE
 5
65E
100
AcDbEntity
 8
Layer8
100
AcDbCircle
 39
0.25
 370
106
 10
132.9824
 20
260.270427832031
 30
0.0
 40
2.58474999999999
 370
106
 0
CIRCLE
 5
65F
100
AcDbEntity
 8
Layer8
100
AcDbCircle
 39
0.25
 370
106
 10
132.9831
 20
260.205327832031
 30
0.0
 40
2.21250000000001
 370
106
 0
ARC
 5
660
100
AcDbEntity
 8
Layer8
100
AcDbCircle
 39
0.25
 370
106
 10
141.012113363612
 20
264.896575338973
 30
0.0
 40
6.54743710333526
100
AcDbArc
 50
-178.76386534981
 51
-120.589800438902
 0
ARC
 5
661
100
AcDbEntity
 8
Layer8
100
AcDbCircle
 39
0.25
 370
106
 10
124.865220283145
 20
265.264964753447
 30
0.0
 40
6.70076263676683
100
AcDbArc
 50
-63.6516818133377
 51
-3.93327644145591
 0
ARC
 5
662
100
AcDbEntity
 8
Layer8
100
AcDbCircle
 39
0.25
 370
106
 10
132.7582
 20
250.45603168055
 30
0.0
 40
7.55888751545143
100
AcDbArc
 50
62.9545892160826
 51
117.045410783922
 0
LINE
 5
663
100
AcDbEntity
 8
Layer8
100
AcDbLine
 39
0.25
 370
106
 10
134.4662
 20
264.755327832031
 30
0.0
 11
134.4662
 21
274.659327832031
 31
0.0
 0
LINE
 5
664
100
AcDbEntity
 8
Layer8
100
AcDbLine
 39
0.25
 370
106
 10
134.4662
 20
274.659327832031
 30
0.0
 11
131.5002
 21
274.659327832031
 31
0.0
 0
LINE
 5
665
100
AcDbEntity
 8
Layer8
100
AcDbLine
 39
0.25
 370
106
 10
131.5002
 20
274.659327832031
 30
0.0
 11
131.5502
 21
264.805327832031
 31
0.0
 0
LINE
 5
666
100
AcDbEntity
 8
Layer8
100
AcDbLine
 39
0.25
 370
106
 10
127.8392
 20
259.260327832031
 30
0.0
 11
119.0132
 21
254.272327832031
 31
0.0
 0
LINE
 5
667
100
AcDbEntity
 8
Layer8
100
AcDbLine
 39
0.25
 370
106
 10
119.0132
 20
254.272327832031
 30
0.0
 11
120.2832
 21
252.082327832031
 31
0.0
 0
LINE
 5
668
100
AcDbEntity
 8
Layer8
100
AcDbLine
 39
0.25
 370
106
 10
120.2832
 20
252.082327832031
 30
0.0
 11
129.3212
 21
257.188327832031
 31
0.0
 0
LINE
 5
669
100
AcDbEntity
 8
Layer8
100
AcDbLine
 39
0.25
 370
106
 10
136.1952
 20
257.188327832031
 30
0.0
 11
145.2172
 21
252.095327832031
 31
0.0
 0
LINE
 5
66A
100
AcDbEntity
 8
Layer8
100
AcDbLine
 39
0.25
 370
106
 10
145.2172
 20
252.095327832031
 30
0.0
 11
146.4842
 21
254.286327832031
 31
0.0
 0
LINE
 5
66B
100
AcDbEntity
 8
Layer8
100
AcDbLine
 39
0.25
 370
106
 10
146.4842
 20
254.286327832031
 30
0.0
 11
137.6802
 21
259.260327832031
 31
0.0
 0
CIRCLE
 5
66C
100
AcDbEntity
 8
Layer8
100
AcDbCircle
 39
0.25
 370
106
 10
132.9831
 20
260.205327832031
 30
0.0
 40
2.21250000000001
 370
106
 0
ARC
 5
66D
100
AcDbEntity
 8
Layer8
100
AcDbCircle
 39
0.25
 370
106
 10
133.056777117236
 20
260.211736505816
 30
0.0
 40
3.08493884459202
100
AcDbArc
 50
113.737510552878
 51
-126.979411703026
 0
ARC
 5
66E
100
AcDbEntity
 8
Layer8
100
AcDbCircle
 39
0.25
 370
106
 10
132.931918900109
 20
260.194475498525
 30
0.0
 40
3.05288674183855
100
AcDbArc
 50
-51.7701341545963
 51
111.461445922279
 0
ARC
 5
66F
100
AcDbEntity
 8
Layer8
100
AcDbCircle
 39
0.25
 370
106
 10
133.056777117236
 20
260.211736505816
 30
0.0
 40
3.08493884459202
100
AcDbArc
 50
113.737510552878
 51
-126.979411703026
 0
ARC
 5
670
100
AcDbEntity
 8
Layer8
100
AcDbCircle
 39
0.25
 370
106
 10
132.931918900109
 20
260.194475498525
 30
0.0
 40
3.05288674183855
100
AcDbArc
 50
-51.7701341545963
 51
111.461445922279
 0
LINE
 5
671
100
AcDbEntity
 8
Layer8
100
AcDbLine
 39
0.25
 370
106
 10
131.2011
 20
257.747327832031
 30
0.0
 11
131.531271875
 21
256.086952832031
 31
0.0
 0
LINE
 5
672
100
AcDbEntity
 8
Layer8
100
AcDbLine
 39
0.25
 370
106
 10
131.531271875
 20
256.086952832031
 30
0.0
 11
131.5611
 21
244.909327832031
 31
0.0
 0
LINE
 5
673
100
AcDbEntity
 8
Layer8
100
AcDbLine
 39
0.25
 370
106
 10
131.5611
 20
244.909327832031
 30
0.0
 11
134.4551
 21
244.909327832031
 31
0.0
 0
LINE
 5
674
100
AcDbEntity
 8
Layer8
100
AcDbLine
 39
0.25
 370
106
 10
134.4551
 20
244.909327832031
 30
0.0
 11
134.4852875
 21
256.100280957031
 31
0.0
 0
LINE
 5
675
100
AcDbEntity
 8
Layer8
100
AcDbLine
 39
0.25
 370
106
 10
134.4852875
 20
256.100280957031
 30
0.0
 11
134.8211
 21
257.796327832031
 31
0.0
 0
LINE
 5
676
100
AcDbEntity
 8
Layer8
100
AcDbLine
 39
0.25
 370
106
 10
131.2011
 20
257.747327832031
 30
0.0
 11
131.531271875
 21
256.086952832031
 31
0.0
 0
LINE
 5
677
100
AcDbEntity
 8
Layer8
100
AcDbLine
 39
0.25
 370
106
 10
131.531271875
 20
256.086952832031
 30
0.0
 11
131.5611
 21
244.909327832031
 31
0.0
 0
LINE
 5
678
100
AcDbEntity
 8
Layer8
100
AcDbLine
 39
0.25
 370
106
 10
131.5611
 20
244.909327832031
 30
0.0
 11
134.4551
 21
244.909327832031
 31
0.0
 0
LINE
 5
679
100
AcDbEntity
 8
Layer8
100
AcDbLine
 39
0.25
 370
106
 10
134.4551
 20
244.909327832031
 30
0.0
 11
134.4852875
 21
256.100280957031
 31
0.0
 0
LINE
 5
67A
100
AcDbEntity
 8
Layer8
100
AcDbLine
 39
0.25
 370
106
 10
134.4852875
 20
256.100280957031
 30
0.0
 11
134.8211
 21
257.796327832031
 31
0.0
 0
LINE
 5
67B
100
AcDbEntity
 8
Layer8
100
AcDbLine
 39
0.25
 370
106
 10
131.6131
 20
238.577427832031
 30
0.0
 11
131.6131
 21
245.497427832031
 31
0.0
 0
LINE
 5
67C
100
AcDbEntity
 8
Layer8
100
AcDbLine
 39
0.25
 370
106
 10
131.6131
 20
245.497427832031
 30
0.0
 11
134.4041
 21
245.497427832031
 31
0.0
 0
LINE
 5
67D
100
AcDbEntity
 8
Layer8
100
AcDbLine
 39
0.25
 370
106
 10
134.4041
 20
245.497427832031
 30
0.0
 11
134.4041
 21
238.591427832031
 31
0.0
 0
LINE
 5
67E
100
AcDbEntity
 8
Layer8
100
AcDbLine
 39
0.25
 370
106
 10
131.6131
 20
238.436027832031
 30
0.0
 11
131.6131
 21
245.496027832031
 31
0.0
 0
LINE
 5
67F
100
AcDbEntity
 8
Layer8
100
AcDbLine
 39
0.25
 370
106
 10
131.6131
 20
245.496027832031
 30
0.0
 11
134.4041
 21
245.496027832031
 31
0.0
 0
LINE
 5
680
100
AcDbEntity
 8
Layer8
100
AcDbLine
 39
0.25
 370
106
 10
134.4041
 20
245.496027832031
 30
0.0
 11
134.4041
 21
238.436027832031
 31
0.0
 0
ARC
 5
681
100
AcDbEntity
 8
Layer8
100
AcDbCircle
 39
0.25
 370
106
 10
132.97555285278
 20
230.720216355454
 30
0.0
 40
7.87449939843362
100
AcDbArc
 50
100.540993839988
 51
-79.0598717809494
 0
ARC
 5
682
100
AcDbEntity
 8
Layer8
100
AcDbCircle
 39
0.25
 370
106
 10
133.062697896551
 20
230.730037142439
 30
0.0
 40
7.86808876398348
100
AcDbArc
 50
-79.6965183735898
 51
19.5105736875053
 0
ARC
 5
683
100
AcDbEntity
 8
Layer8
100
AcDbCircle
 39
0.25
 370
106
 10
133.194429915418
 20
230.88802218282
 30
0.0
 40
7.71689363975328
100
AcDbArc
 50
19.2784560161371
 51
79.5462254118047
 0
LINE
 5
684
100
AcDbEntity
 8
Layer8
100
AcDbLine
 39
0.25
 370
106
 10
131.535
 20
238.322827832031
 30
0.0
 11
131.535
 21
238.461827832031
 31
0.0
 0
LINE
 5
685
100
AcDbEntity
 8
Layer8
100
AcDbLine
 39
0.25
 370
106
 10
134.5946
 20
238.476827832031
 30
0.0
 11
134.5946
 21
238.325827832031
 31
0.0
 0
ARC
 5
686
100
AcDbEntity
 8
Layer8
100
AcDbCircle
 39
0.25
 370
106
 10
132.960383069779
 20
230.727748669225
 30
0.0
 40
7.88390193703917
100
AcDbArc
 50
100.416165922452
 51
-78.960777385615
 0
ARC
 5
687
100
AcDbEntity
 8
Layer8
100
AcDbCircle
 39
0.25
 370
106
 10
133.056027473868
 20
230.743918735091
 30
0.0
 40
7.88205524376372
100
AcDbArc
 50
-79.6656903552519
 51
79.5696185173629
 0
LINE
 5
688
100
AcDbEntity
 8
Layer8
100
AcDbLine
 39
0.25
 370
106
 10
131.535
 20
238.342727832031
 30
0.0
 11
131.535
 21
238.481727832031
 31
0.0
 0
LINE
 5
689
100
AcDbEntity
 8
Layer8
100
AcDbLine
 39
0.25
 370
106
 10
134.483
 20
238.495727832031
 30
0.0
 11
134.483
 21
238.342727832031
 31
0.0
 0
ARC
 5
68A
100
AcDbEntity
 8
Layer8
100
AcDbCircle
 39
0.25
 370
106
 10
133.131689764138
 20
230.742752053414
 30
0.0
 40
7.88715082299681
100
AcDbArc
 50
79.4402154063607
 51
101.10103624549
 0
LINE
 5
68B
100
AcDbEntity
 8
Layer8
100
AcDbLine
 39
0.25
 370
106
 10
131.6131
 20
238.341327832031
 30
0.0
 11
131.6131
 21
238.482327832031
 31
0.0
 0
CIRCLE
 5
68C
100
AcDbEntity
 8
Layer8
100
AcDbCircle
 39
0.25
 370
106
 10
159.116428125
 20
185.521077832031
 30
0.0
 40
2.64809375000002
 370
106
 0
CIRCLE
 5
68D
100
AcDbEntity
 8
Layer8
100
AcDbCircle
 39
0.25
 370
106
 10
159.1949140625
 20
185.435229394531
 30
0.0
 40
2.56631250000001
 370
106
 0
CIRCLE
 5
68E
100
AcDbEntity
 8
Layer8
100
AcDbCircle
 39
0.25
 370
106
 10
159.2500359375
 20
185.461774707031
 30
0.0
 40
2.20268359374998
 370
106
 0
LINE
 5
68F
100
AcDbEntity
 8
Layer8
100
AcDbLine
 39
0.25
 370
106
 10
134.5771
 20
238.496327832031
 30
0.0
 11
134.5771
 21
238.341327832031
 31
0.0
 0
CIRCLE
 5
690
100
AcDbEntity
 8
Layer8
100
AcDbCircle
 39
0.25
 370
106
 10
159.243403125
 20
185.479659082031
 30
0.0
 40
2.21143750000002
 370
106
 0
ARC
 5
691
100
AcDbEntity
 8
Layer8
100
AcDbCircle
 39
0.25
 370
106
 10
159.220501635476
 20
185.452071102238
 30
0.0
 40
3.02762404896628
100
AcDbArc
 50
-166.106860822855
 51
113.893484550785
 0
LINE
 5
692
100
AcDbEntity
 8
Layer8
100
AcDbLine
 39
0.25
 370
106
 10
157.9942
 20
188.220227832031
 30
0.0
 11
158.0832
 21
188.272227832031
 31
0.0
 0
LINE
 5
693
100
AcDbEntity
 8
Layer8
100
AcDbLine
 39
0.25
 370
106
 10
158.0832
 20
188.272227832031
 30
0.0
 11
156.275325
 21
188.864680957031
 31
0.0
 0
LINE
 5
694
100
AcDbEntity
 8
Layer8
100
AcDbLine
 39
0.25
 370
106
 10
156.275325
 20
188.864680957031
 30
0.0
 11
146.9172
 21
194.295227832031
 31
0.0
 0
LINE
 5
695
100
AcDbEntity
 8
Layer8
100
AcDbLine
 39
0.25
 370
106
 10
146.9172
 20
194.295227832031
 30
0.0
 11
145.6542
 21
192.141227832031
 31
0.0
 0
LINE
 5
696
100
AcDbEntity
 8
Layer8
100
AcDbLine
 39
0.25
 370
106
 10
145.6542
 20
192.141227832031
 30
0.0
 11
155.085840625
 21
186.586696582031
 31
0.0
 0
LINE
 5
697
100
AcDbEntity
 8
Layer8
100
AcDbLine
 39
0.25
 370
106
 10
155.085840625
 20
186.586696582031
 30
0.0
 11
156.1882
 21
185.527227832031
 31
0.0
 0
LINE
 5
698
100
AcDbEntity
 8
Layer8
100
AcDbLine
 39
0.25
 370
106
 10
156.1882
 20
185.527227832031
 30
0.0
 11
156.28145
 21
184.725102832031
 31
0.0
 0
ARC
 5
699
100
AcDbEntity
 8
Layer8
100
AcDbCircle
 39
0.25
 370
106
 10
159.197076986961
 20
185.485864462
 30
0.0
 40
3.02296779865597
100
AcDbArc
 50
178.867201970593
 51
113.664853370848
 0
LINE
 5
69A
100
AcDbEntity
 8
Layer8
100
AcDbLine
 39
0.25
 370
106
 10
157.9837
 20
188.254627832031
 30
0.0
 11
158.0727
 21
188.306627832031
 31
0.0
 0
LINE
 5
69B
100
AcDbEntity
 8
Layer8
100
AcDbLine
 39
0.25
 370
106
 10
158.0727
 20
188.306627832031
 30
0.0
 11
156.263278125
 21
188.902596582031
 31
0.0
 0
LINE
 5
69C
100
AcDbEntity
 8
Layer8
100
AcDbLine
 39
0.25
 370
106
 10
156.263278125
 20
188.902596582031
 30
0.0
 11
146.8837
 21
194.365627832031
 31
0.0
 0
LINE
 5
69D
100
AcDbEntity
 8
Layer8
100
AcDbLine
 39
0.25
 370
106
 10
146.8837
 20
194.365627832031
 30
0.0
 11
145.6177
 21
192.196627832031
 31
0.0
 0
LINE
 5
69E
100
AcDbEntity
 8
Layer8
100
AcDbLine
 39
0.25
 370
106
 10
145.6177
 20
192.196627832031
 30
0.0
 11
155.071075
 21
186.611284082031
 31
0.0
 0
LINE
 5
69F
100
AcDbEntity
 8
Layer8
100
AcDbLine
 39
0.25
 370
106
 10
155.071075
 20
186.611284082031
 30
0.0
 11
156.1747
 21
185.545627832031
 31
0.0
 0
ARC
 5
6A0
100
AcDbEntity
 8
Layer8
100
AcDbCircle
 39
0.25
 370
106
 10
106.666639098994
 20
317.692484280917
 30
0.0
 40
2.24130155509394
100
AcDbArc
 50
0.839630085813537
 51
92.6836042635131
 0
ARC
 5
6A1
100
AcDbEntity
 8
Layer8
100
AcDbCircle
 39
0.25
 370
106
 10
106.543342868342
 20
317.874058040379
 30
0.0
 40
2.36903046009978
100
AcDbArc
 50
-154.826747076885
 51
-3.59945608663437
 0
ARC
 5
6A2
100
AcDbEntity
 8
Layer8
100
AcDbCircle
 39
0.25
 370
106
 10
106.519267565448
 20
317.66598162446
 30
0.0
 40
2.26574357588438
100
AcDbArc
 50
88.9269123042687
 51
-159.334502040849
 0
ARC
 5
6A3
100
AcDbEntity
 8
Layer8
100
AcDbCircle
 39
0.25
 370
106
 10
106.543342868342
 20
317.874058040379
 30
0.0
 40
2.36903046009978
100
AcDbArc
 50
-154.826747076885
 51
-3.59945608663437
 0
ARC
 5
6A4
100
AcDbEntity
 8
Layer8
100
AcDbCircle
 39
0.25
 370
106
 10
106.519267565448
 20
317.66598162446
 30
0.0
 40
2.26574357588438
100
AcDbArc
 50
88.9269123042687
 51
-159.334502040849
 0
ARC
 5
6A5
100
AcDbEntity
 8
Layer8
100
AcDbCircle
 39
0.25
 370
106
 10
106.666639098994
 20
317.692484280917
 30
0.0
 40
2.24130155509394
100
AcDbArc
 50
0.839630085813537
 51
92.6836042635131
 0
ARC
 5
6A6
100
AcDbEntity
 8
Layer8
100
AcDbCircle
 39
0.25
 370
106
 10
159.628039099006
 20
317.196384280925
 30
0.0
 40
2.24130155508232
100
AcDbArc
 50
0.839630085601352
 51
92.6836042638168
 0
ARC
 5
6A7
100
AcDbEntity
 8
Layer8
100
AcDbCircle
 39
0.25
 370
106
 10
159.504742868345
 20
317.377958040383
 30
0.0
 40
2.36903046010367
100
AcDbArc
 50
-154.826747076821
 51
-3.59945608673541
 0
ARC
 5
6A8
100
AcDbEntity
 8
Layer8
100
AcDbCircle
 39
0.25
 370
106
 10
159.48066756544
 20
317.169881624465
 30
0.0
 40
2.26574357587952
100
AcDbArc
 50
88.9269123040738
 51
-159.334502040663
 0
ARC
 5
6A9
100
AcDbEntity
 8
Layer8
100
AcDbCircle
 39
0.25
 370
106
 10
159.504742868345
 20
317.377958040383
 30
0.0
 40
2.36903046010367
100
AcDbArc
 50
-154.826747076821
 51
-3.59945608673541
 0
ARC
 5
6AA
100
AcDbEntity
 8
Layer8
100
AcDbCircle
 39
0.25
 370
106
 10
159.48066756544
 20
317.169881624465
 30
0.0
 40
2.26574357587952
100
AcDbArc
 50
88.9269123040738
 51
-159.334502040663
 0
ARC
 5
6AB
100
AcDbEntity
 8
Layer8
100
AcDbCircle
 39
0.25
 370
106
 10
159.628039099006
 20
317.196384280925
 30
0.0
 40
2.24130155508232
100
AcDbArc
 50
0.839630085601352
 51
92.6836042638168
 0
ARC
 5
6AC
100
AcDbEntity
 8
Layer8
100
AcDbCircle
 39
0.25
 370
106
 10
106.855039099009
 20
156.174584280931
 30
0.0
 40
2.24130155507928
100
AcDbArc
 50
0.839630085446265
 51
92.6836042638996
 0
ARC
 5
6AD
100
AcDbEntity
 8
Layer8
100
AcDbCircle
 39
0.25
 370
106
 10
106.731742868346
 20
156.35615804037
 30
0.0
 40
2.36903046009917
100
AcDbArc
 50
-154.826747077123
 51
-3.5994560864176
 0
ARC
 5
6AE
100
AcDbEntity
 8
Layer8
100
AcDbCircle
 39
0.25
 370
106
 10
106.707667565441
 20
156.148081624468
 30
0.0
 40
2.26574357587645
100
AcDbArc
 50
88.9269123040798
 51
-159.334502040593
 0
ARC
 5
6AF
100
AcDbEntity
 8
Layer8
100
AcDbCircle
 39
0.25
 370
106
 10
106.731742868346
 20
156.35615804037
 30
0.0
 40
2.36903046009917
100
AcDbArc
 50
-154.826747077123
 51
-3.5994560864176
 0
ARC
 5
6B0
100
AcDbEntity
 8
Layer8
100
AcDbCircle
 39
0.25
 370
106
 10
106.707667565441
 20
156.148081624468
 30
0.0
 40
2.26574357587645
100
AcDbArc
 50
88.9269123040798
 51
-159.334502040593
 0
ARC
 5
6B1
100
AcDbEntity
 8
Layer8
100
AcDbCircle
 39
0.25
 370
106
 10
106.855039099009
 20
156.174584280931
 30
0.0
 40
2.24130155507928
100
AcDbArc
 50
0.839630085446265
 51
92.6836042638996
 0
HATCH
 5
6B2
100
AcDbEntity
 8
Layer22
100
AcDbHatch
 10
 0.0
 20
 0.0
 30
 0.0
 210
 0.0
 220
 0.0
 230
 1.0
 2
SOLID
 70
 1
 71
 1
 91
1              
 92
 0
 93
42             
 72
 1
 10
29.4209
 20
15.0298278320313
 11
33.4589
 21
15.0298278320313
 72
 1
 10
33.4589
 20
15.0298278320313
 11
33.3379
 21
23.9108278320313
 72
 1
 10
33.3379
 20
23.9108278320313
 11
33.326788671875
 21
24.5926188476562
 72
 1
 10
33.326788671875
 20
24.5926188476562
 11
33.314259375
 21
25.3245309570312
 72
 1
 10
33.314259375
 20
25.3245309570312
 11
33.298894140625
 21
26.0893727539062
 72
 1
 10
33.298894140625
 20
26.0893727539062
 11
33.279275
 21
26.8699528320312
 72
 1
 10
33.279275
 20
26.8699528320312
 11
33.253983984375
 21
27.6490797851562
 72
 1
 10
33.253983984375
 20
27.6490797851562
 11
33.221603125
 21
28.4095622070313
 72
 1
 10
33.221603125
 20
28.4095622070313
 11
33.180714453125
 21
29.1342086914061
 72
 1
 10
33.180714453125
 20
29.1342086914061
 11
33.1299
 21
29.8058278320312
 72
 1
 10
33.1299
 20
29.8058278320312
 11
33.316023046875
 21
29.2499938476562
 72
 1
 10
33.316023046875
 20
29.2499938476562
 11
33.573759375
 21
28.5631559570313
 72
 1
 10
33.573759375
 20
28.5631559570313
 11
33.890909765625
 21
27.7684352539063
 72
 1
 10
33.890909765625
 20
27.7684352539063
 11
34.255275
 21
26.8889528320312
 72
 1
 10
34.255275
 20
26.8889528320312
 11
34.654655859375
 21
25.9478297851563
 72
 1
 10
34.654655859375
 20
25.9478297851563
 11
35.076853125
 21
24.9681872070313
 72
 1
 10
35.076853125
 20
24.9681872070313
 11
35.509667578125
 21
23.9731461914063
 72
 1
 10
35.509667578125
 20
23.9731461914063
 11
35.9409
 21
22.9858278320313
 72
 1
 10
35.9409
 20
22.9858278320313
 11
39.5009
 21
15.0298278320313
 72
 1
 10
39.5009
 20
15.0298278320313
 11
43.8669
 21
15.0298278320313
 72
 1
 10
43.8669
 20
15.0298278320313
 11
43.8669
 21
35.8158278320312
 72
 1
 10
43.8669
 20
35.8158278320312
 11
39.8889
 21
35.8158278320312
 72
 1
 10
39.8889
 20
35.8158278320312
 11
39.9789
 21
27.3218278320312
 72
 1
 10
39.9789
 20
27.3218278320312
 11
39.995249609375
 21
26.7305446289063
 72
 1
 10
39.995249609375
 20
26.7305446289063
 11
40.021571875
 21
26.0507497070312
 72
 1
 10
40.021571875
 20
26.0507497070312
 11
40.056401953125
 21
25.3091500976562
 72
 1
 10
40.056401953125
 20
25.3091500976562
 11
40.098275
 21
24.5324528320313
 72
 1
 10
40.098275
 20
24.5324528320313
 11
40.145726171875
 21
23.7473649414063
 72
 1
 10
40.145726171875
 20
23.7473649414063
 11
40.197290625
 21
22.9805934570313
 72
 1
 10
40.197290625
 20
22.9805934570313
 11
40.251503515625
 21
22.2588454101563
 72
 1
 10
40.251503515625
 20
22.2588454101563
 11
40.3069
 21
21.6088278320312
 72
 1
 10
40.3069
 20
21.6088278320312
 11
40.1322046875
 21
22.2004645507812
 72
 1
 10
40.1322046875
 20
22.2004645507812
 11
39.922775
 21
22.8489840820313
 72
 1
 10
39.922775
 20
22.8489840820313
 11
39.6803453125
 21
23.5466754882812
 72
 1
 10
39.6803453125
 20
23.5466754882812
 11
39.40665
 21
24.2858278320311
 72
 1
 10
39.40665
 20
24.2858278320311
 11
39.1034234375
 21
25.0587301757813
 72
 1
 10
39.1034234375
 20
25.0587301757813
 11
38.7724
 21
25.8576715820312
 72
 1
 10
38.7724
 20
25.8576715820312
 11
38.4153140625
 21
26.6749411132813
 72
 1
 10
38.4153140625
 20
26.6749411132813
 11
38.0339
 21
27.5028278320312
 72
 1
 10
38.0339
 20
27.5028278320312
 11
34.0579
 21
35.8158278320312
 72
 1
 10
34.0579
 20
35.8158278320312
 11
29.4209
 21
35.8158278320312
 72
 1
 10
29.4209
 20
35.8158278320312
 11
29.4209
 21
15.0298278320313
 97
 1
 330
6B3
 75
 0
 76
 1
 98
 1
 10
 0.0
 20
 0.0
 0
HATCH
 5
6B4
100
AcDbEntity
 8
Layer22
100
AcDbHatch
 10
 0.0
 20
 0.0
 30
 0.0
 210
 0.0
 220
 0.0
 230
 1.0
 2
SOLID
 70
 1
 71
 1
 91
1              
 92
 0
 93
12             
 72
 1
 10
46.3751
 20
35.8162278320312
 11
46.3751
 21
15.0302278320313
 72
 1
 10
46.3751
 20
15.0302278320313
 11
58.4891
 21
15.0302278320313
 72
 1
 10
58.4891
 20
15.0302278320313
 11
58.4891
 21
18.6192278320312
 72
 1
 10
58.4891
 20
18.6192278320312
 11
50.6241
 21
18.6192278320312
 72
 1
 10
50.6241
 20
18.6192278320312
 11
50.6241
 21
24.1812278320313
 72
 1
 10
50.6241
 20
24.1812278320313
 11
56.5141
 21
24.1812278320313
 72
 1
 10
56.5141
 20
24.1812278320313
 11
56.5141
 21
27.5922278320312
 72
 1
 10
56.5141
 20
27.5922278320312
 11
50.5621
 21
27.5922278320312
 72
 1
 10
50.5621
 20
27.5922278320312
 11
50.5621
 21
32.4062278320313
 72
 1
 10
50.5621
 20
32.4062278320313
 11
57.6801
 21
32.4062278320313
 72
 1
 10
57.6801
 20
32.4062278320313
 11
58.2191
 21
35.8162278320312
 72
 1
 10
58.2191
 20
35.8162278320312
 11
46.3751
 21
35.8162278320312
 97
 1
 330
6B5
 75
 0
 76
 1
 98
 1
 10
 0.0
 20
 0.0
 0
HATCH
 5
6B6
100
AcDbEntity
 8
Layer22
100
AcDbHatch
 10
 0.0
 20
 0.0
 30
 0.0
 210
 0.0
 220
 0.0
 230
 1.0
 2
SOLID
 70
 1
 71
 1
 91
1              
 92
 0
 93
49             
 72
 1
 10
60.0425
 20
15.0298278320313
 11
64.2595
 21
15.0298278320313
 72
 1
 10
64.2595
 20
15.0298278320313
 11
64.9765
 21
25.8868278320313
 72
 1
 10
64.9765
 20
25.8868278320313
 11
65.008498046875
 21
26.3635211914062
 72
 1
 10
65.008498046875
 20
26.3635211914062
 11
65.037484375
 21
26.8312497070312
 72
 1
 10
65.037484375
 20
26.8312497070312
 11
65.063072265625
 21
27.2921110351563
 72
 1
 10
65.063072265625
 20
27.2921110351563
 11
65.084875
 21
27.7482028320312
 72
 1
 10
65.084875
 20
27.7482028320312
 11
65.102505859375
 21
28.2016227539062
 72
 1
 10
65.102505859375
 20
28.2016227539062
 11
65.115578125
 21
28.6544684570313
 72
 1
 10
65.115578125
 20
28.6544684570313
 11
65.123705078125
 21
29.1088375976562
 72
 1
 10
65.123705078125
 20
29.1088375976562
 11
65.1265
 21
29.5668278320312
 72
 1
 10
65.1265
 20
29.5668278320312
 11
68.9255
 21
15.0298278320313
 72
 1
 10
68.9255
 20
15.0298278320313
 11
72.6045
 21
15.0298278320313
 72
 1
 10
72.6045
 20
15.0298278320313
 11
73.858603515625
 21
19.3957985351562
 72
 1
 10
73.858603515625
 20
19.3957985351562
 11
74.803953125
 21
22.6913434570313
 72
 1
 10
74.803953125
 20
22.6913434570313
 11
75.487857421875
 21
25.0854118164061
 72
 1
 10
75.487857421875
 20
25.0854118164061
 11
75.957625
 21
26.7469528320312
 72
 1
 10
75.957625
 20
26.7469528320312
 11
76.260564453125
 21
27.8449157226561
 72
 1
 10
76.260564453125
 20
27.8449157226561
 11
76.443984375
 21
28.5482497070312
 72
 1
 10
76.443984375
 20
28.5482497070312
 11
76.555193359375
 21
29.0259040039061
 72
 1
 10
76.555193359375
 20
29.0259040039061
 11
76.6415
 21
29.4468278320312
 72
 1
 10
76.6415
 20
29.4468278320312
 11
76.68262109375
 21
28.5092301757812
 72
 1
 10
76.68262109375
 20
28.5092301757812
 11
76.79103125
 21
26.7267340820313
 72
 1
 10
76.79103125
 20
26.7267340820313
 11
76.94430078125
 21
24.3982848632812
 72
 1
 10
76.94430078125
 20
24.3982848632812
 11
77.12
 21
21.8228278320313
 72
 1
 10
77.12
 20
21.8228278320313
 11
77.29569921875
 21
19.2993083007814
 72
 1
 10
77.29569921875
 20
19.2993083007814
 11
77.44896875
 21
17.1266715820313
 72
 1
 10
77.44896875
 20
17.1266715820313
 11
77.55737890625
 21
15.6038629882812
 72
 1
 10
77.55737890625
 20
15.6038629882812
 11
77.5985
 21
15.0298278320313
 72
 1
 10
77.5985
 20
15.0298278320313
 11
81.7265
 21
15.0298278320313
 72
 1
 10
81.7265
 20
15.0298278320313
 11
79.8725
 21
35.8158278320312
 72
 1
 10
79.8725
 20
35.8158278320312
 11
74.3985
 21
35.8158278320312
 72
 1
 10
74.3985
 20
35.8158278320312
 11
73.292662109375
 21
31.6870856445313
 72
 1
 10
73.292662109375
 20
31.6870856445313
 11
72.459109375
 21
28.5712653320313
 72
 1
 10
72.459109375
 20
28.5712653320313
 11
71.856158203125
 21
26.3092262695313
 72
 1
 10
71.856158203125
 20
26.3092262695313
 11
71.442125
 21
24.7418278320313
 72
 1
 10
71.442125
 20
24.7418278320313
 11
71.175326171875
 21
23.7099293945314
 72
 1
 10
71.175326171875
 20
23.7099293945314
 11
71.014078125
 21
23.0543903320313
 72
 1
 10
71.014078125
 20
23.0543903320313
 11
70.916697265625
 21
22.6160700195313
 72
 1
 10
70.916697265625
 20
22.6160700195313
 11
70.8415
 21
22.2358278320313
 72
 1
 10
70.8415
 20
22.2358278320313
 11
70.641634765625
 21
23.1288473632812
 72
 1
 10
70.641634765625
 20
23.1288473632812
 11
70.227328125
 21
24.8124840820313
 72
 1
 10
70.227328125
 20
24.8124840820313
 11
69.672888671875
 21
27.0063551757813
 72
 1
 10
69.672888671875
 20
27.0063551757813
 11
69.052625
 21
29.4300778320313
 72
 1
 10
69.052625
 20
29.4300778320313
 11
68.440845703125
 21
31.8032692382814
 72
 1
 10
68.440845703125
 20
31.8032692382814
 11
67.911859375
 21
33.8455465820313
 72
 1
 10
67.911859375
 20
33.8455465820313
 11
67.539974609375
 21
35.2765270507813
 72
 1
 10
67.539974609375
 20
35.2765270507813
 11
67.3995
 21
35.8158278320312
 72
 1
 10
67.3995
 20
35.8158278320312
 11
61.9875
 21
35.8158278320312
 72
 1
 10
61.9875
 20
35.8158278320312
 11
60.0425
 21
15.0298278320313
 97
 1
 330
6B7
 75
 0
 76
 1
 98
 1
 10
 0.0
 20
 0.0
 0
HATCH
 5
6B8
100
AcDbEntity
 8
Layer22
100
AcDbHatch
 10
 0.0
 20
 0.0
 30
 0.0
 210
 0.0
 220
 0.0
 230
 1.0
 2
SOLID
 70
 1
 71
 1
 91
2              
 92
 0
 93
56             
 72
 1
 10
95.6154
 20
30.2241278320313
 11
95.740972265625
 21
29.7692098632813
 72
 1
 10
95.740972265625
 20
29.7692098632813
 11
95.849915625
 21
29.2778465820312
 72
 1
 10
95.849915625
 20
29.2778465820312
 11
95.942194921875
 21
28.7472489257813
 72
 1
 10
95.942194921875
 20
28.7472489257813
 11
96.017775
 21
28.1746278320313
 72
 1
 10
96.017775
 20
28.1746278320313
 11
96.076620703125
 21
27.5571942382811
 72
 1
 10
96.076620703125
 20
27.5571942382811
 11
96.118696875
 21
26.8921590820312
 72
 1
 10
96.118696875
 20
26.8921590820312
 11
96.143968359375
 21
26.1767333007812
 72
 1
 10
96.143968359375
 20
26.1767333007812
 11
96.1524
 21
25.4081278320313
 72
 1
 10
96.1524
 20
25.4081278320313
 11
96.094097265625
 21
23.5662215820312
 72
 1
 10
96.094097265625
 20
23.5662215820312
 11
95.915665625
 21
22.0027528320313
 72
 1
 10
95.915665625
 20
22.0027528320313
 11
95.611819921875
 21
20.7075965820313
 72
 1
 10
95.611819921875
 20
20.7075965820313
 11
95.177275
 21
19.6706278320312
 72
 1
 10
95.177275
 20
19.6706278320312
 11
94.606745703125
 21
18.8817215820312
 72
 1
 10
94.606745703125
 20
18.8817215820312
 11
93.894946875
 21
18.3307528320313
 72
 1
 10
93.894946875
 20
18.3307528320313
 11
93.036593359375
 21
18.0075965820313
 72
 1
 10
93.036593359375
 20
18.0075965820313
 11
92.0264
 21
17.9021278320313
 72
 1
 10
92.0264
 20
17.9021278320313
 11
91.66303671875
 21
17.9132918945313
 72
 1
 10
91.66303671875
 20
17.9132918945313
 11
91.31418125
 21
17.9468153320313
 72
 1
 10
91.31418125
 20
17.9468153320313
 11
90.98018515625
 21
18.0027450195313
 72
 1
 10
90.98018515625
 20
18.0027450195313
 11
90.6614
 21
18.0811278320313
 72
 1
 10
90.6614
 20
18.0811278320313
 11
90.35817734375
 21
18.1820106445314
 72
 1
 10
90.35817734375
 20
18.1820106445314
 11
90.07086875
 21
18.3054403320311
 72
 1
 10
90.07086875
 20
18.3054403320311
 11
89.79982578125
 21
18.4514637695313
 72
 1
 10
89.79982578125
 20
18.4514637695313
 11
89.5454
 21
18.6201278320312
 72
 1
 10
89.5454
 20
18.6201278320312
 11
89.112749609375
 21
19.0275946289062
 72
 1
 10
89.112749609375
 20
19.0275946289062
 11
88.736759375
 21
19.5569247070313
 72
 1
 10
88.736759375
 20
19.5569247070313
 11
88.417745703125
 21
20.2091375976562
 72
 1
 10
88.417745703125
 20
20.2091375976562
 11
88.156025
 21
20.9852528320313
 72
 1
 10
88.156025
 20
20.9852528320313
 11
87.951913671875
 21
21.8862899414063
 72
 1
 10
87.951913671875
 20
21.8862899414063
 11
87.805728125
 21
22.9132684570312
 72
 1
 10
87.805728125
 20
22.9132684570312
 11
87.717784765625
 21
24.0672079101564
 72
 1
 10
87.717784765625
 20
24.0672079101564
 11
87.6884
 21
25.3491278320313
 72
 1
 10
87.6884
 20
25.3491278320313
 11
87.7039390625
 21
26.2592469726562
 72
 1
 10
87.7039390625
 20
26.2592469726562
 11
87.751025
 21
27.1072684570313
 72
 1
 10
87.751025
 20
27.1072684570313
 11
87.8303609375
 21
27.8956883789062
 72
 1
 10
87.8303609375
 20
27.8956883789062
 11
87.94265
 21
28.6270028320313
 72
 1
 10
87.94265
 20
28.6270028320313
 11
88.0885953125
 21
29.3037079101563
 72
 1
 10
88.0885953125
 20
29.3037079101563
 11
88.2689
 21
29.9282997070312
 72
 1
 10
88.2689
 20
29.9282997070312
 11
88.4842671875
 21
30.5032743164063
 72
 1
 10
88.4842671875
 20
30.5032743164063
 11
88.7354
 21
31.0311278320313
 72
 1
 10
88.7354
 20
31.0311278320313
 11
88.97992734375
 21
31.4270458007813
 72
 1
 10
88.97992734375
 20
31.4270458007813
 11
89.28255625
 21
31.7827215820313
 72
 1
 10
89.28255625
 20
31.7827215820313
 11
89.63698203125
 21
32.0942879882814
 72
 1
 10
89.63698203125
 20
32.0942879882814
 11
90.0369
 21
32.3578778320312
 72
 1
 10
90.0369
 20
32.3578778320312
 11
90.47600546875
 21
32.5696239257813
 72
 1
 10
90.47600546875
 20
32.5696239257813
 11
90.94799375
 21
32.7256590820313
 72
 1
 10
90.94799375
 20
32.7256590820313
 11
91.44656015625
 21
32.8221161132811
 72
 1
 10
91.44656015625
 20
32.8221161132811
 11
91.9654
 21
32.8551278320313
 72
 1
 10
91.9654
 20
32.8551278320313
 11
92.744730078125
 21
32.7850614257812
 72
 1
 10
92.744730078125
 20
32.7850614257812
 11
93.424040625
 21
32.5914090820313
 72
 1
 10
93.424040625
 20
32.5914090820313
 11
94.007187109375
 21
32.2989911132812
 72
 1
 10
94.007187109375
 20
32.2989911132812
 11
94.498025
 21
31.9326278320312
 72
 1
 10
94.498025
 20
31.9326278320312
 11
94.900409765625
 21
31.5171395507813
 72
 1
 10
94.900409765625
 20
31.5171395507813
 11
95.218196875
 21
31.0773465820312
 72
 1
 10
95.218196875
 20
31.0773465820312
 11
95.455241796875
 21
30.6380692382813
 72
 1
 10
95.455241796875
 20
30.6380692382813
 11
95.6154
 21
30.2241278320313
 97
 1
 330
6B9
 92
 0
 93
56             
 72
 1
 10
87.7194
 20
35.0691278320312
 11
86.666870703125
 21
34.3637469726563
 72
 1
 10
86.666870703125
 20
34.3637469726563
 11
85.735478125
 21
33.4880809570312
 72
 1
 10
85.735478125
 20
33.4880809570312
 11
84.931140234375
 21
32.4544696289063
 72
 1
 10
84.931140234375
 20
32.4544696289063
 11
84.259775
 21
31.2752528320312
 72
 1
 10
84.259775
 20
31.2752528320312
 11
83.727300390625
 21
29.9627704101563
 72
 1
 10
83.727300390625
 20
29.9627704101563
 11
83.339634375
 21
28.5293622070312
 72
 1
 10
83.339634375
 20
28.5293622070312
 11
83.102694921875
 21
26.9873680664062
 72
 1
 10
83.102694921875
 20
26.9873680664062
 11
83.0224
 21
25.3491278320313
 72
 1
 10
83.0224
 20
25.3491278320313
 11
83.060214453125
 21
24.2247860351563
 72
 1
 10
83.060214453125
 20
24.2247860351563
 11
83.173415625
 21
23.1420809570312
 72
 1
 10
83.173415625
 20
23.1420809570312
 11
83.361640234375
 21
22.1029930664063
 72
 1
 10
83.361640234375
 20
22.1029930664063
 11
83.624525
 21
21.1095028320314
 72
 1
 10
83.624525
 20
21.1095028320314
 11
83.961706640625
 21
20.1635907226562
 72
 1
 10
83.961706640625
 20
20.1635907226562
 11
84.372821875
 21
19.2672372070313
 72
 1
 10
84.372821875
 20
19.2672372070313
 11
84.857507421875
 21
18.4224227539063
 72
 1
 10
84.857507421875
 20
18.4224227539063
 11
85.4154
 21
17.6311278320312
 72
 1
 10
85.4154
 20
17.6311278320312
 11
86.032148046875
 21
16.9131668945312
 72
 1
 10
86.032148046875
 20
16.9131668945312
 11
86.698759375
 21
16.3032528320311
 72
 1
 10
86.698759375
 20
16.3032528320311
 11
87.422909765625
 21
15.7975887695312
 72
 1
 10
87.422909765625
 20
15.7975887695312
 11
88.212275
 21
15.3923778320312
 72
 1
 10
88.212275
 20
15.3923778320312
 11
89.074530859375
 21
15.0838231445313
 72
 1
 10
89.074530859375
 20
15.0838231445313
 11
90.017353125
 21
14.8681278320312
 72
 1
 10
90.017353125
 20
14.8681278320312
 11
91.048417578125
 21
14.7414950195314
 72
 1
 10
91.048417578125
 20
14.7414950195314
 11
92.1754
 21
14.7001278320313
 72
 1
 10
92.1754
 20
14.7001278320313
 11
92.800636328125
 21
14.7131180664062
 72
 1
 10
92.800636328125
 20
14.7131180664062
 11
93.380228125
 21
14.7532372070312
 72
 1
 10
93.380228125
 20
14.7532372070312
 11
93.921874609375
 21
14.8222079101563
 72
 1
 10
93.921874609375
 20
14.8222079101563
 11
94.433275
 21
14.9217528320312
 72
 1
 10
94.433275
 20
14.9217528320312
 11
94.922128515625
 21
15.0535946289062
 72
 1
 10
94.922128515625
 20
15.0535946289062
 11
95.396134375
 21
15.2194559570313
 72
 1
 10
95.396134375
 20
15.2194559570313
 11
95.862991796875
 21
15.4210594726562
 72
 1
 10
95.862991796875
 20
15.4210594726562
 11
96.3304
 21
15.6601278320312
 72
 1
 10
96.3304
 20
15.6601278320312
 11
97.38938046875
 21
16.3715790039062
 72
 1
 10
97.38938046875
 20
16.3715790039062
 11
98.31849375
 21
17.2469872070312
 72
 1
 10
98.31849375
 20
17.2469872070312
 11
99.11424765625
 21
18.2789344726563
 72
 1
 10
99.11424765625
 20
18.2789344726563
 11
99.77315
 21
19.4600028320313
 72
 1
 10
99.77315
 20
19.4600028320313
 11
100.29170859375
 21
20.7827743164063
 72
 1
 10
100.29170859375
 20
20.7827743164063
 11
100.66643125
 21
22.2398309570312
 72
 1
 10
100.66643125
 20
22.2398309570312
 11
100.89382578125
 21
23.8237547851562
 72
 1
 10
100.89382578125
 20
23.8237547851562
 11
100.9704
 21
25.5271278320313
 72
 1
 10
100.9704
 20
25.5271278320313
 11
100.8129859375
 21
27.8530750976563
 72
 1
 10
100.8129859375
 20
27.8530750976563
 11
100.3508375
 21
29.9280184570313
 72
 1
 10
100.3508375
 20
29.9280184570313
 11
99.5990953125
 21
31.7337352539063
 72
 1
 10
99.5990953125
 20
31.7337352539063
 11
98.5729
 21
33.2520028320313
 72
 1
 10
98.5729
 20
33.2520028320313
 11
97.2873921875
 21
34.4645985351563
 72
 1
 10
97.2873921875
 20
34.4645985351563
 11
95.7577125
 21
35.3532997070312
 72
 1
 10
95.7577125
 20
35.3532997070312
 11
93.9990015625
 21
35.8998836914063
 72
 1
 10
93.9990015625
 20
35.8998836914063
 11
92.0264
 21
36.0861278320313
 72
 1
 10
92.0264
 20
36.0861278320313
 11
91.444835546875
 21
36.0694168945313
 72
 1
 10
91.444835546875
 20
36.0694168945313
 11
90.869259375
 21
36.0197528320311
 72
 1
 10
90.869259375
 20
36.0197528320311
 11
90.302847265625
 21
35.9378387695313
 72
 1
 10
90.302847265625
 20
35.9378387695313
 11
89.748775
 21
35.8243778320312
 72
 1
 10
89.748775
 20
35.8243778320312
 11
89.210218359375
 21
35.6800731445313
 72
 1
 10
89.210218359375
 20
35.6800731445313
 11
88.690353125
 21
35.5056278320312
 72
 1
 10
88.690353125
 20
35.5056278320312
 11
88.192355078125
 21
35.3017450195312
 72
 1
 10
88.192355078125
 20
35.3017450195312
 11
87.7194
 21
35.0691278320312
 97
 1
 330
6BA
 75
 0
 76
 1
 98
 1
 10
 0.0
 20
 0.0
 0
ARC
 5
6BB
100
AcDbEntity
 8
Layer8
100
AcDbCircle
 39
0.25
 370
106
 10
159.74328539866
 20
156.680931604116
 30
0.0
 40
2.27597955571469
100
AcDbArc
 50
-65.9933775294582
 51
88.2321287896386
 0
ARC
 5
6BC
100
AcDbEntity
 8
Layer8
100
AcDbCircle
 39
0.25
 370
106
 10
159.836229188347
 20
156.699199093326
 30
0.0
 40
2.25674320212808
100
AcDbArc
 50
90.5770743347667
 51
-68.3383230745812
 0
ARC
 5
6BD
100
AcDbEntity
 8
Layer8
100
AcDbCircle
 39
0.25
 370
106
 10
159.814
 20
156.66187529244
 30
0.0
 40
2.19867769226585
100
AcDbArc
 50
179.27155958456
 51
0.728440415444523
 0
ARC
 5
6BE
100
AcDbEntity
 8
Layer8
100
AcDbCircle
 39
0.25
 370
106
 10
159.814
 20
156.717098703747
 30
0.0
 40
2.19866913164407
100
AcDbArc
 50
-0.710678062789955
 51
-179.289321937215
 0
TEXT
 5
6BF
100
AcDbEntity
 8
Layer8
100
AcDbText
 40
8.8
 41
0.61000
 72
0
 50
0
  1
Ø11
  7
STANDARD
 10
124.9385
 20
551.368927832031
 30
0.0
 11
124.9385
 21
551.368927832031
 31
0.0
100
AcDbText
 73
  1
 0
TEXT
 5
6C0
100
AcDbEntity
 8
Layer8
100
AcDbText
 40
8.8
 41
0.61000
 72
0
 50
-270
  1
3
  7
STANDARD
 10
111.3389
 20
528.811827832031
 30
0.0
 11
111.3389
 21
528.811827832031
 31
0.0
100
AcDbText
 73
  1
 0
TEXT
 5
6C1
100
AcDbEntity
 8
Layer8
100
AcDbText
 40
8.8
 41
0.61000
 72
0
 50
-270
  1
82
  7
STANDARD
 10
38.6309
 20
405.211827832031
 30
0.0
 11
38.6309
 21
405.211827832031
 31
0.0
100
AcDbText
 73
  1
 0
TEXT
 5
6C2
100
AcDbEntity
 8
Layer8
100
AcDbText
 40
8.8
 41
0.61000
 72
0
 50
0
  1
Ø115
  7
STANDARD
 10
120.0664
 20
114.402627832031
 30
0.0
 11
120.0664
 21
114.402627832031
 31
0.0
100
AcDbText
 73
  1
 0
TEXT
 5
6C3
100
AcDbEntity
 8
Layer8
100
AcDbText
 40
9.6
 41
0.61000
 72
0
 50
0
  1
cable lenght 3,5m
  7
STANDARD
 10
82.2539
 20
74.9695278320312
 30
0.0
 11
82.2539
 21
74.9695278320312
 31
0.0
100
AcDbText
 73
  1
  0
ENDSEC
  0
SECTION
  2
OBJECTS
  0
DICTIONARY
  5
19
100
AcDbDictionary
  3
ACAD_GROUP
350
1A
  3
ACAD_MLINESTYLE
350
1B
  0
DICTIONARY
  5
1A
102
{ACAD_REACTORS
330
19
102
}
100
AcDbDictionary
  0
DICTIONARY
  5
1B
102
{ACAD_REACTORS
330
19
102
}
100
AcDbDictionary
  3
STANDARD
350
1C
  0
MLINESTYLE
  5
1C
102
{ACAD_REACTORS
330
1B
102
}
100
AcDbMlineStyle
  2
STANDARD
 70
     0
  3

 62
     0
 51
90.0
 52
90.0
 71
     2
 49
0.5
 62
   256
  6
BYLAYER
 49
-0.5
 62
   256
  6
BYLAYER
  0
ENDSEC
  0
EOF
