 999
SCAN2CAD Date : 01/26/16
 999
SCAN2CAD ScalePixelX : 1
 999
SCAN2CAD ScalePixelY : 1
 999
SCAN2CAD TileXOffset : 0
 999
SCAN2CAD TileYOffset : 0
 999
SCAN2CAD MeasureType : 1
 999
SCAN2CAD DotsPerInch : 0
 999
SCAN2CAD GeScalePixX : 1
 999
SCAN2CAD GeScalePixY : 1
 999
SCAN2CAD GeRasTiePtX : 0
 999
SCAN2CAD GeRasTiePtY : 0
 999
SCAN2CAD ScalRasDist : 1
 999
SCAN2CAD ScalVecDist : 1
 999
SCAN2CAD ScalUnitTyp : 0
 999
SCAN2CAD ScalDistFac : 1
 999
SCAN2CAD ScalAdjustX : 1
 999
SCAN2CAD ScalAdjustY : 1
 999
SCAN2CAD MeasureMeth : 1
 999
SCAN2CAD OgDrawScale : 1
 999
SCAN2CAD OgDrawUType : 0
 999
SCAN2CAD ToDrawScale : 1
 999
SCAN2CAD ToDrawUType : 0
  0
SECTION
  2
HEADER
  9
$ACADVER
  1
AC1014
  9
$ACADMAINTVER
 70
     0
  9
$DWGCODEPAGE
  3
ANSI_1252
  9
$INSBASE
 10
0.0
 20
0.0
 30
0.0
 9
$EXTMIN
 10
28.4712
 20
14.9038070800781
 30
0.0
 9
$EXTMAX
 10
205.9412
 20
296.653007080078
 30
0.0
 9
$LIMMIN
 10
0
 20
0
 9
$LIMMAX
 10
235
 20
325
  9
$ORTHOMODE
 70
     0
  9
$REGENMODE
 70
     1
  9
$FILLMODE
 70
     1
  9
$QTEXTMODE
 70
     0
  9
$MIRRTEXT
 70
     1
  9
$DRAGMODE
 70
     2
  9
$LTSCALE
 40
1.0
  9
$OSMODE
 70
     0
  9
$ATTMODE
 70
     1
  9
$TEXTSIZE
 40
0.2
  9
$TRACEWID
 40
0.05
  9
$TEXTSTYLE
  7
STANDARD
  9
$CLAYER
  8
0
  9
$CELTYPE
  6
CONTINUOUS
  9
$CECOLOR
 62
   256
  9
$CELTSCALE
 40
1.0
  9
$DELOBJ
 70
     1
  9
$DISPSILH
 70
     0
  9
$DIMSCALE
 40
1.0
  9
$DIMASZ
 40
0.18
  9
$DIMEXO
 40
0.0625
  9
$DIMDLI
 40
0.38
  9
$DIMRND
 40
0.0
  9
$DIMDLE
 40
0.0
  9
$DIMEXE
 40
0.18
  9
$DIMTP
 40
0.0
  9
$DIMTM
 40
0.0
  9
$DIMTXT
 40
0.18
  9
$DIMCEN
 40
0.09
  9
$DIMTSZ
 40
0.0
  9
$DIMTOL
 70
     0
  9
$DIMLIM
 70
     0
  9
$DIMTIH
 70
     1
  9
$DIMTOH
 70
     1
  9
$DIMSE1
 70
     0
  9
$DIMSE2
 70
     0
  9
$DIMTAD
 70
     0
  9
$DIMZIN
 70
     0
  9
$DIMBLK
  1

  9
$DIMASO
 70
     1
  9
$DIMSHO
 70
     1
  9
$DIMPOST
  1

  9
$DIMAPOST
  1

  9
$DIMALT
 70
     0
  9
$DIMALTD
 70
     2
  9
$DIMALTF
 40
25.4
  9
$DIMLFAC
 40
1.0
  9
$DIMTOFL
 70
     0
  9
$DIMTVP
 40
0.0
  9
$DIMTIX
 70
     0
  9
$DIMSOXD
 70
     0
  9
$DIMSAH
 70
     0
  9
$DIMBLK1
  1

  9
$DIMBLK2
  1

  9
$DIMSTYLE
  2
STANDARD
  9
$DIMCLRD
 70
     0
  9
$DIMCLRE
 70
     0
  9
$DIMCLRT
 70
     0
  9
$DIMTFAC
 40
1.0
  9
$DIMGAP
 40
0.09
  9
$DIMJUST
 70
     0
  9
$DIMSD1
 70
     0
  9
$DIMSD2
 70
     0
  9
$DIMTOLJ
 70
     1
  9
$DIMTZIN
 70
     0
  9
$DIMALTZ
 70
     0
  9
$DIMALTTZ
 70
     0
  9
$DIMFIT
 70
     3
  9
$DIMUPT
 70
     0
  9
$DIMUNIT
 70
     2
  9
$DIMDEC
 70
     4
  9
$DIMTDEC
 70
     4
  9
$DIMALTU
 70
     2
  9
$DIMALTTD
 70
     2
  9
$DIMTXSTY
  7
STANDARD
  9
$DIMAUNIT
 70
     0
  9
$LUNITS
 70
     2
  9
$LUPREC
 70
     4
  9
$SKETCHINC
 40
0.1
  9
$FILLETRAD
 40
0.0
  9
$AUNITS
 70
     0
  9
$AUPREC
 70
     0
  9
$MENU
  1
acad
  9
$ELEVATION
 40
0.0
  9
$PELEVATION
 40
0.0
  9
$THICKNESS
 40
0.0
  9
$LIMCHECK
 70
     0
  9
$BLIPMODE
 70
     1
  9
$CHAMFERA
 40
0.0
  9
$CHAMFERB
 40
0.0
  9
$CHAMFERC
 40
0.0
  9
$CHAMFERD
 40
0.0
  9
$SKPOLY
 70
     0
  9
$TDCREATE
 40
0.000000000
  9
$TDUPDATE
 40
0.000000000
  9
$TDINDWG
 40
0.0000000000
  9
$TDUSRTIMER
 40
0.0000000000
  9
$USRTIMER
 70
     1
  9
$ANGBASE
 50
0.0
  9
$ANGDIR
 70
     0
  9
$PDMODE
 70
     0
  9
$PDSIZE
 40
0.0
  9
$PLINEWID
 40
0.0
  9
$COORDS
 70
     0
  9
$SPLFRAME
 70
     0
  9
$SPLINETYPE
 70
     6
  9
$SPLINESEGS
 70
     8
  9
$ATTDIA
 70
     0
  9
$ATTREQ
 70
     1
  9
$HANDLING
 70
     1
  9
$HANDSEED
  5
      CC
  9
$SURFTAB1
 70
     6
  9
$SURFTAB2
 70
     6
  9
$SURFTYPE
 70
     6
  9
$SURFU
 70
     6
  9
$SURFV
 70
     6
  9
$UCSNAME
  2

  9
$UCSORG
 10
0.0
 20
0.0
 30
0.0
  9
$UCSXDIR
 10
1.0
 20
0.0
 30
0.0
  9
$UCSYDIR
 10
0.0
 20
1.0
 30
0.0
  9
$PUCSNAME
  2

  9
$PUCSORG
 10
0.0
 20
0.0
 30
0.0
  9
$PUCSXDIR
 10
1.0
 20
0.0
 30
0.0
  9
$PUCSYDIR
 10
0.0
 20
1.0
 30
0.0
  9
$USERI1
 70
     0
  9
$USERI2
 70
     0
  9
$USERI3
 70
     0
  9
$USERI4
 70
     0
  9
$USERI5
 70
     0
  9
$USERR1
 40
0.0
  9
$USERR2
 40
0.0
  9
$USERR3
 40
0.0
  9
$USERR4
 40
0.0
  9
$USERR5
 40
0.0
  9
$WORLDVIEW
 70
     1
  9
$SHADEDGE
 70
     3
  9
$SHADEDIF
 70
    70
  9
$TILEMODE
 70
     1
  9
$MAXACTVP
 70
    16
  9
$PINSBASE
 10
0.0
 20
0.0
 30
0.0
  9
$PLIMCHECK
 70
     0
 9
$PEXTMIN
 10
28.4712
 20
14.9038070800781
 30
0.0
 9
$PEXTMAX
 10
205.9412
 20
296.653007080078
 30
0.0
 9
$PLIMMIN
 10
0
 20
0
 9
$PLIMMAX
 10
235
 20
325
  9
$UNITMODE
 70
     0
  9
$VISRETAIN
 70
     0
  9
$PLINEGEN
 70
     1
  9
$PSLTSCALE
 70
     0
  9
$TREEDEPTH
 70
  3020
  9
$PICKSTYLE
 70
     1
  9
$CMLSTYLE
  2
STANDARD
  9
$CMLJUST
 70
     0
  9
$CMLSCALE
 40
1.0
  9
$PROXYGRAPHICS
 70
     0
  9
$MEASUREMENT
 70
     0
  0
ENDSEC
  0
SECTION
  2
CLASSES
  0
CLASS
  1
LWPOLYLINE
  2
AcDbPolyline
  3
"AutoCAD"
 90
        0
280
     0
281
     1
  0
CLASS
  1
IMAGE
  2
AcDbRasterImage
  3
ISM
 90
      127
280
     0
281
     1
  0
CLASS
  1
OLE2FRAME
  2
AcDbOle2Frame
  3
""
 90
        0
280
     0
281
     1
  0
CLASS
  1
HATCH
  2
AcDbHatch
  3
"ACAD_SEDONA"
 90
        0
280
     0
281
     1
  0
CLASS
  1
DICTIONARYVAR
  2
AcDbDictionaryVar
  3
"AutoCAD"
 90
        0
280
     0
281
     0
  0
CLASS
  1
RASTERVARIABLES
  2
AcDbRasterVariables
  3
ISM
 90
        0
280
     0
281
     0
  0
CLASS
  1
IMAGEDEF
  2
AcDbRasterImageDef
  3
ISM
 90
        0
280
     0
281
     0
  0
CLASS
  1
IMAGEDEF_REACTOR
  2
AcDbRasterImageDefReactor
  3
ISM
 90
        1
280
     0
281
     0
  0
CLASS
  1
IDBUFFER
  2
AcDbIdBuffer
  3
"Acad"
 90
        0
280
     0
281
     0
  0
CLASS
  1
SPATIAL_FILTER
  2
AcDbSpatialFilter
  3
"Acad"
 90
        0
280
     0
281
     0
  0
CLASS
  1
XRECORD
  2
AcDbXrecord
  3
"<Built In>"
 90
        0
280
     0
281
     0
  0
CLASS
  1
SORTENTSTABLE
  2
AcDbSortentsTable
  3
"AutoCAD"
 90
        0
280
     0
281
     0
  0
CLASS
  1
LAYER_INDEX
  2
AcDbLayerIndex
  3
"Acad"
 90
        0
280
     0
281
     0
  0
CLASS
  1
SPATIAL_INDEX
  2
AcDbSpatialIndex
  3
"Acad"
 90
        0
280
     0
281
     0
  0
CLASS
  1
OBJECT_PTR
  2
CAseDLPNTableRecord
  3
"ASE-LPNTableRecord"
 90
        1
280
     0
281
     0
  0
ENDSEC
  0
SECTION
  2
TABLES
  0
TABLE
  2
VPORT
  5
7
100
AcDbSymbolTable
 70
     1
  0
VPORT
  5
15
100
AcDbSymbolTableRecord
100
AcDbViewportTableRecord
 2
*ACTIVE
 70
     0
 10
0
 20
0
 11
1.0
 21
1.0
 12
0.0
 22
0.0
 13
0.0
 23
0.0
 14
1.0
 24
1.0
 15
0.0
 25
0.0
 16
0.0
 26
0.0
 36
1.0
 17
117.2062
 27
155.778407080078
 37
0.0
 40
285.7492
 41
0.63506739476436
 42
50.0
 43
0.0
 44
0.0
 50
0.0
 51
0.0
 71
     0
 72
   100
 73
     1
 74
     1
 75
     0
 76
     0
 77
     0
 78
     0
   0
ENDTAB
  0
TABLE
  2
LTYPE
  5
4
100
AcDbSymbolTable
 70
3
  0
LTYPE
  5
11
100
AcDbSymbolTableRecord
100
AcDbLinetypeTableRecord
  2
BYBLOCK
 70
     0
  3

 72
    65
 73
     0
 40
0.0
  0
LTYPE
  5
12
100
AcDbSymbolTableRecord
100
AcDbLinetypeTableRecord
  2
BYLAYER
 70
     0
  3

 72
    65
 73
     0
 40
0.0
  0
LTYPE
  5
80
330
5
100
AcDbSymbolTableRecord
100
AcDbLinetypeTableRecord
  2
CONTINUOUS
 70
     0
  3
Continuous
 72
    65
 73
     0
 40
0.0
  0
LTYPE
  5
81
330
5
100
AcDbSymbolTableRecord
100
AcDbLinetypeTableRecord
  2
DASH
 70
     0
  3
Dash
 72
    65
 73
     2
 40
48.0
 49
24.0
 74
     0
 49
-24.0
 74
     0
  0
LTYPE
  5
82
330
5
100
AcDbSymbolTableRecord
100
AcDbLinetypeTableRecord
  2
DASHDOT
 70
     0
  3
DashDot
 72
    65
 73
     4
 40
48.0
 49
24.0
 74
     0
 49
 -12.0
 74
     0
 49
0.0
 74
     0
 49
 -12.0
 74
     0	
  0
ENDTAB
  0
TABLE
  2
LAYER
  5
2
100
AcDbSymbolTable
 70
4              
  0
LAYER
  5
83
100
AcDbSymbolTableRecord
100
AcDbLayerTableRecord
  2
0
 70
     0
 62
     7
  6
CONTINUOUS
 0
LAYER
  5
84
100
AcDbSymbolTableRecord
100
AcDbLayerTableRecord
 2
Layer0
 70
 64
 62
 7
 6
CONTINUOUS
 0
LAYER
  5
85
100
AcDbSymbolTableRecord
100
AcDbLayerTableRecord
 2
Layer8
 70
 64
 62
 8
 6
CONTINUOUS
 0
LAYER
  5
86
100
AcDbSymbolTableRecord
100
AcDbLayerTableRecord
 2
Layer22
 70
 64
 62
 22
 6
CONTINUOUS
  0
ENDTAB
  0
TABLE
  2
STYLE
  5
3
100
AcDbSymbolTable
 70
1              
 0
STYLE
 5
17
100
AcDbSymbolTableRecord
100
AcDbTextStyleTableRecord
 2
STANDARD
 70
 0
 40
 0.0
 41
 1.0
 50
 0.0
 71
  0
 42
 8.0
 3
 txt
 4

  0
ENDTAB
  0
TABLE
  2
VIEW
  5
5
100
AcDbSymbolTable
 70
     0
  0
ENDTAB
  0
TABLE
  2
UCS
  5
6
100
AcDbSymbolTable
 70
     0
  0
ENDTAB
  0
TABLE
  2
APPID
  5
8
100
AcDbSymbolTable
 70
     1
  0
APPID
  5
16
100
AcDbSymbolTableRecord
100
AcDbRegAppTableRecord
  2
ACAD
 70
     0
  0
ENDTAB
  0
TABLE
  2
DIMSTYLE
  5
9
100
AcDbSymbolTable
 70
     1
  0
DIMSTYLE
105
18
100
AcDbSymbolTableRecord
100
AcDbDimStyleTableRecord
  2
STANDARD
 70
     0
  3

  4

  5

  6

  7

 40
1.0
 41
0.18
 42
0.0625
 43
0.38
 44
0.18
 45
0.0
 46
0.0
 47
0.0
 48
0.0
140
0.18
141
0.09
142
0.0
143
25.4
144
1.0
145
0.0
146
1.0
147
0.09
 71
     0
 72
     0
 73
     1
 74
     1
 75
     0
 76
     0
 77
     0
 78
     0
170
     0
171
     2
172
     0
173
     0
174
     0
175
     0
176
     0
177
     0
178
     0
270
     2
271
     4
272
     4
273
     2
274
     2
340
17
275
     0
280
     0
281
     0
282
     0
283
     1
284
     0
285
     0
286
     0
287
     0
288
     0
  0
ENDTAB
  0
TABLE
  2
BLOCK_RECORD
  5
1
100
AcDbSymbolTable
 70
     0
  0
BLOCK_RECORD
  5
A
100
AcDbSymbolTableRecord
100
AcDbBlockTableRecord
  2
*MODEL_SPACE
  0
BLOCK_RECORD
  5
B
100
AcDbSymbolTableRecord
100
AcDbBlockTableRecord
  2
*PAPER_SPACE
  0
ENDTAB
  0
ENDSEC
  0
SECTION
  2
BLOCKS
  0
BLOCK
  5
D
100
AcDbEntity
  8
0
100
AcDbBlockBegin
  2
*MODEL_SPACE
 70
     0
 10
0.0
 20
0.0
 30
0.0
  3
*MODEL_SPACE
  1

  0
ENDBLK
  5
E
100
AcDbEntity
  8
0
100
AcDbBlockEnd
  0
BLOCK
  5
F
100
AcDbEntity
 67
     1
  8
0
100
AcDbBlockBegin
  2
*PAPER_SPACE
 70
     0
 10
0.0
 20
0.0
 30
0.0
  3
*PAPER_SPACE
  1

  0
ENDBLK
  5
10
100
AcDbEntity
 67
     1
  8
0
100
AcDbBlockEnd
 0
ENDSEC
 0
SECTION
 2
ENTITIES
 0
HATCH
 5
87
100
AcDbEntity
 8
Layer8
100
AcDbHatch
 10
 0.0
 20
 0.0
 30
 0.0
 210
 0.0
 220
 0.0
 230
 1.0
 2
SOLID
 70
 1
 71
 1
 91
2              
 92
 0
 93
122            
 72
 1
 10
194.4217
 20
197.791107080078
 11
194.432010546875
 21
198.007579736328
 72
 1
 10
194.432010546875
 20
198.007579736328
 11
194.462934375
 21
198.213013330078
 72
 1
 10
194.462934375
 20
198.213013330078
 11
194.514459765625
 21
198.407431298828
 72
 1
 10
194.514459765625
 20
198.407431298828
 11
194.586575
 21
198.590857080078
 72
 1
 10
194.586575
 20
198.590857080078
 11
194.679268359375
 21
198.763314111328
 72
 1
 10
194.679268359375
 20
198.763314111328
 11
194.792528125
 21
198.924825830078
 72
 1
 10
194.792528125
 20
198.924825830078
 11
194.926342578125
 21
199.075415673828
 72
 1
 10
194.926342578125
 20
199.075415673828
 11
195.0807
 21
199.215107080078
 72
 1
 10
195.0807
 20
199.215107080078
 11
195.252932421875
 21
199.340872705078
 72
 1
 10
195.252932421875
 20
199.340872705078
 11
195.441934375
 21
199.452669580078
 72
 1
 10
195.441934375
 20
199.452669580078
 11
195.647787890625
 21
199.550497705078
 72
 1
 10
195.647787890625
 20
199.550497705078
 11
195.870575
 21
199.634357080078
 72
 1
 10
195.870575
 20
199.634357080078
 11
196.110377734375
 21
199.704247705078
 72
 1
 10
196.110377734375
 20
199.704247705078
 11
196.367278125
 21
199.760169580078
 72
 1
 10
196.367278125
 20
199.760169580078
 11
196.641358203125
 21
199.802122705078
 72
 1
 10
196.641358203125
 20
199.802122705078
 11
196.9327
 21
199.830107080078
 72
 1
 10
196.9327
 20
199.830107080078
 11
196.9327
 21
198.963107080078
 72
 1
 10
196.9327
 20
198.963107080078
 11
196.761674609375
 21
198.946001611328
 72
 1
 10
196.761674609375
 20
198.946001611328
 11
196.600434375
 21
198.920950830078
 72
 1
 10
196.600434375
 20
198.920950830078
 11
196.449108203125
 21
198.887978173828
 72
 1
 10
196.449108203125
 20
198.887978173828
 11
196.307825
 21
198.847107080078
 72
 1
 10
196.307825
 20
198.847107080078
 11
196.176713671875
 21
198.798360986328
 72
 1
 10
196.176713671875
 20
198.798360986328
 11
196.055903125
 21
198.741763330078
 72
 1
 10
196.055903125
 20
198.741763330078
 11
195.945522265625
 21
198.677337548828
 72
 1
 10
195.945522265625
 20
198.677337548828
 11
195.8457
 21
198.605107080078
 72
 1
 10
195.8457
 20
198.605107080078
 11
195.754838671875
 21
198.525218408203
 72
 1
 10
195.754838671875
 20
198.525218408203
 11
195.676434375
 21
198.439247705078
 72
 1
 10
195.676434375
 20
198.439247705078
 11
195.610381640625
 21
198.347112939453
 72
 1
 10
195.610381640625
 20
198.347112939453
 11
195.556575
 21
198.248732080078
 72
 1
 10
195.556575
 20
198.248732080078
 11
195.514908984375
 21
198.144023095703
 72
 1
 10
195.514908984375
 20
198.144023095703
 11
195.485278125
 21
198.032903955078
 72
 1
 10
195.485278125
 20
198.032903955078
 11
195.467576953125
 21
197.915292626953
 72
 1
 10
195.467576953125
 20
197.915292626953
 11
195.4617
 21
197.791107080078
 72
 1
 10
195.4617
 20
197.791107080078
 11
195.477643359375
 21
197.587484033203
 72
 1
 10
195.477643359375
 20
197.587484033203
 11
195.525496875
 21
197.396622705078
 72
 1
 10
195.525496875
 20
197.396622705078
 11
195.605295703125
 21
197.218534814453
 72
 1
 10
195.605295703125
 20
197.218534814453
 11
195.717075
 21
197.053232080078
 72
 1
 10
195.717075
 20
197.053232080078
 11
195.860869921875
 21
196.900726220703
 72
 1
 10
195.860869921875
 20
196.900726220703
 11
196.036715625
 21
196.761028955078
 72
 1
 10
196.036715625
 20
196.761028955078
 11
196.244647265625
 21
196.634152001953
 72
 1
 10
196.244647265625
 20
196.634152001953
 11
196.4847
 21
196.520107080078
 72
 1
 10
196.4847
 20
196.520107080078
 11
196.721698046875
 21
196.429962548828
 72
 1
 10
196.721698046875
 20
196.429962548828
 11
196.981184375
 21
196.350763330078
 72
 1
 10
196.981184375
 20
196.350763330078
 11
197.263147265625
 21
196.282485986328
 72
 1
 10
197.263147265625
 20
196.282485986328
 11
197.567575
 21
196.225107080078
 72
 1
 10
197.567575
 20
196.225107080078
 11
197.894455859375
 21
196.178603173828
 72
 1
 10
197.894455859375
 20
196.178603173828
 11
198.243778125
 21
196.142950830078
 72
 1
 10
198.243778125
 20
196.142950830078
 11
198.615530078125
 21
196.118126611328
 72
 1
 10
198.615530078125
 20
196.118126611328
 11
199.0097
 21
196.104107080078
 72
 1
 10
199.0097
 20
196.104107080078
 11
198.9217
 21
196.150107080078
 72
 1
 10
198.9217
 20
196.150107080078
 11
198.66923515625
 21
196.311304345703
 72
 1
 10
198.66923515625
 20
196.311304345703
 11
198.45035625
 21
196.485122705078
 72
 1
 10
198.45035625
 20
196.485122705078
 11
198.26508671875
 21
196.671527001953
 72
 1
 10
198.26508671875
 20
196.671527001953
 11
198.11345
 21
196.870482080078
 72
 1
 10
198.11345
 20
196.870482080078
 11
197.99546953125
 21
197.081952783203
 72
 1
 10
197.99546953125
 20
197.081952783203
 11
197.91116875
 21
197.305903955078
 72
 1
 10
197.91116875
 20
197.305903955078
 11
197.86057109375
 21
197.542300439453
 72
 1
 10
197.86057109375
 20
197.542300439453
 11
197.8437
 21
197.791107080078
 72
 1
 10
197.8437
 20
197.791107080078
 11
197.856873828125
 21
198.020189111328
 72
 1
 10
197.856873828125
 20
198.020189111328
 11
197.896403125
 21
198.239450830078
 72
 1
 10
197.896403125
 20
198.239450830078
 11
197.962299609375
 21
198.448915673828
 72
 1
 10
197.962299609375
 20
198.448915673828
 11
198.054575
 21
198.648607080078
 72
 1
 10
198.054575
 20
198.648607080078
 11
198.173241015625
 21
198.838548486328
 72
 1
 10
198.173241015625
 20
198.838548486328
 11
198.318309375
 21
199.018763330078
 72
 1
 10
198.318309375
 20
199.018763330078
 11
198.489791796875
 21
199.189275048828
 72
 1
 10
198.489791796875
 20
199.189275048828
 11
198.6877
 21
199.350107080078
 72
 1
 10
198.6877
 20
199.350107080078
 11
198.904069140625
 21
199.495366845703
 72
 1
 10
198.904069140625
 20
199.495366845703
 11
199.133903125
 21
199.621372705078
 72
 1
 10
199.133903125
 20
199.621372705078
 11
199.377166796875
 21
199.728089501953
 72
 1
 10
199.377166796875
 20
199.728089501953
 11
199.633825
 21
199.815482080078
 72
 1
 10
199.633825
 20
199.815482080078
 11
199.903842578125
 21
199.883515283203
 72
 1
 10
199.903842578125
 20
199.883515283203
 11
200.187184375
 21
199.932153955078
 72
 1
 10
200.187184375
 20
199.932153955078
 11
200.483815234375
 21
199.961362939453
 72
 1
 10
200.483815234375
 20
199.961362939453
 11
200.7937
 21
199.971107080078
 72
 1
 10
200.7937
 20
199.971107080078
 11
201.132655078125
 21
199.961362939453
 72
 1
 10
201.132655078125
 20
199.961362939453
 11
201.457278125
 21
199.932153955078
 72
 1
 10
201.457278125
 20
199.932153955078
 11
201.767580859375
 21
199.883515283203
 72
 1
 10
201.767580859375
 20
199.883515283203
 11
202.063575
 21
199.815482080078
 72
 1
 10
202.063575
 20
199.815482080078
 11
202.345272265625
 21
199.728089501953
 72
 1
 10
202.345272265625
 20
199.728089501953
 11
202.612684375
 21
199.621372705078
 72
 1
 10
202.612684375
 20
199.621372705078
 11
202.865823046875
 21
199.495366845703
 72
 1
 10
202.865823046875
 20
199.495366845703
 11
203.1047
 21
199.350107080078
 72
 1
 10
203.1047
 20
199.350107080078
 11
203.32121953125
 21
199.189275048828
 72
 1
 10
203.32121953125
 20
199.189275048828
 11
203.50879375
 21
199.018763330078
 72
 1
 10
203.50879375
 20
199.018763330078
 11
203.66744609375
 21
198.838548486328
 72
 1
 10
203.66744609375
 20
198.838548486328
 11
203.7972
 21
198.648607080078
 72
 1
 10
203.7972
 20
198.648607080078
 11
203.89807890625
 21
198.448915673828
 72
 1
 10
203.89807890625
 20
198.448915673828
 11
203.97010625
 21
198.239450830078
 72
 1
 10
203.97010625
 20
198.239450830078
 11
204.01330546875
 21
198.020189111328
 72
 1
 10
204.01330546875
 20
198.020189111328
 11
204.0277
 21
197.791107080078
 72
 1
 10
204.0277
 20
197.791107080078
 11
204.00960234375
 21
197.486456689453
 72
 1
 10
204.00960234375
 20
197.486456689453
 11
203.95529375
 21
197.200966455078
 72
 1
 10
203.95529375
 20
197.200966455078
 11
203.86475078125
 21
196.934577783203
 72
 1
 10
203.86475078125
 20
196.934577783203
 11
203.73795
 21
196.687232080078
 72
 1
 10
203.73795
 20
196.687232080078
 11
203.57486796875
 21
196.458870751953
 72
 1
 10
203.57486796875
 20
196.458870751953
 11
203.37548125
 21
196.249435205078
 72
 1
 10
203.37548125
 20
196.249435205078
 11
203.13976640625
 21
196.058866845703
 72
 1
 10
203.13976640625
 20
196.058866845703
 11
202.8677
 21
195.887107080078
 72
 1
 10
202.8677
 20
195.887107080078
 11
202.560053515625
 21
195.734528955078
 72
 1
 10
202.560053515625
 20
195.734528955078
 11
202.219090625
 21
195.602294580078
 72
 1
 10
202.219090625
 20
195.602294580078
 11
201.844776171875
 21
195.490403955078
 72
 1
 10
201.844776171875
 20
195.490403955078
 11
201.437075
 21
195.398857080078
 72
 1
 10
201.437075
 20
195.398857080078
 11
200.995951953125
 21
195.327653955078
 72
 1
 10
200.995951953125
 20
195.327653955078
 11
200.521371875
 21
195.276794580078
 72
 1
 10
200.521371875
 20
195.276794580078
 11
200.013299609375
 21
195.246278955078
 72
 1
 10
200.013299609375
 20
195.246278955078
 11
199.4717
 21
195.236107080078
 72
 1
 10
199.4717
 20
195.236107080078
 11
198.870893359375
 21
195.246290673828
 72
 1
 10
198.870893359375
 20
195.246290673828
 11
198.307434375
 21
195.276888330078
 72
 1
 10
198.307434375
 20
195.276888330078
 11
197.781264453125
 21
195.327970361328
 72
 1
 10
197.781264453125
 20
195.327970361328
 11
197.292325
 21
195.399607080078
 72
 1
 10
197.292325
 20
195.399607080078
 11
196.840557421875
 21
195.491868798828
 72
 1
 10
196.840557421875
 20
195.491868798828
 11
196.425903125
 21
195.604825830078
 72
 1
 10
196.425903125
 20
195.604825830078
 11
196.048303515625
 21
195.738548486328
 72
 1
 10
196.048303515625
 20
195.738548486328
 11
195.7077
 21
195.893107080078
 72
 1
 10
195.7077
 20
195.893107080078
 11
195.406963671875
 21
196.064855126953
 72
 1
 10
195.406963671875
 20
196.064855126953
 11
195.146059375
 21
196.255341455078
 72
 1
 10
195.146059375
 20
196.255341455078
 11
194.925069140625
 21
196.464554345703
 72
 1
 10
194.925069140625
 20
196.464554345703
 11
194.744075
 21
196.692482080078
 72
 1
 10
194.744075
 20
196.692482080078
 11
194.603158984375
 21
196.939112939453
 72
 1
 10
194.603158984375
 20
196.939112939453
 11
194.502403125
 21
197.204435205078
 72
 1
 10
194.502403125
 20
197.204435205078
 11
194.441889453125
 21
197.488437158203
 72
 1
 10
194.441889453125
 20
197.488437158203
 11
194.4217
 21
197.791107080078
 97
 1
 330
88
 92
 0
 93
64             
 72
 1
 10
200.8467
 20
196.238107080078
 11
201.07854765625
 21
196.244573876953
 72
 1
 10
201.07854765625
 20
196.244573876953
 11
201.29935625
 21
196.263966455078
 72
 1
 10
201.29935625
 20
196.263966455078
 11
201.50914921875
 21
196.296273095703
 72
 1
 10
201.50914921875
 20
196.296273095703
 11
201.70795
 21
196.341482080078
 72
 1
 10
201.70795
 20
196.341482080078
 11
201.89578203125
 21
196.399581689453
 72
 1
 10
201.89578203125
 20
196.399581689453
 11
202.07266875
 21
196.470560205078
 72
 1
 10
202.07266875
 20
196.470560205078
 11
202.23863359375
 21
196.554405908203
 72
 1
 10
202.23863359375
 20
196.554405908203
 11
202.3937
 21
196.651107080078
 72
 1
 10
202.3937
 20
196.651107080078
 11
202.533621875
 21
196.758413720703
 72
 1
 10
202.533621875
 20
196.758413720703
 11
202.6548875
 21
196.873372705078
 72
 1
 10
202.6548875
 20
196.873372705078
 11
202.757496875
 21
196.996042626953
 72
 1
 10
202.757496875
 20
196.996042626953
 11
202.84145
 21
197.126482080078
 72
 1
 10
202.84145
 20
197.126482080078
 11
202.906746875
 21
197.264749658203
 72
 1
 10
202.906746875
 20
197.264749658203
 11
202.9533875
 21
197.410903955078
 72
 1
 10
202.9533875
 20
197.410903955078
 11
202.981371875
 21
197.565003564453
 72
 1
 10
202.981371875
 20
197.565003564453
 11
202.9907
 21
197.727107080078
 72
 1
 10
202.9907
 20
197.727107080078
 11
202.981371875
 21
197.870814111328
 72
 1
 10
202.981371875
 20
197.870814111328
 11
202.9533875
 21
198.007888330078
 72
 1
 10
202.9533875
 20
198.007888330078
 11
202.906746875
 21
198.138259423828
 72
 1
 10
202.906746875
 20
198.138259423828
 11
202.84145
 21
198.261857080078
 72
 1
 10
202.84145
 20
198.261857080078
 11
202.757496875
 21
198.378610986328
 72
 1
 10
202.757496875
 20
198.378610986328
 11
202.6548875
 21
198.488450830078
 72
 1
 10
202.6548875
 20
198.488450830078
 11
202.533621875
 21
198.591306298828
 72
 1
 10
202.533621875
 20
198.591306298828
 11
202.3937
 21
198.687107080078
 72
 1
 10
202.3937
 20
198.687107080078
 11
202.23863359375
 21
198.773921533203
 72
 1
 10
202.23863359375
 20
198.773921533203
 11
202.07266875
 21
198.849122705078
 72
 1
 10
202.07266875
 20
198.849122705078
 11
201.89578203125
 21
198.912722314453
 72
 1
 10
201.89578203125
 20
198.912722314453
 11
201.70795
 21
198.964732080078
 72
 1
 10
201.70795
 20
198.964732080078
 11
201.50914921875
 21
199.005163720703
 72
 1
 10
201.50914921875
 20
199.005163720703
 11
201.29935625
 21
199.034028955078
 72
 1
 10
201.29935625
 20
199.034028955078
 11
201.07854765625
 21
199.051339501953
 72
 1
 10
201.07854765625
 20
199.051339501953
 11
200.8467
 21
199.057107080078
 72
 1
 10
200.8467
 20
199.057107080078
 11
200.6332625
 21
199.051200830078
 72
 1
 10
200.6332625
 20
199.051200830078
 11
200.4301375
 21
199.033482080078
 72
 1
 10
200.4301375
 20
199.033482080078
 11
200.23723125
 21
199.003950830078
 72
 1
 10
200.23723125
 20
199.003950830078
 11
200.05445
 21
198.962607080078
 72
 1
 10
200.05445
 20
198.962607080078
 11
199.8817
 21
198.909450830078
 72
 1
 10
199.8817
 20
198.909450830078
 11
199.7188875
 21
198.844482080078
 72
 1
 10
199.7188875
 20
198.844482080078
 11
199.56591875
 21
198.767700830078
 72
 1
 10
199.56591875
 20
198.767700830078
 11
199.4227
 21
198.679107080078
 72
 1
 10
199.4227
 20
198.679107080078
 11
199.29592265625
 21
198.581183251953
 72
 1
 10
199.29592265625
 20
198.581183251953
 11
199.18566875
 21
198.476403955078
 72
 1
 10
199.18566875
 20
198.476403955078
 11
199.09205546875
 21
198.364757470703
 72
 1
 10
199.09205546875
 20
198.364757470703
 11
199.0152
 21
198.246232080078
 72
 1
 10
199.0152
 20
198.246232080078
 11
198.95521953125
 21
198.120816064453
 72
 1
 10
198.95521953125
 20
198.120816064453
 11
198.91223125
 21
197.988497705078
 72
 1
 10
198.91223125
 20
197.988497705078
 11
198.88635234375
 21
197.849265283203
 72
 1
 10
198.88635234375
 20
197.849265283203
 11
198.8777
 21
197.703107080078
 72
 1
 10
198.8777
 20
197.703107080078
 11
198.88635234375
 21
197.544398095703
 72
 1
 10
198.88635234375
 20
197.544398095703
 11
198.91223125
 21
197.393060205078
 72
 1
 10
198.91223125
 20
197.393060205078
 11
198.95521953125
 21
197.249152001953
 72
 1
 10
198.95521953125
 20
197.249152001953
 11
199.0152
 21
197.112732080078
 72
 1
 10
199.0152
 20
197.112732080078
 11
199.09205546875
 21
196.983859033203
 72
 1
 10
199.09205546875
 20
196.983859033203
 11
199.18566875
 21
196.862591455078
 72
 1
 10
199.18566875
 20
196.862591455078
 11
199.29592265625
 21
196.748987939453
 72
 1
 10
199.29592265625
 20
196.748987939453
 11
199.4227
 21
196.643107080078
 72
 1
 10
199.4227
 20
196.643107080078
 11
199.56591875
 21
196.548185205078
 72
 1
 10
199.56591875
 20
196.548185205078
 11
199.7188875
 21
196.465919580078
 72
 1
 10
199.7188875
 20
196.465919580078
 11
199.8817
 21
196.396310205078
 72
 1
 10
199.8817
 20
196.396310205078
 11
200.05445
 21
196.339357080078
 72
 1
 10
200.05445
 20
196.339357080078
 11
200.23723125
 21
196.295060205078
 72
 1
 10
200.23723125
 20
196.295060205078
 11
200.4301375
 21
196.263419580078
 72
 1
 10
200.4301375
 20
196.263419580078
 11
200.6332625
 21
196.244435205078
 72
 1
 10
200.6332625
 20
196.244435205078
 11
200.8467
 21
196.238107080078
 97
 1
 330
89
 75
 0
 76
 1
 98
 1
 10
 0.0
 20
 0.0
 0
HATCH
 5
8A
100
AcDbEntity
 8
Layer8
100
AcDbHatch
 10
 0.0
 20
 0.0
 30
 0.0
 210
 0.0
 220
 0.0
 230
 1.0
 2
SOLID
 70
 1
 71
 1
 91
2              
 92
 0
 93
13             
 72
 1
 10
201.534
 20
200.580107080078
 11
200.97
 21
200.580107080078
 72
 1
 10
200.97
 20
200.580107080078
 11
200.401
 21
200.580107080078
 72
 1
 10
200.401
 20
200.580107080078
 11
194.422
 21
203.732107080078
 72
 1
 10
194.422
 20
203.732107080078
 11
194.422
 21
204.119107080078
 72
 1
 10
194.422
 20
204.119107080078
 11
194.422
 21
204.506107080078
 72
 1
 10
194.422
 20
204.506107080078
 11
200.542
 21
204.506107080078
 72
 1
 10
200.542
 20
204.506107080078
 11
200.542
 21
205.490107080078
 72
 1
 10
200.542
 20
205.490107080078
 11
201.534
 21
205.490107080078
 72
 1
 10
201.534
 20
205.490107080078
 11
201.534
 21
204.506107080078
 72
 1
 10
201.534
 20
204.506107080078
 11
203.782
 21
204.506107080078
 72
 1
 10
203.782
 20
204.506107080078
 11
203.782
 21
203.633107080078
 72
 1
 10
203.782
 20
203.633107080078
 11
201.534
 21
203.633107080078
 72
 1
 10
201.534
 20
203.633107080078
 11
201.534
 21
200.580107080078
 97
 1
 330
8B
 92
 0
 93
4              
 72
 1
 10
200.542
 20
203.633107080078
 11
196.159
 21
203.633107080078
 72
 1
 10
196.159
 20
203.633107080078
 11
200.401
 21
201.456107080078
 72
 1
 10
200.401
 20
201.456107080078
 11
200.542
 21
201.380107080078
 72
 1
 10
200.542
 20
201.380107080078
 11
200.542
 21
203.633107080078
 97
 1
 330
8C
 75
 0
 76
 1
 98
 1
 10
 0.0
 20
 0.0
 0
LWPOLYLINE
 5
8D
100
AcDbEntity
 8
Layer8
100
AcDbPolyline
 39
0.25
 370
106
 90
5              
 70
 1
 43
0.0
 10
126.1662
 20
277.534007080078
 10
106.8042
 20
277.534007080078
 10
106.8042
 20
268.130007080078
 10
126.1662
 20
268.130007080078
 10
126.1662
 20
277.534007080078
 0
LWPOLYLINE
 5
8E
100
AcDbEntity
 8
Layer8
100
AcDbPolyline
 39
0.25
 370
106
 90
5              
 70
 1
 43
0.0
 10
126.1662
 20
286.939007080078
 10
106.8042
 20
286.939007080078
 10
106.8042
 20
277.535007080078
 10
126.1662
 20
277.535007080078
 10
126.1662
 20
286.939007080078
 0
LWPOLYLINE
 5
8F
100
AcDbEntity
 8
Layer8
100
AcDbPolyline
 39
0.25
 370
106
 90
5              
 70
 1
 43
0.0
 10
126.1662
 20
296.334007080078
 10
106.8042
 20
296.334007080078
 10
106.8042
 20
286.938007080078
 10
126.1662
 20
286.938007080078
 10
126.1662
 20
296.334007080078
 0
ARC
 5
90
100
AcDbEntity
 8
Layer8
100
AcDbCircle
 39
0.25
 370
106
 10
104.650419628564
 20
263.832925363771
 30
0.0
 40
4.28034438365312
100
AcDbArc
 50
-82.728337784353
 51
-25.4922795419201
 0
ARC
 5
91
100
AcDbEntity
 8
Layer8
100
AcDbCircle
 39
0.25
 370
106
 10
171.083053139385
 20
205.466613164587
 30
0.0
 40
4.52954573277109
100
AcDbArc
 50
-63.5272272225013
 51
5.43971950489178
 0
ARC
 5
92
100
AcDbEntity
 8
Layer8
100
AcDbCircle
 39
0.25
 370
106
 10
125.633466488903
 20
261.48541486022
 30
0.0
 40
1.20702204033001
100
AcDbArc
 50
141.244595268263
 51
-83.54772640411
 0
LINE
 5
93
100
AcDbEntity
 8
Layer8
100
AcDbLine
 39
0.25
 370
106
 10
125.76910625
 20
260.286038330078
 30
0.0
 11
136.264028125
 21
257.313147705078
 31
0.0
 0
LINE
 5
94
100
AcDbEntity
 8
Layer8
100
AcDbLine
 39
0.25
 370
106
 10
136.264028125
 20
257.313147705078
 30
0.0
 11
151.149325
 21
249.919132080078
 31
0.0
 0
LINE
 5
95
100
AcDbEntity
 8
Layer8
100
AcDbLine
 39
0.25
 370
106
 10
151.149325
 20
249.919132080078
 30
0.0
 11
166.353559375
 21
233.936303955078
 31
0.0
 0
LINE
 5
96
100
AcDbEntity
 8
Layer8
100
AcDbLine
 39
0.25
 370
106
 10
166.353559375
 20
233.936303955078
 30
0.0
 11
175.5922
 21
205.896007080078
 31
0.0
 0
LINE
 5
97
100
AcDbEntity
 8
Layer8
100
AcDbLine
 39
0.25
 370
106
 10
173.1022
 20
201.412007080078
 30
0.0
 11
60.0812
 21
201.412007080078
 31
0.0
 0
LINE
 5
98
100
AcDbEntity
 8
Layer8
100
AcDbLine
 39
0.25
 370
106
 10
60.0812
 20
201.412007080078
 30
0.0
 11
58.68098125
 21
202.105882080078
 31
0.0
 0
LINE
 5
99
100
AcDbEntity
 8
Layer8
100
AcDbLine
 39
0.25
 370
106
 10
58.68098125
 20
202.105882080078
 30
0.0
 11
57.95445
 21
203.636007080078
 31
0.0
 0
LINE
 5
9A
100
AcDbEntity
 8
Layer8
100
AcDbLine
 39
0.25
 370
106
 10
57.95445
 20
203.636007080078
 30
0.0
 11
57.5872
 21
205.896007080078
 31
0.0
 0
LINE
 5
9B
100
AcDbEntity
 8
Layer8
100
AcDbLine
 39
0.25
 370
106
 10
57.5872
 20
205.896007080078
 30
0.0
 11
66.823371875
 21
233.936303955078
 31
0.0
 0
LINE
 5
9C
100
AcDbEntity
 8
Layer8
100
AcDbLine
 39
0.25
 370
106
 10
66.823371875
 20
233.936303955078
 30
0.0
 11
82.026825
 21
249.919132080078
 31
0.0
 0
LINE
 5
9D
100
AcDbEntity
 8
Layer8
100
AcDbLine
 39
0.25
 370
106
 10
82.026825
 20
249.919132080078
 30
0.0
 11
96.911715625
 21
257.313147705078
 31
0.0
 0
LINE
 5
9E
100
AcDbEntity
 8
Layer8
100
AcDbLine
 39
0.25
 370
106
 10
96.911715625
 20
257.313147705078
 30
0.0
 11
105.1922
 21
259.587007080078
 31
0.0
 0
LINE
 5
9F
100
AcDbEntity
 8
Layer8
100
AcDbLine
 39
0.25
 370
106
 10
108.51404375
 20
261.990710205078
 30
0.0
 11
108.4882
 21
268.130007080078
 31
0.0
 0
LINE
 5
A0
100
AcDbEntity
 8
Layer8
100
AcDbLine
 39
0.25
 370
106
 10
108.4882
 20
268.130007080078
 30
0.0
 11
124.6922
 21
268.130007080078
 31
0.0
 0
LINE
 5
A1
100
AcDbEntity
 8
Layer8
100
AcDbLine
 39
0.25
 370
106
 10
124.6922
 20
268.130007080078
 30
0.0
 11
124.6922
 21
262.241007080078
 31
0.0
 0
LWPOLYLINE
 5
A2
100
AcDbEntity
 8
Layer8
100
AcDbPolyline
 39
0.25
 370
106
 90
5              
 70
 1
 43
0.0
 10
143.6152
 20
113.861007080078
 10
149.3012
 20
113.861007080078
 10
149.3012
 20
115.460007080078
 10
143.6152
 20
115.460007080078
 10
143.6152
 20
113.861007080078
 0
LWPOLYLINE
 5
A3
100
AcDbEntity
 8
Layer8
100
AcDbPolyline
 39
0.25
 370
106
 90
5              
 70
 1
 43
0.0
 10
96.8012
 20
113.861007080078
 10
102.4902
 20
113.861007080078
 10
102.4902
 20
115.460007080078
 10
96.8012
 20
115.460007080078
 10
96.8012
 20
113.861007080078
 0
LWPOLYLINE
 5
A4
100
AcDbEntity
 8
Layer8
100
AcDbPolyline
 39
0.25
 370
106
 90
5              
 70
 1
 43
0.0
 10
142.1092
 20
107.990007080078
 10
150.9852
 20
107.990007080078
 10
150.9852
 20
113.756007080078
 10
142.1092
 20
113.756007080078
 10
142.1092
 20
107.990007080078
 0
LWPOLYLINE
 5
A5
100
AcDbEntity
 8
Layer8
100
AcDbPolyline
 39
0.25
 370
106
 90
5              
 70
 1
 43
0.0
 10
142.1092
 20
113.756007080078
 10
48.0372
 20
113.756007080078
 10
48.0372
 20
108.043007080078
 10
142.1092
 20
108.043007080078
 10
142.1092
 20
113.756007080078
 0
LWPOLYLINE
 5
A6
100
AcDbEntity
 8
Layer8
100
AcDbPolyline
 39
0.25
 370
106
 90
5              
 70
 1
 43
0.0
 10
150.6702
 20
107.990007080078
 10
142.4702
 20
107.990007080078
 10
142.4702
 20
107.677007080078
 10
150.6702
 20
107.677007080078
 10
150.6702
 20
107.990007080078
 0
LWPOLYLINE
 5
A7
100
AcDbEntity
 8
Layer8
100
AcDbPolyline
 39
0.25
 370
106
 90
5              
 70
 1
 43
0.0
 10
120.1042
 20
107.990007080078
 10
105.3702
 20
107.990007080078
 10
105.3702
 20
107.677007080078
 10
120.1042
 20
107.677007080078
 10
120.1042
 20
107.990007080078
 0
LWPOLYLINE
 5
A8
100
AcDbEntity
 8
Layer8
100
AcDbPolyline
 39
0.25
 370
106
 90
5              
 70
 1
 43
0.0
 10
66.8012
 20
107.990007080078
 10
52.0652
 20
107.990007080078
 10
52.0652
 20
107.677007080078
 10
66.8012
 20
107.677007080078
 10
66.8012
 20
107.990007080078
 0
ARC
 5
A9
100
AcDbEntity
 8
Layer8
100
AcDbCircle
 39
0.25
 370
106
 10
91.8658128883575
 20
222.000595323736
 30
0.0
 40
57.7779045632507
100
AcDbArc
 50
113.499434718142
 51
-179.817943393595
 0
ARC
 5
AA
100
AcDbEntity
 8
Layer8
100
AcDbCircle
 39
0.25
 370
106
 10
91.8715030280955
 20
221.89955928848
 30
0.0
 40
63.3933567787591
100
AcDbArc
 50
102.493664988152
 51
-179.925388168292
 0
LINE
 5
AB
100
AcDbEntity
 8
Layer8
100
AcDbLine
 39
0.25
 370
106
 10
106.8172
 20
279.389007080078
 30
0.0
 11
90.2892
 21
279.389007080078
 31
0.0
 0
LINE
 5
AC
100
AcDbEntity
 8
Layer8
100
AcDbLine
 39
0.25
 370
106
 10
90.2892
 20
279.389007080078
 30
0.0
 11
79.27998125
 21
278.270960205078
 31
0.0
 0
LINE
 5
AD
100
AcDbEntity
 8
Layer8
100
AcDbLine
 39
0.25
 370
106
 10
79.27998125
 20
278.270960205078
 30
0.0
 11
68.82745
 21
274.986632080078
 31
0.0
 0
LINE
 5
AE
100
AcDbEntity
 8
Layer8
100
AcDbLine
 39
0.25
 370
106
 10
34.0882
 20
221.817007080078
 30
0.0
 11
34.0772
 21
177.611007080078
 31
0.0
 0
LINE
 5
AF
100
AcDbEntity
 8
Layer8
100
AcDbLine
 39
0.25
 370
106
 10
34.0772
 20
177.611007080078
 30
0.0
 11
38.500246875
 21
155.633491455078
 31
0.0
 0
LINE
 5
B0
100
AcDbEntity
 8
Layer8
100
AcDbLine
 39
0.25
 370
106
 10
38.500246875
 20
155.633491455078
 30
0.0
 11
50.554825
 21
137.666882080078
 31
0.0
 0
LINE
 5
B1
100
AcDbEntity
 8
Layer8
100
AcDbLine
 39
0.25
 370
106
 10
50.554825
 20
137.666882080078
 30
0.0
 11
68.419090625
 21
125.543335205078
 31
0.0
 0
LINE
 5
B2
100
AcDbEntity
 8
Layer8
100
AcDbLine
 39
0.25
 370
106
 10
68.419090625
 20
125.543335205078
 30
0.0
 11
90.2712
 21
121.095007080078
 31
0.0
 0
LINE
 5
B3
100
AcDbEntity
 8
Layer8
100
AcDbLine
 39
0.25
 370
106
 10
90.2712
 20
121.095007080078
 30
0.0
 11
150.9852
 21
121.095007080078
 31
0.0
 0
LINE
 5
B4
100
AcDbEntity
 8
Layer8
100
AcDbLine
 39
0.25
 370
106
 10
150.9852
 20
121.095007080078
 30
0.0
 11
150.9852
 21
115.460007080078
 31
0.0
 0
LINE
 5
B5
100
AcDbEntity
 8
Layer8
100
AcDbLine
 39
0.25
 370
106
 10
150.9852
 20
115.460007080078
 30
0.0
 11
90.2712
 21
115.460007080078
 31
0.0
 0
LINE
 5
B6
100
AcDbEntity
 8
Layer8
100
AcDbLine
 39
0.25
 370
106
 10
90.2712
 20
115.460007080078
 30
0.0
 11
66.239559375
 21
120.352163330078
 31
0.0
 0
LINE
 5
B7
100
AcDbEntity
 8
Layer8
100
AcDbLine
 39
0.25
 370
106
 10
66.239559375
 20
120.352163330078
 30
0.0
 11
46.593075
 21
133.685007080078
 31
0.0
 0
LINE
 5
B8
100
AcDbEntity
 8
Layer8
100
AcDbLine
 39
0.25
 370
106
 10
46.593075
 20
133.685007080078
 30
0.0
 11
33.335653125
 21
153.443100830078
 31
0.0
 0
LINE
 5
B9
100
AcDbEntity
 8
Layer8
100
AcDbLine
 39
0.25
 370
106
 10
33.335653125
 20
153.443100830078
 30
0.0
 11
28.4712
 21
177.611007080078
 31
0.0
 0
LINE
 5
BA
100
AcDbEntity
 8
Layer8
100
AcDbLine
 39
0.25
 370
106
 10
28.4712
 20
177.611007080078
 30
0.0
 11
28.4782
 21
221.817007080078
 31
0.0
 0
LINE
 5
BB
100
AcDbEntity
 8
Layer8
100
AcDbLine
 39
0.25
 370
106
 10
78.1575125
 20
283.791757080078
 30
0.0
 11
90.2892
 21
285.021007080078
 31
0.0
 0
LINE
 5
BC
100
AcDbEntity
 8
Layer8
100
AcDbLine
 39
0.25
 370
106
 10
90.2892
 20
285.021007080078
 30
0.0
 11
106.8172
 21
285.021007080078
 31
0.0
 0
LINE
 5
BD
100
AcDbEntity
 8
Layer8
100
AcDbLine
 39
0.25
 370
106
 10
106.8172
 20
285.021007080078
 30
0.0
 11
106.8172
 21
279.389007080078
 31
0.0
 0
LINE
 5
BE
100
AcDbEntity
 8
Layer8
100
AcDbLine
 39
0.25
 370
106
 10
205.9412
 20
107.480007080078
 30
0.0
 11
193.0202
 21
107.480007080078
 31
0.0
 0
LINE
 5
BF
100
AcDbEntity
 8
Layer8
100
AcDbLine
 39
0.25
 370
106
 10
205.9412
 20
296.653007080078
 30
0.0
 11
193.0202
 21
296.653007080078
 31
0.0
 0
LINE
 5
C0
100
AcDbEntity
 8
Layer8
100
AcDbLine
 39
0.25
 370
106
 10
150.7372
 20
84.7010070800781
 30
0.0
 11
150.7372
 21
75.2030070800782
 31
0.0
 0
HATCH
 5
C1
100
AcDbEntity
 8
Layer22
100
AcDbHatch
 10
 0.0
 20
 0.0
 30
 0.0
 210
 0.0
 220
 0.0
 230
 1.0
 2
SOLID
 70
 1
 71
 1
 91
1              
 92
 0
 93
42             
 72
 1
 10
32.9969
 20
15.2336070800781
 11
37.0349
 21
15.2336070800781
 72
 1
 10
37.0349
 20
15.2336070800781
 11
36.9139
 21
24.1146070800781
 72
 1
 10
36.9139
 20
24.1146070800781
 11
36.902788671875
 21
24.7963980957031
 72
 1
 10
36.902788671875
 20
24.7963980957031
 11
36.890259375
 21
25.5283102050781
 72
 1
 10
36.890259375
 20
25.5283102050781
 11
36.874894140625
 21
26.2931520019532
 72
 1
 10
36.874894140625
 20
26.2931520019532
 11
36.855275
 21
27.0737320800782
 72
 1
 10
36.855275
 20
27.0737320800782
 11
36.829983984375
 21
27.8528590332031
 72
 1
 10
36.829983984375
 20
27.8528590332031
 11
36.797603125
 21
28.6133414550782
 72
 1
 10
36.797603125
 20
28.6133414550782
 11
36.756714453125
 21
29.3379879394532
 72
 1
 10
36.756714453125
 20
29.3379879394532
 11
36.7059
 21
30.0096070800781
 72
 1
 10
36.7059
 20
30.0096070800781
 11
36.892023046875
 21
29.4537730957031
 72
 1
 10
36.892023046875
 20
29.4537730957031
 11
37.149759375
 21
28.7669352050781
 72
 1
 10
37.149759375
 20
28.7669352050781
 11
37.466909765625
 21
27.9722145019531
 72
 1
 10
37.466909765625
 20
27.9722145019531
 11
37.831275
 21
27.0927320800781
 72
 1
 10
37.831275
 20
27.0927320800781
 11
38.230655859375
 21
26.1516090332031
 72
 1
 10
38.230655859375
 20
26.1516090332031
 11
38.652853125
 21
25.1719664550781
 72
 1
 10
38.652853125
 20
25.1719664550781
 11
39.085667578125
 21
24.1769254394531
 72
 1
 10
39.085667578125
 20
24.1769254394531
 11
39.5169
 21
23.1896070800781
 72
 1
 10
39.5169
 20
23.1896070800781
 11
43.0769
 21
15.2336070800781
 72
 1
 10
43.0769
 20
15.2336070800781
 11
47.4429
 21
15.2336070800781
 72
 1
 10
47.4429
 20
15.2336070800781
 11
47.4429
 21
36.0196070800781
 72
 1
 10
47.4429
 20
36.0196070800781
 11
43.4649
 21
36.0196070800781
 72
 1
 10
43.4649
 20
36.0196070800781
 11
43.5549
 21
27.5256070800781
 72
 1
 10
43.5549
 20
27.5256070800781
 11
43.571249609375
 21
26.9343238769532
 72
 1
 10
43.571249609375
 20
26.9343238769532
 11
43.597571875
 21
26.2545289550781
 72
 1
 10
43.597571875
 20
26.2545289550781
 11
43.632401953125
 21
25.5129293457031
 72
 1
 10
43.632401953125
 20
25.5129293457031
 11
43.674275
 21
24.7362320800781
 72
 1
 10
43.674275
 20
24.7362320800781
 11
43.721726171875
 21
23.9511441894531
 72
 1
 10
43.721726171875
 20
23.9511441894531
 11
43.773290625
 21
23.1843727050781
 72
 1
 10
43.773290625
 20
23.1843727050781
 11
43.827503515625
 21
22.4626246582031
 72
 1
 10
43.827503515625
 20
22.4626246582031
 11
43.8829
 21
21.8126070800781
 72
 1
 10
43.8829
 20
21.8126070800781
 11
43.7082046875
 21
22.4042437988281
 72
 1
 10
43.7082046875
 20
22.4042437988281
 11
43.498775
 21
23.0527633300781
 72
 1
 10
43.498775
 20
23.0527633300781
 11
43.2563453125
 21
23.7504547363282
 72
 1
 10
43.2563453125
 20
23.7504547363282
 11
42.98265
 21
24.4896070800781
 72
 1
 10
42.98265
 20
24.4896070800781
 11
42.6794234375
 21
25.2625094238281
 72
 1
 10
42.6794234375
 20
25.2625094238281
 11
42.3484
 21
26.0614508300781
 72
 1
 10
42.3484
 20
26.0614508300781
 11
41.9913140625
 21
26.8787203613281
 72
 1
 10
41.9913140625
 20
26.8787203613281
 11
41.6099
 21
27.7066070800781
 72
 1
 10
41.6099
 20
27.7066070800781
 11
37.6339
 21
36.0196070800781
 72
 1
 10
37.6339
 20
36.0196070800781
 11
32.9969
 21
36.0196070800781
 72
 1
 10
32.9969
 20
36.0196070800781
 11
32.9969
 21
15.2336070800781
 97
 1
 330
C2
 75
 0
 76
 1
 98
 1
 10
 0.0
 20
 0.0
 0
HATCH
 5
C3
100
AcDbEntity
 8
Layer22
100
AcDbHatch
 10
 0.0
 20
 0.0
 30
 0.0
 210
 0.0
 220
 0.0
 230
 1.0
 2
SOLID
 70
 1
 71
 1
 91
1              
 92
 0
 93
12             
 72
 1
 10
49.951
 20
36.0199070800782
 11
49.951
 21
15.2339070800781
 72
 1
 10
49.951
 20
15.2339070800781
 11
62.065
 21
15.2339070800781
 72
 1
 10
62.065
 20
15.2339070800781
 11
62.065
 21
18.8229070800782
 72
 1
 10
62.065
 20
18.8229070800782
 11
54.2
 21
18.8229070800782
 72
 1
 10
54.2
 20
18.8229070800782
 11
54.2
 21
24.3849070800781
 72
 1
 10
54.2
 20
24.3849070800781
 11
60.09
 21
24.3849070800781
 72
 1
 10
60.09
 20
24.3849070800781
 11
60.09
 21
27.7959070800781
 72
 1
 10
60.09
 20
27.7959070800781
 11
54.138
 21
27.7959070800781
 72
 1
 10
54.138
 20
27.7959070800781
 11
54.138
 21
32.6099070800781
 72
 1
 10
54.138
 20
32.6099070800781
 11
61.256
 21
32.6099070800781
 72
 1
 10
61.256
 20
32.6099070800781
 11
61.795
 21
36.0199070800782
 72
 1
 10
61.795
 20
36.0199070800782
 11
49.951
 21
36.0199070800782
 97
 1
 330
C4
 75
 0
 76
 1
 98
 1
 10
 0.0
 20
 0.0
 0
HATCH
 5
C5
100
AcDbEntity
 8
Layer22
100
AcDbHatch
 10
 0.0
 20
 0.0
 30
 0.0
 210
 0.0
 220
 0.0
 230
 1.0
 2
SOLID
 70
 1
 71
 1
 91
1              
 92
 0
 93
49             
 72
 1
 10
63.6185
 20
15.2336070800781
 11
67.8355
 21
15.2336070800781
 72
 1
 10
67.8355
 20
15.2336070800781
 11
68.5525
 21
26.0906070800781
 72
 1
 10
68.5525
 20
26.0906070800781
 11
68.584498046875
 21
26.5673004394532
 72
 1
 10
68.584498046875
 20
26.5673004394532
 11
68.613484375
 21
27.0350289550781
 72
 1
 10
68.613484375
 20
27.0350289550781
 11
68.639072265625
 21
27.4958902832032
 72
 1
 10
68.639072265625
 20
27.4958902832032
 11
68.660875
 21
27.9519820800781
 72
 1
 10
68.660875
 20
27.9519820800781
 11
68.678505859375
 21
28.4054020019532
 72
 1
 10
68.678505859375
 20
28.4054020019532
 11
68.691578125
 21
28.8582477050782
 72
 1
 10
68.691578125
 20
28.8582477050782
 11
68.699705078125
 21
29.3126168457031
 72
 1
 10
68.699705078125
 20
29.3126168457031
 11
68.7025
 21
29.7706070800782
 72
 1
 10
68.7025
 20
29.7706070800782
 11
72.5015
 21
15.2336070800781
 72
 1
 10
72.5015
 20
15.2336070800781
 11
76.1805
 21
15.2336070800781
 72
 1
 10
76.1805
 20
15.2336070800781
 11
77.434603515625
 21
19.5995777832031
 72
 1
 10
77.434603515625
 20
19.5995777832031
 11
78.379953125
 21
22.8951227050781
 72
 1
 10
78.379953125
 20
22.8951227050781
 11
79.063857421875
 21
25.2891910644531
 72
 1
 10
79.063857421875
 20
25.2891910644531
 11
79.533625
 21
26.9507320800781
 72
 1
 10
79.533625
 20
26.9507320800781
 11
79.836564453125
 21
28.0486949707031
 72
 1
 10
79.836564453125
 20
28.0486949707031
 11
80.019984375
 21
28.7520289550781
 72
 1
 10
80.019984375
 20
28.7520289550781
 11
80.131193359375
 21
29.2296832519531
 72
 1
 10
80.131193359375
 20
29.2296832519531
 11
80.2175
 21
29.6506070800781
 72
 1
 10
80.2175
 20
29.6506070800781
 11
80.25862109375
 21
28.7130094238282
 72
 1
 10
80.25862109375
 20
28.7130094238282
 11
80.36703125
 21
26.9305133300781
 72
 1
 10
80.36703125
 20
26.9305133300781
 11
80.52030078125
 21
24.6020641113282
 72
 1
 10
80.52030078125
 20
24.6020641113282
 11
80.696
 21
22.0266070800781
 72
 1
 10
80.696
 20
22.0266070800781
 11
80.87169921875
 21
19.5030875488281
 72
 1
 10
80.87169921875
 20
19.5030875488281
 11
81.02496875
 21
17.3304508300781
 72
 1
 10
81.02496875
 20
17.3304508300781
 11
81.13337890625
 21
15.8076422363281
 72
 1
 10
81.13337890625
 20
15.8076422363281
 11
81.1745
 21
15.2336070800781
 72
 1
 10
81.1745
 20
15.2336070800781
 11
85.3025
 21
15.2336070800781
 72
 1
 10
85.3025
 20
15.2336070800781
 11
83.4485
 21
36.0196070800781
 72
 1
 10
83.4485
 20
36.0196070800781
 11
77.9745
 21
36.0196070800781
 72
 1
 10
77.9745
 20
36.0196070800781
 11
76.868662109375
 21
31.8908648925781
 72
 1
 10
76.868662109375
 20
31.8908648925781
 11
76.035109375
 21
28.7750445800781
 72
 1
 10
76.035109375
 20
28.7750445800781
 11
75.432158203125
 21
26.5130055175781
 72
 1
 10
75.432158203125
 20
26.5130055175781
 11
75.018125
 21
24.9456070800781
 72
 1
 10
75.018125
 20
24.9456070800781
 11
74.751326171875
 21
23.9137086425781
 72
 1
 10
74.751326171875
 20
23.9137086425781
 11
74.590078125
 21
23.2581695800781
 72
 1
 10
74.590078125
 20
23.2581695800781
 11
74.492697265625
 21
22.8198492675781
 72
 1
 10
74.492697265625
 20
22.8198492675781
 11
74.4175
 21
22.4396070800781
 72
 1
 10
74.4175
 20
22.4396070800781
 11
74.217634765625
 21
23.3326266113281
 72
 1
 10
74.217634765625
 20
23.3326266113281
 11
73.803328125
 21
25.0162633300781
 72
 1
 10
73.803328125
 20
25.0162633300781
 11
73.248888671875
 21
27.2101344238282
 72
 1
 10
73.248888671875
 20
27.2101344238282
 11
72.628625
 21
29.6338570800781
 72
 1
 10
72.628625
 20
29.6338570800781
 11
72.016845703125
 21
32.0070484863281
 72
 1
 10
72.016845703125
 20
32.0070484863281
 11
71.487859375
 21
34.0493258300781
 72
 1
 10
71.487859375
 20
34.0493258300781
 11
71.115974609375
 21
35.4803062988281
 72
 1
 10
71.115974609375
 20
35.4803062988281
 11
70.9755
 21
36.0196070800781
 72
 1
 10
70.9755
 20
36.0196070800781
 11
65.5635
 21
36.0196070800781
 72
 1
 10
65.5635
 20
36.0196070800781
 11
63.6185
 21
15.2336070800781
 97
 1
 330
C6
 75
 0
 76
 1
 98
 1
 10
 0.0
 20
 0.0
 0
HATCH
 5
C7
100
AcDbEntity
 8
Layer22
100
AcDbHatch
 10
 0.0
 20
 0.0
 30
 0.0
 210
 0.0
 220
 0.0
 230
 1.0
 2
SOLID
 70
 1
 71
 1
 91
2              
 92
 0
 93
56             
 72
 1
 10
99.1914
 20
30.4278070800781
 11
99.316972265625
 21
29.9728891113281
 72
 1
 10
99.316972265625
 20
29.9728891113281
 11
99.425915625
 21
29.4815258300781
 72
 1
 10
99.425915625
 20
29.4815258300781
 11
99.518194921875
 21
28.9509281738281
 72
 1
 10
99.518194921875
 20
28.9509281738281
 11
99.593775
 21
28.3783070800781
 72
 1
 10
99.593775
 20
28.3783070800781
 11
99.652620703125
 21
27.7608734863281
 72
 1
 10
99.652620703125
 20
27.7608734863281
 11
99.694696875
 21
27.0958383300781
 72
 1
 10
99.694696875
 20
27.0958383300781
 11
99.719968359375
 21
26.3804125488281
 72
 1
 10
99.719968359375
 20
26.3804125488281
 11
99.7284
 21
25.6118070800781
 72
 1
 10
99.7284
 20
25.6118070800781
 11
99.670097265625
 21
23.7699008300781
 72
 1
 10
99.670097265625
 20
23.7699008300781
 11
99.491665625
 21
22.2064320800781
 72
 1
 10
99.491665625
 20
22.2064320800781
 11
99.187819921875
 21
20.9112758300781
 72
 1
 10
99.187819921875
 20
20.9112758300781
 11
98.753275
 21
19.8743070800782
 72
 1
 10
98.753275
 20
19.8743070800782
 11
98.182745703125
 21
19.0854008300781
 72
 1
 10
98.182745703125
 20
19.0854008300781
 11
97.470946875
 21
18.5344320800781
 72
 1
 10
97.470946875
 20
18.5344320800781
 11
96.612593359375
 21
18.2112758300781
 72
 1
 10
96.612593359375
 20
18.2112758300781
 11
95.6024
 21
18.1058070800781
 72
 1
 10
95.6024
 20
18.1058070800781
 11
95.23903671875
 21
18.1169711425781
 72
 1
 10
95.23903671875
 20
18.1169711425781
 11
94.89018125
 21
18.1504945800781
 72
 1
 10
94.89018125
 20
18.1504945800781
 11
94.55618515625
 21
18.2064242675781
 72
 1
 10
94.55618515625
 20
18.2064242675781
 11
94.2374
 21
18.2848070800782
 72
 1
 10
94.2374
 20
18.2848070800782
 11
93.93417734375
 21
18.3856898925782
 72
 1
 10
93.93417734375
 20
18.3856898925782
 11
93.64686875
 21
18.5091195800782
 72
 1
 10
93.64686875
 20
18.5091195800782
 11
93.37582578125
 21
18.6551430175782
 72
 1
 10
93.37582578125
 20
18.6551430175782
 11
93.1214
 21
18.8238070800782
 72
 1
 10
93.1214
 20
18.8238070800782
 11
92.688749609375
 21
19.2312738769531
 72
 1
 10
92.688749609375
 20
19.2312738769531
 11
92.312759375
 21
19.7606039550782
 72
 1
 10
92.312759375
 20
19.7606039550782
 11
91.993745703125
 21
20.4128168457031
 72
 1
 10
91.993745703125
 20
20.4128168457031
 11
91.732025
 21
21.1889320800781
 72
 1
 10
91.732025
 20
21.1889320800781
 11
91.527913671875
 21
22.0899691894531
 72
 1
 10
91.527913671875
 20
22.0899691894531
 11
91.381728125
 21
23.1169477050781
 72
 1
 10
91.381728125
 20
23.1169477050781
 11
91.293784765625
 21
24.2708871582031
 72
 1
 10
91.293784765625
 20
24.2708871582031
 11
91.2644
 21
25.5528070800781
 72
 1
 10
91.2644
 20
25.5528070800781
 11
91.2799390625
 21
26.4629262207031
 72
 1
 10
91.2799390625
 20
26.4629262207031
 11
91.327025
 21
27.3109477050781
 72
 1
 10
91.327025
 20
27.3109477050781
 11
91.4063609375
 21
28.0993676269531
 72
 1
 10
91.4063609375
 20
28.0993676269531
 11
91.51865
 21
28.8306820800781
 72
 1
 10
91.51865
 20
28.8306820800781
 11
91.6645953125
 21
29.5073871582032
 72
 1
 10
91.6645953125
 20
29.5073871582032
 11
91.8449
 21
30.1319789550781
 72
 1
 10
91.8449
 20
30.1319789550781
 11
92.0602671875
 21
30.706953564453
 72
 1
 10
92.0602671875
 20
30.706953564453
 11
92.3114
 21
31.2348070800781
 72
 1
 10
92.3114
 20
31.2348070800781
 11
92.55592734375
 21
31.6307250488281
 72
 1
 10
92.55592734375
 20
31.6307250488281
 11
92.85855625
 21
31.9864008300781
 72
 1
 10
92.85855625
 20
31.9864008300781
 11
93.21298203125
 21
32.2979672363281
 72
 1
 10
93.21298203125
 20
32.2979672363281
 11
93.6129
 21
32.5615570800782
 72
 1
 10
93.6129
 20
32.5615570800782
 11
94.05200546875
 21
32.7733031738281
 72
 1
 10
94.05200546875
 20
32.7733031738281
 11
94.52399375
 21
32.9293383300781
 72
 1
 10
94.52399375
 20
32.9293383300781
 11
95.02256015625
 21
33.0257953613281
 72
 1
 10
95.02256015625
 20
33.0257953613281
 11
95.5414
 21
33.0588070800781
 72
 1
 10
95.5414
 20
33.0588070800781
 11
96.320730078125
 21
32.9887406738281
 72
 1
 10
96.320730078125
 20
32.9887406738281
 11
97.000040625
 21
32.7950883300781
 72
 1
 10
97.000040625
 20
32.7950883300781
 11
97.583187109375
 21
32.5026703613282
 72
 1
 10
97.583187109375
 20
32.5026703613282
 11
98.074025
 21
32.1363070800781
 72
 1
 10
98.074025
 20
32.1363070800781
 11
98.476409765625
 21
31.7208187988281
 72
 1
 10
98.476409765625
 20
31.7208187988281
 11
98.794196875
 21
31.2810258300781
 72
 1
 10
98.794196875
 20
31.2810258300781
 11
99.031241796875
 21
30.8417484863282
 72
 1
 10
99.031241796875
 20
30.8417484863282
 11
99.1914
 21
30.4278070800781
 97
 1
 330
C8
 92
 0
 93
56             
 72
 1
 10
91.2954
 20
35.2728070800781
 11
90.242870703125
 21
34.5674262207031
 72
 1
 10
90.242870703125
 20
34.5674262207031
 11
89.311478125
 21
33.6917602050781
 72
 1
 10
89.311478125
 20
33.6917602050781
 11
88.507140234375
 21
32.6581488769531
 72
 1
 10
88.507140234375
 20
32.6581488769531
 11
87.835775
 21
31.4789320800781
 72
 1
 10
87.835775
 20
31.4789320800781
 11
87.303300390625
 21
30.1664496582031
 72
 1
 10
87.303300390625
 20
30.1664496582031
 11
86.915634375
 21
28.7330414550781
 72
 1
 10
86.915634375
 20
28.7330414550781
 11
86.678694921875
 21
27.1910473144532
 72
 1
 10
86.678694921875
 20
27.1910473144532
 11
86.5984
 21
25.5528070800781
 72
 1
 10
86.5984
 20
25.5528070800781
 11
86.636214453125
 21
24.4284652832031
 72
 1
 10
86.636214453125
 20
24.4284652832031
 11
86.749415625
 21
23.3457602050781
 72
 1
 10
86.749415625
 20
23.3457602050781
 11
86.937640234375
 21
22.3066723144531
 72
 1
 10
86.937640234375
 20
22.3066723144531
 11
87.200525
 21
21.3131820800782
 72
 1
 10
87.200525
 20
21.3131820800782
 11
87.537706640625
 21
20.3672699707031
 72
 1
 10
87.537706640625
 20
20.3672699707031
 11
87.948821875
 21
19.4709164550782
 72
 1
 10
87.948821875
 20
19.4709164550782
 11
88.433507421875
 21
18.6261020019531
 72
 1
 10
88.433507421875
 20
18.6261020019531
 11
88.9914
 21
17.8348070800781
 72
 1
 10
88.9914
 20
17.8348070800781
 11
89.608148046875
 21
17.1168461425781
 72
 1
 10
89.608148046875
 20
17.1168461425781
 11
90.274759375
 21
16.5069320800781
 72
 1
 10
90.274759375
 20
16.5069320800781
 11
90.998909765625
 21
16.0012680175781
 72
 1
 10
90.998909765625
 20
16.0012680175781
 11
91.788275
 21
15.5960570800781
 72
 1
 10
91.788275
 20
15.5960570800781
 11
92.650530859375
 21
15.2875023925781
 72
 1
 10
92.650530859375
 20
15.2875023925781
 11
93.593353125
 21
15.0718070800781
 72
 1
 10
93.593353125
 20
15.0718070800781
 11
94.624417578125
 21
14.9451742675781
 72
 1
 10
94.624417578125
 20
14.9451742675781
 11
95.7514
 21
14.9038070800781
 72
 1
 10
95.7514
 20
14.9038070800781
 11
96.376636328125
 21
14.9167973144532
 72
 1
 10
96.376636328125
 20
14.9167973144532
 11
96.956228125
 21
14.9569164550782
 72
 1
 10
96.956228125
 20
14.9569164550782
 11
97.497874609375
 21
15.0258871582031
 72
 1
 10
97.497874609375
 20
15.0258871582031
 11
98.009275
 21
15.1254320800781
 72
 1
 10
98.009275
 20
15.1254320800781
 11
98.498128515625
 21
15.2572738769532
 72
 1
 10
98.498128515625
 20
15.2572738769532
 11
98.972134375
 21
15.4231352050781
 72
 1
 10
98.972134375
 20
15.4231352050781
 11
99.438991796875
 21
15.6247387207031
 72
 1
 10
99.438991796875
 20
15.6247387207031
 11
99.9064
 21
15.8638070800781
 72
 1
 10
99.9064
 20
15.8638070800781
 11
100.96538046875
 21
16.5752582519531
 72
 1
 10
100.96538046875
 20
16.5752582519531
 11
101.89449375
 21
17.4506664550781
 72
 1
 10
101.89449375
 20
17.4506664550781
 11
102.69024765625
 21
18.4826137207031
 72
 1
 10
102.69024765625
 20
18.4826137207031
 11
103.34915
 21
19.6636820800781
 72
 1
 10
103.34915
 20
19.6636820800781
 11
103.86770859375
 21
20.9864535644531
 72
 1
 10
103.86770859375
 20
20.9864535644531
 11
104.24243125
 21
22.4435102050781
 72
 1
 10
104.24243125
 20
22.4435102050781
 11
104.46982578125
 21
24.0274340332031
 72
 1
 10
104.46982578125
 20
24.0274340332031
 11
104.5464
 21
25.7308070800781
 72
 1
 10
104.5464
 20
25.7308070800781
 11
104.3889859375
 21
28.0567543457032
 72
 1
 10
104.3889859375
 20
28.0567543457032
 11
103.9268375
 21
30.1316977050781
 72
 1
 10
103.9268375
 20
30.1316977050781
 11
103.1750953125
 21
31.9374145019531
 72
 1
 10
103.1750953125
 20
31.9374145019531
 11
102.1489
 21
33.4556820800781
 72
 1
 10
102.1489
 20
33.4556820800781
 11
100.8633921875
 21
34.6682777832031
 72
 1
 10
100.8633921875
 20
34.6682777832031
 11
99.3337125
 21
35.5569789550781
 72
 1
 10
99.3337125
 20
35.5569789550781
 11
97.5750015625
 21
36.1035629394531
 72
 1
 10
97.5750015625
 20
36.1035629394531
 11
95.6024
 21
36.2898070800781
 72
 1
 10
95.6024
 20
36.2898070800781
 11
95.020835546875
 21
36.2730961425781
 72
 1
 10
95.020835546875
 20
36.2730961425781
 11
94.445259375
 21
36.2234320800781
 72
 1
 10
94.445259375
 20
36.2234320800781
 11
93.878847265625
 21
36.1415180175781
 72
 1
 10
93.878847265625
 20
36.1415180175781
 11
93.324775
 21
36.0280570800781
 72
 1
 10
93.324775
 20
36.0280570800781
 11
92.786218359375
 21
35.8837523925781
 72
 1
 10
92.786218359375
 20
35.8837523925781
 11
92.266353125
 21
35.7093070800781
 72
 1
 10
92.266353125
 20
35.7093070800781
 11
91.768355078125
 21
35.5054242675781
 72
 1
 10
91.768355078125
 20
35.5054242675781
 11
91.2954
 21
35.2728070800781
 97
 1
 330
C9
 75
 0
 76
 1
 98
 1
 10
 0.0
 20
 0.0
 0
LINE
 5
CA
100
AcDbEntity
 8
Layer8
100
AcDbLine
 39
0.25
 370
106
 10
47.7372
 20
84.7010070800781
 30
0.0
 11
47.7372
 21
75.2030070800782
 31
0.0
 0
TEXT
 5
CB
100
AcDbEntity
 8
Layer8
100
AcDbText
 40
9.6
 41
0.61000
 72
0
 50
0
  1
50 x 40
  7
STANDARD
 10
84.1895
 20
75.2031070800781
 30
0.0
 11
84.1895
 21
75.2031070800781
 31
0.0
100
AcDbText
 73
  1
  0
ENDSEC
  0
SECTION
  2
OBJECTS
  0
DICTIONARY
  5
19
100
AcDbDictionary
  3
ACAD_GROUP
350
1A
  3
ACAD_MLINESTYLE
350
1B
  0
DICTIONARY
  5
1A
102
{ACAD_REACTORS
330
19
102
}
100
AcDbDictionary
  0
DICTIONARY
  5
1B
102
{ACAD_REACTORS
330
19
102
}
100
AcDbDictionary
  3
STANDARD
350
1C
  0
MLINESTYLE
  5
1C
102
{ACAD_REACTORS
330
1B
102
}
100
AcDbMlineStyle
  2
STANDARD
 70
     0
  3

 62
     0
 51
90.0
 52
90.0
 71
     2
 49
0.5
 62
   256
  6
BYLAYER
 49
-0.5
 62
   256
  6
BYLAYER
  0
ENDSEC
  0
EOF
