 999
SCAN2CAD Date : 01/26/16
 999
SCAN2CAD ScalePixelX : 1
 999
SCAN2CAD ScalePixelY : 1
 999
SCAN2CAD TileXOffset : 0
 999
SCAN2CAD TileYOffset : 0
 999
SCAN2CAD MeasureType : 1
 999
SCAN2CAD DotsPerInch : 0
 999
SCAN2CAD GeScalePixX : 1
 999
SCAN2CAD GeScalePixY : 1
 999
SCAN2CAD GeRasTiePtX : 0
 999
SCAN2CAD GeRasTiePtY : 0
 999
SCAN2CAD ScalRasDist : 1
 999
SCAN2CAD ScalVecDist : 1
 999
SCAN2CAD ScalUnitTyp : 0
 999
SCAN2CAD ScalDistFac : 1
 999
SCAN2CAD ScalAdjustX : 1
 999
SCAN2CAD ScalAdjustY : 1
 999
SCAN2CAD MeasureMeth : 1
 999
SCAN2CAD OgDrawScale : 1
 999
SCAN2CAD OgDrawUType : 0
 999
SCAN2CAD ToDrawScale : 1
 999
SCAN2CAD ToDrawUType : 0
  0
SECTION
  2
HEADER
  9
$ACADVER
  1
AC1014
  9
$ACADMAINTVER
 70
     0
  9
$DWGCODEPAGE
  3
ANSI_1252
  9
$INSBASE
 10
0.0
 20
0.0
 30
0.0
 9
$EXTMIN
 10
25.7733999999982
 20
13.7130929199218
 30
0.0
 9
$EXTMAX
 10
217.55
 20
338.226492919922
 30
0.0
 9
$LIMMIN
 10
0
 20
0
 9
$LIMMAX
 10
247
 20
365
  9
$ORTHOMODE
 70
     0
  9
$REGENMODE
 70
     1
  9
$FILLMODE
 70
     1
  9
$QTEXTMODE
 70
     0
  9
$MIRRTEXT
 70
     1
  9
$DRAGMODE
 70
     2
  9
$LTSCALE
 40
1.0
  9
$OSMODE
 70
     0
  9
$ATTMODE
 70
     1
  9
$TEXTSIZE
 40
0.2
  9
$TRACEWID
 40
0.05
  9
$TEXTSTYLE
  7
STANDARD
  9
$CLAYER
  8
0
  9
$CELTYPE
  6
CONTINUOUS
  9
$CECOLOR
 62
   256
  9
$CELTSCALE
 40
1.0
  9
$DELOBJ
 70
     1
  9
$DISPSILH
 70
     0
  9
$DIMSCALE
 40
1.0
  9
$DIMASZ
 40
0.18
  9
$DIMEXO
 40
0.0625
  9
$DIMDLI
 40
0.38
  9
$DIMRND
 40
0.0
  9
$DIMDLE
 40
0.0
  9
$DIMEXE
 40
0.18
  9
$DIMTP
 40
0.0
  9
$DIMTM
 40
0.0
  9
$DIMTXT
 40
0.18
  9
$DIMCEN
 40
0.09
  9
$DIMTSZ
 40
0.0
  9
$DIMTOL
 70
     0
  9
$DIMLIM
 70
     0
  9
$DIMTIH
 70
     1
  9
$DIMTOH
 70
     1
  9
$DIMSE1
 70
     0
  9
$DIMSE2
 70
     0
  9
$DIMTAD
 70
     0
  9
$DIMZIN
 70
     0
  9
$DIMBLK
  1

  9
$DIMASO
 70
     1
  9
$DIMSHO
 70
     1
  9
$DIMPOST
  1

  9
$DIMAPOST
  1

  9
$DIMALT
 70
     0
  9
$DIMALTD
 70
     2
  9
$DIMALTF
 40
25.4
  9
$DIMLFAC
 40
1.0
  9
$DIMTOFL
 70
     0
  9
$DIMTVP
 40
0.0
  9
$DIMTIX
 70
     0
  9
$DIMSOXD
 70
     0
  9
$DIMSAH
 70
     0
  9
$DIMBLK1
  1

  9
$DIMBLK2
  1

  9
$DIMSTYLE
  2
STANDARD
  9
$DIMCLRD
 70
     0
  9
$DIMCLRE
 70
     0
  9
$DIMCLRT
 70
     0
  9
$DIMTFAC
 40
1.0
  9
$DIMGAP
 40
0.09
  9
$DIMJUST
 70
     0
  9
$DIMSD1
 70
     0
  9
$DIMSD2
 70
     0
  9
$DIMTOLJ
 70
     1
  9
$DIMTZIN
 70
     0
  9
$DIMALTZ
 70
     0
  9
$DIMALTTZ
 70
     0
  9
$DIMFIT
 70
     3
  9
$DIMUPT
 70
     0
  9
$DIMUNIT
 70
     2
  9
$DIMDEC
 70
     4
  9
$DIMTDEC
 70
     4
  9
$DIMALTU
 70
     2
  9
$DIMALTTD
 70
     2
  9
$DIMTXSTY
  7
STANDARD
  9
$DIMAUNIT
 70
     0
  9
$LUNITS
 70
     2
  9
$LUPREC
 70
     4
  9
$SKETCHINC
 40
0.1
  9
$FILLETRAD
 40
0.0
  9
$AUNITS
 70
     0
  9
$AUPREC
 70
     0
  9
$MENU
  1
acad
  9
$ELEVATION
 40
0.0
  9
$PELEVATION
 40
0.0
  9
$THICKNESS
 40
0.0
  9
$LIMCHECK
 70
     0
  9
$BLIPMODE
 70
     1
  9
$CHAMFERA
 40
0.0
  9
$CHAMFERB
 40
0.0
  9
$CHAMFERC
 40
0.0
  9
$CHAMFERD
 40
0.0
  9
$SKPOLY
 70
     0
  9
$TDCREATE
 40
0.000000000
  9
$TDUPDATE
 40
0.000000000
  9
$TDINDWG
 40
0.0000000000
  9
$TDUSRTIMER
 40
0.0000000000
  9
$USRTIMER
 70
     1
  9
$ANGBASE
 50
0.0
  9
$ANGDIR
 70
     0
  9
$PDMODE
 70
     0
  9
$PDSIZE
 40
0.0
  9
$PLINEWID
 40
0.0
  9
$COORDS
 70
     0
  9
$SPLFRAME
 70
     0
  9
$SPLINETYPE
 70
     6
  9
$SPLINESEGS
 70
     8
  9
$ATTDIA
 70
     0
  9
$ATTREQ
 70
     1
  9
$HANDLING
 70
     1
  9
$HANDSEED
  5
      D0
  9
$SURFTAB1
 70
     6
  9
$SURFTAB2
 70
     6
  9
$SURFTYPE
 70
     6
  9
$SURFU
 70
     6
  9
$SURFV
 70
     6
  9
$UCSNAME
  2

  9
$UCSORG
 10
0.0
 20
0.0
 30
0.0
  9
$UCSXDIR
 10
1.0
 20
0.0
 30
0.0
  9
$UCSYDIR
 10
0.0
 20
1.0
 30
0.0
  9
$PUCSNAME
  2

  9
$PUCSORG
 10
0.0
 20
0.0
 30
0.0
  9
$PUCSXDIR
 10
1.0
 20
0.0
 30
0.0
  9
$PUCSYDIR
 10
0.0
 20
1.0
 30
0.0
  9
$USERI1
 70
     0
  9
$USERI2
 70
     0
  9
$USERI3
 70
     0
  9
$USERI4
 70
     0
  9
$USERI5
 70
     0
  9
$USERR1
 40
0.0
  9
$USERR2
 40
0.0
  9
$USERR3
 40
0.0
  9
$USERR4
 40
0.0
  9
$USERR5
 40
0.0
  9
$WORLDVIEW
 70
     1
  9
$SHADEDGE
 70
     3
  9
$SHADEDIF
 70
    70
  9
$TILEMODE
 70
     1
  9
$MAXACTVP
 70
    16
  9
$PINSBASE
 10
0.0
 20
0.0
 30
0.0
  9
$PLIMCHECK
 70
     0
 9
$PEXTMIN
 10
25.7733999999982
 20
13.7130929199218
 30
0.0
 9
$PEXTMAX
 10
217.55
 20
338.226492919922
 30
0.0
 9
$PLIMMIN
 10
0
 20
0
 9
$PLIMMAX
 10
247
 20
365
  9
$UNITMODE
 70
     0
  9
$VISRETAIN
 70
     0
  9
$PLINEGEN
 70
     1
  9
$PSLTSCALE
 70
     0
  9
$TREEDEPTH
 70
  3020
  9
$PICKSTYLE
 70
     1
  9
$CMLSTYLE
  2
STANDARD
  9
$CMLJUST
 70
     0
  9
$CMLSCALE
 40
1.0
  9
$PROXYGRAPHICS
 70
     0
  9
$MEASUREMENT
 70
     0
  0
ENDSEC
  0
SECTION
  2
CLASSES
  0
CLASS
  1
LWPOLYLINE
  2
AcDbPolyline
  3
"AutoCAD"
 90
        0
280
     0
281
     1
  0
CLASS
  1
IMAGE
  2
AcDbRasterImage
  3
ISM
 90
      127
280
     0
281
     1
  0
CLASS
  1
OLE2FRAME
  2
AcDbOle2Frame
  3
""
 90
        0
280
     0
281
     1
  0
CLASS
  1
HATCH
  2
AcDbHatch
  3
"ACAD_SEDONA"
 90
        0
280
     0
281
     1
  0
CLASS
  1
DICTIONARYVAR
  2
AcDbDictionaryVar
  3
"AutoCAD"
 90
        0
280
     0
281
     0
  0
CLASS
  1
RASTERVARIABLES
  2
AcDbRasterVariables
  3
ISM
 90
        0
280
     0
281
     0
  0
CLASS
  1
IMAGEDEF
  2
AcDbRasterImageDef
  3
ISM
 90
        0
280
     0
281
     0
  0
CLASS
  1
IMAGEDEF_REACTOR
  2
AcDbRasterImageDefReactor
  3
ISM
 90
        1
280
     0
281
     0
  0
CLASS
  1
IDBUFFER
  2
AcDbIdBuffer
  3
"Acad"
 90
        0
280
     0
281
     0
  0
CLASS
  1
SPATIAL_FILTER
  2
AcDbSpatialFilter
  3
"Acad"
 90
        0
280
     0
281
     0
  0
CLASS
  1
XRECORD
  2
AcDbXrecord
  3
"<Built In>"
 90
        0
280
     0
281
     0
  0
CLASS
  1
SORTENTSTABLE
  2
AcDbSortentsTable
  3
"AutoCAD"
 90
        0
280
     0
281
     0
  0
CLASS
  1
LAYER_INDEX
  2
AcDbLayerIndex
  3
"Acad"
 90
        0
280
     0
281
     0
  0
CLASS
  1
SPATIAL_INDEX
  2
AcDbSpatialIndex
  3
"Acad"
 90
        0
280
     0
281
     0
  0
CLASS
  1
OBJECT_PTR
  2
CAseDLPNTableRecord
  3
"ASE-LPNTableRecord"
 90
        1
280
     0
281
     0
  0
ENDSEC
  0
SECTION
  2
TABLES
  0
TABLE
  2
VPORT
  5
7
100
AcDbSymbolTable
 70
     1
  0
VPORT
  5
15
100
AcDbSymbolTableRecord
100
AcDbViewportTableRecord
 2
*ACTIVE
 70
     0
 10
0
 20
0
 11
1.0
 21
1.0
 12
0.0
 22
0.0
 13
0.0
 23
0.0
 14
1.0
 24
1.0
 15
0.0
 25
0.0
 16
0.0
 26
0.0
 36
1.0
 17
121.661699999999
 27
175.969792919922
 37
0.0
 40
328.5134
 41
0.595947075522648
 42
50.0
 43
0.0
 44
0.0
 50
0.0
 51
0.0
 71
     0
 72
   100
 73
     1
 74
     1
 75
     0
 76
     0
 77
     0
 78
     0
   0
ENDTAB
  0
TABLE
  2
LTYPE
  5
4
100
AcDbSymbolTable
 70
3
  0
LTYPE
  5
11
100
AcDbSymbolTableRecord
100
AcDbLinetypeTableRecord
  2
BYBLOCK
 70
     0
  3

 72
    65
 73
     0
 40
0.0
  0
LTYPE
  5
12
100
AcDbSymbolTableRecord
100
AcDbLinetypeTableRecord
  2
BYLAYER
 70
     0
  3

 72
    65
 73
     0
 40
0.0
  0
LTYPE
  5
80
330
5
100
AcDbSymbolTableRecord
100
AcDbLinetypeTableRecord
  2
CONTINUOUS
 70
     0
  3
Continuous
 72
    65
 73
     0
 40
0.0
  0
LTYPE
  5
81
330
5
100
AcDbSymbolTableRecord
100
AcDbLinetypeTableRecord
  2
DASH
 70
     0
  3
Dash
 72
    65
 73
     2
 40
48.0
 49
24.0
 74
     0
 49
-24.0
 74
     0
  0
LTYPE
  5
82
330
5
100
AcDbSymbolTableRecord
100
AcDbLinetypeTableRecord
  2
DASHDOT
 70
     0
  3
DashDot
 72
    65
 73
     4
 40
48.0
 49
24.0
 74
     0
 49
 -12.0
 74
     0
 49
0.0
 74
     0
 49
 -12.0
 74
     0	
  0
ENDTAB
  0
TABLE
  2
LAYER
  5
2
100
AcDbSymbolTable
 70
4              
  0
LAYER
  5
83
100
AcDbSymbolTableRecord
100
AcDbLayerTableRecord
  2
0
 70
     0
 62
     7
  6
CONTINUOUS
 0
LAYER
  5
84
100
AcDbSymbolTableRecord
100
AcDbLayerTableRecord
 2
Layer0
 70
 64
 62
 7
 6
CONTINUOUS
 0
LAYER
  5
85
100
AcDbSymbolTableRecord
100
AcDbLayerTableRecord
 2
Layer8
 70
 64
 62
 8
 6
CONTINUOUS
 0
LAYER
  5
86
100
AcDbSymbolTableRecord
100
AcDbLayerTableRecord
 2
Layer22
 70
 64
 62
 22
 6
CONTINUOUS
  0
ENDTAB
  0
TABLE
  2
STYLE
  5
3
100
AcDbSymbolTable
 70
1              
 0
STYLE
 5
17
100
AcDbSymbolTableRecord
100
AcDbTextStyleTableRecord
 2
STANDARD
 70
 0
 40
 0.0
 41
 1.0
 50
 0.0
 71
  0
 42
 8.0
 3
 txt
 4

  0
ENDTAB
  0
TABLE
  2
VIEW
  5
5
100
AcDbSymbolTable
 70
     0
  0
ENDTAB
  0
TABLE
  2
UCS
  5
6
100
AcDbSymbolTable
 70
     0
  0
ENDTAB
  0
TABLE
  2
APPID
  5
8
100
AcDbSymbolTable
 70
     1
  0
APPID
  5
16
100
AcDbSymbolTableRecord
100
AcDbRegAppTableRecord
  2
ACAD
 70
     0
  0
ENDTAB
  0
TABLE
  2
DIMSTYLE
  5
9
100
AcDbSymbolTable
 70
     1
  0
DIMSTYLE
105
18
100
AcDbSymbolTableRecord
100
AcDbDimStyleTableRecord
  2
STANDARD
 70
     0
  3

  4

  5

  6

  7

 40
1.0
 41
0.18
 42
0.0625
 43
0.38
 44
0.18
 45
0.0
 46
0.0
 47
0.0
 48
0.0
140
0.18
141
0.09
142
0.0
143
25.4
144
1.0
145
0.0
146
1.0
147
0.09
 71
     0
 72
     0
 73
     1
 74
     1
 75
     0
 76
     0
 77
     0
 78
     0
170
     0
171
     2
172
     0
173
     0
174
     0
175
     0
176
     0
177
     0
178
     0
270
     2
271
     4
272
     4
273
     2
274
     2
340
17
275
     0
280
     0
281
     0
282
     0
283
     1
284
     0
285
     0
286
     0
287
     0
288
     0
  0
ENDTAB
  0
TABLE
  2
BLOCK_RECORD
  5
1
100
AcDbSymbolTable
 70
     0
  0
BLOCK_RECORD
  5
A
100
AcDbSymbolTableRecord
100
AcDbBlockTableRecord
  2
*MODEL_SPACE
  0
BLOCK_RECORD
  5
B
100
AcDbSymbolTableRecord
100
AcDbBlockTableRecord
  2
*PAPER_SPACE
  0
ENDTAB
  0
ENDSEC
  0
SECTION
  2
BLOCKS
  0
BLOCK
  5
D
100
AcDbEntity
  8
0
100
AcDbBlockBegin
  2
*MODEL_SPACE
 70
     0
 10
0.0
 20
0.0
 30
0.0
  3
*MODEL_SPACE
  1

  0
ENDBLK
  5
E
100
AcDbEntity
  8
0
100
AcDbBlockEnd
  0
BLOCK
  5
F
100
AcDbEntity
 67
     1
  8
0
100
AcDbBlockBegin
  2
*PAPER_SPACE
 70
     0
 10
0.0
 20
0.0
 30
0.0
  3
*PAPER_SPACE
  1

  0
ENDBLK
  5
10
100
AcDbEntity
 67
     1
  8
0
100
AcDbBlockEnd
 0
ENDSEC
 0
SECTION
 2
ENTITIES
 0
LWPOLYLINE
 5
87
100
AcDbEntity
 8
Layer8
100
AcDbPolyline
 39
0.25
 370
106
 90
5              
 70
 1
 43
0.0
 10
193.107
 20
245.860992919922
 10
184.498
 20
245.860992919922
 10
184.498
 20
245.895992919922
 10
193.107
 20
245.895992919922
 10
193.107
 20
245.860992919922
 0
LWPOLYLINE
 5
88
100
AcDbEntity
 8
Layer8
100
AcDbPolyline
 39
0.25
 370
106
 90
5              
 70
 1
 43
0.0
 10
201.706
 20
245.860992919922
 10
184.498
 20
245.860992919922
 10
184.498
 20
271.114992919922
 10
201.706
 20
271.114992919922
 10
201.706
 20
245.860992919922
 0
LWPOLYLINE
 5
89
100
AcDbEntity
 8
Layer8
100
AcDbPolyline
 39
0.25
 370
106
 90
5              
 70
 1
 43
0.0
 10
217.55
 20
195.352992919922
 10
168.665
 20
195.352992919922
 10
184.228
 20
244.094992919922
 10
201.978
 20
244.094992919922
 10
217.55
 20
195.352992919922
 0
LWPOLYLINE
 5
8A
100
AcDbEntity
 8
Layer8
100
AcDbPolyline
 39
0.25
 370
106
 90
6              
 70
 1
 43
0.0
 10
213.439
 20
308.350992919922
 10
201.99
 20
272.904992919922
 10
184.216
 20
272.904992919922
 10
172.777
 20
308.350992919922
 10
193.107
 20
308.280992919922
 10
213.439
 20
308.350992919922
 0
LWPOLYLINE
 5
8B
100
AcDbEntity
 8
Layer8
100
AcDbPolyline
 39
0.25
 370
106
 90
5              
 70
 1
 43
0.0
 10
202.365
 20
272.904992919922
 10
201.706
 20
271.117992919922
 10
184.498
 20
271.117992919922
 10
183.849
 20
272.904992919922
 10
202.365
 20
272.904992919922
 0
LWPOLYLINE
 5
8C
100
AcDbEntity
 8
Layer8
100
AcDbPolyline
 39
0.25
 370
106
 90
5              
 70
 1
 43
0.0
 10
201.706
 20
245.860992919922
 10
193.107
 20
245.860992919922
 10
193.107
 20
245.895992919922
 10
201.706
 20
245.895992919922
 10
201.706
 20
245.860992919922
 0
LINE
 5
8D
100
AcDbEntity
 8
Layer8
100
AcDbLine
 39
0.25
 370
106
 10
183.849
 20
244.094992919922
 30
0.0
 11
184.498
 21
245.895992919922
 31
0.0
 0
LINE
 5
8E
100
AcDbEntity
 8
Layer8
100
AcDbLine
 39
0.25
 370
106
 10
184.498
 20
245.895992919922
 30
0.0
 11
201.706
 21
245.895992919922
 31
0.0
 0
LINE
 5
8F
100
AcDbEntity
 8
Layer8
100
AcDbLine
 39
0.25
 370
106
 10
201.706
 20
245.895992919922
 30
0.0
 11
202.365
 21
244.094992919922
 31
0.0
 0
LINE
 5
90
100
AcDbEntity
 8
Layer8
100
AcDbLine
 39
0.25
 370
106
 10
202.365
 20
244.094992919922
 30
0.0
 11
183.849
 21
244.094992919922
 31
0.0
 0
LWPOLYLINE
 5
91
100
AcDbEntity
 8
Layer8
100
AcDbPolyline
 39
0.25
 370
106
 90
5              
 70
 1
 43
0.0
 10
132.799
 20
89.0849929199219
 10
131.95
 20
89.0849929199219
 10
131.95
 20
105.402992919922
 10
132.799
 20
105.402992919922
 10
132.799
 20
89.0849929199219
 0
LINE
 5
92
100
AcDbEntity
 8
Layer8
100
AcDbLine
 39
0.25
 370
106
 10
103.695
 20
94.7389929199219
 30
0.0
 11
101.027125
 21
85.5213054199219
 31
0.0
 0
LINE
 5
93
100
AcDbEntity
 8
Layer8
100
AcDbLine
 39
0.25
 370
106
 10
101.027125
 20
85.5213054199219
 30
0.0
 11
95.20475
 21
78.2112429199219
 31
0.0
 0
LINE
 5
94
100
AcDbEntity
 8
Layer8
100
AcDbLine
 39
0.25
 370
106
 10
95.20475
 20
78.2112429199219
 30
0.0
 11
87.0135
 21
73.5963054199219
 31
0.0
 0
LINE
 5
95
100
AcDbEntity
 8
Layer8
100
AcDbLine
 39
0.25
 370
106
 10
87.0135
 20
73.5963054199219
 30
0.0
 11
77.239
 21
72.4639929199219
 31
0.0
 0
LINE
 5
96
100
AcDbEntity
 8
Layer8
100
AcDbLine
 39
0.25
 370
106
 10
77.239
 20
72.4639929199219
 30
0.0
 11
68.840171875
 21
74.7615397949219
 31
0.0
 0
LINE
 5
97
100
AcDbEntity
 8
Layer8
100
AcDbLine
 39
0.25
 370
106
 10
68.840171875
 20
74.7615397949219
 30
0.0
 11
61.928875
 21
79.7278679199219
 31
0.0
 0
LINE
 5
98
100
AcDbEntity
 8
Layer8
100
AcDbLine
 39
0.25
 370
106
 10
61.928875
 20
79.7278679199219
 30
0.0
 11
57.108390625
 21
86.7437585449219
 31
0.0
 0
LINE
 5
99
100
AcDbEntity
 8
Layer8
100
AcDbLine
 39
0.25
 370
106
 10
57.108390625
 20
86.7437585449219
 30
0.0
 11
54.982
 21
95.1899929199219
 31
0.0
 0
LINE
 5
9A
100
AcDbEntity
 8
Layer8
100
AcDbLine
 39
0.25
 370
106
 10
54.982
 20
95.1899929199219
 30
0.0
 11
56.4301875
 21
105.257227294922
 31
0.0
 0
LINE
 5
9B
100
AcDbEntity
 8
Layer8
100
AcDbLine
 39
0.25
 370
106
 10
56.4301875
 20
105.257227294922
 30
0.0
 11
61.565
 21
113.541617919922
 31
0.0
 0
LINE
 5
9C
100
AcDbEntity
 8
Layer8
100
AcDbLine
 39
0.25
 370
106
 10
61.565
 20
113.541617919922
 30
0.0
 11
69.5040625
 21
119.159946044922
 31
0.0
 0
LINE
 5
9D
100
AcDbEntity
 8
Layer8
100
AcDbLine
 39
0.25
 370
106
 10
69.5040625
 20
119.159946044922
 30
0.0
 11
79.365
 21
121.228992919922
 31
0.0
 0
LINE
 5
9E
100
AcDbEntity
 8
Layer8
100
AcDbLine
 39
0.25
 370
106
 10
79.365
 20
121.228992919922
 30
0.0
 11
88.2211875
 21
119.573039794922
 31
0.0
 0
LINE
 5
9F
100
AcDbEntity
 8
Layer8
100
AcDbLine
 39
0.25
 370
106
 10
88.2211875
 20
119.573039794922
 30
0.0
 11
95.63025
 21
115.023117919922
 31
0.0
 0
LINE
 5
A0
100
AcDbEntity
 8
Layer8
100
AcDbLine
 39
0.25
 370
106
 10
95.63025
 20
115.023117919922
 30
0.0
 11
100.9666875
 21
108.206133544922
 31
0.0
 0
LINE
 5
A1
100
AcDbEntity
 8
Layer8
100
AcDbLine
 39
0.25
 370
106
 10
100.9666875
 20
108.206133544922
 30
0.0
 11
103.605
 21
99.7489929199219
 31
0.0
 0
LINE
 5
A2
100
AcDbEntity
 8
Layer8
100
AcDbLine
 39
0.25
 370
106
 10
103.605
 20
99.7489929199219
 30
0.0
 11
99.24
 21
99.7489929199219
 31
0.0
 0
LINE
 5
A3
100
AcDbEntity
 8
Layer8
100
AcDbLine
 39
0.25
 370
106
 10
99.24
 20
99.7489929199219
 30
0.0
 11
99.404
 21
97.2439929199219
 31
0.0
 0
LINE
 5
A4
100
AcDbEntity
 8
Layer8
100
AcDbLine
 39
0.25
 370
106
 10
99.404
 20
97.2439929199219
 30
0.0
 11
99.24
 21
94.7389929199219
 31
0.0
 0
LINE
 5
A5
100
AcDbEntity
 8
Layer8
100
AcDbLine
 39
0.25
 370
106
 10
99.24
 20
94.7389929199219
 30
0.0
 11
103.695
 21
94.7389929199219
 31
0.0
 0
CIRCLE
 5
A6
100
AcDbEntity
 8
Layer8
100
AcDbCircle
 39
0.25
 370
106
 10
79.359
 20
96.8029929199218
 30
0.0
 40
19.956
 370
106
 0
CIRCLE
 5
A7
100
AcDbEntity
 8
Layer8
100
AcDbCircle
 39
0.25
 370
106
 10
79.3575
 20
96.8029929199218
 30
0.0
 40
7.79925
 370
106
 0
LINE
 5
A8
100
AcDbEntity
 8
Layer8
100
AcDbLine
 39
0.25
 370
106
 10
131.956
 20
94.7389929199219
 30
0.0
 11
99.24
 21
94.7389929199219
 31
0.0
 0
LINE
 5
A9
100
AcDbEntity
 8
Layer8
100
AcDbLine
 39
0.25
 370
106
 10
99.24
 20
94.7389929199219
 30
0.0
 11
99.404
 21
97.2439929199219
 31
0.0
 0
LINE
 5
AA
100
AcDbEntity
 8
Layer8
100
AcDbLine
 39
0.25
 370
106
 10
99.404
 20
97.2439929199219
 30
0.0
 11
99.24
 21
99.7489929199219
 31
0.0
 0
LINE
 5
AB
100
AcDbEntity
 8
Layer8
100
AcDbLine
 39
0.25
 370
106
 10
99.24
 20
99.7489929199219
 30
0.0
 11
131.956
 21
99.7489929199219
 31
0.0
 0
LINE
 5
AC
100
AcDbEntity
 8
Layer8
100
AcDbLine
 39
0.25
 370
106
 10
131.956
 20
99.7489929199219
 30
0.0
 11
131.956
 21
94.7389929199219
 31
0.0
 0
LINE
 5
AD
100
AcDbEntity
 8
Layer8
100
AcDbLine
 39
0.25
 370
106
 10
34.3629
 20
308.094592919922
 30
0.0
 11
37.3819
 21
308.094592919922
 31
0.0
 0
LWPOLYLINE
 5
AE
100
AcDbEntity
 8
Layer8
100
AcDbPolyline
 39
0.25
 370
106
 90
5              
 70
 1
 43
0.0
 10
85.46
 20
245.198992919922
 10
67.827
 20
245.198992919922
 10
67.827
 20
270.861992919922
 10
85.46
 20
270.861992919922
 10
85.46
 20
245.198992919922
 0
LINE
 5
AF
100
AcDbEntity
 8
Layer8
100
AcDbLine
 39
0.25
 370
106
 10
34.3629
 20
194.718692919922
 30
0.0
 11
37.3819
 21
194.718692919922
 31
0.0
 0
LWPOLYLINE
 5
B0
100
AcDbEntity
 8
Layer8
100
AcDbPolyline
 39
0.25
 370
106
 90
6              
 70
 1
 43
0.0
 10
97.1668
 20
308.016292919922
 10
85.6098
 20
272.187292919922
 10
67.6728
 20
272.187292919922
 10
56.1298
 20
308.016292919922
 10
76.6498
 20
307.945292919922
 10
97.1668
 20
308.016292919922
 0
LWPOLYLINE
 5
B1
100
AcDbEntity
 8
Layer8
100
AcDbPolyline
 39
0.25
 370
106
 90
5              
 70
 1
 43
0.0
 10
86.1171
 20
272.647992919922
 10
85.4431
 20
270.402992919922
 10
67.8411
 20
270.402992919922
 10
67.1791
 20
272.647992919922
 10
86.1171
 20
272.647992919922
 0
LINE
 5
B2
100
AcDbEntity
 8
Layer8
100
AcDbLine
 39
0.25
 370
106
 10
52.6699
 20
195.264892919922
 30
0.0
 11
68.0429
 21
243.430892919922
 31
0.0
 0
LINE
 5
B3
100
AcDbEntity
 8
Layer8
100
AcDbLine
 39
0.25
 370
106
 10
68.0429
 20
243.430892919922
 30
0.0
 11
85.2399
 21
243.430892919922
 31
0.0
 0
LINE
 5
B4
100
AcDbEntity
 8
Layer8
100
AcDbLine
 39
0.25
 370
106
 10
85.2399
 20
243.430892919922
 30
0.0
 11
100.6279
 21
195.264892919922
 31
0.0
 0
LINE
 5
B5
100
AcDbEntity
 8
Layer8
100
AcDbLine
 39
0.25
 370
106
 10
100.6279
 20
195.264892919922
 30
0.0
 11
52.6699
 21
195.264892919922
 31
0.0
 0
LWPOLYLINE
 5
B6
100
AcDbEntity
 8
Layer8
100
AcDbPolyline
 39
0.25
 370
106
 90
5              
 70
 1
 43
0.0
 10
128.64
 20
249.206992919922
 10
70.717
 20
249.206992919922
 10
70.717
 20
266.696992919922
 10
128.64
 20
266.696992919922
 10
128.64
 20
249.206992919922
 0
LWPOLYLINE
 5
B7
100
AcDbEntity
 8
Layer8
100
AcDbPolyline
 39
0.25
 370
106
 90
5              
 70
 1
 43
0.0
 10
128.18
 20
266.698992919922
 10
130.209
 20
266.698992919922
 10
130.209
 20
249.208992919922
 10
128.18
 20
249.208992919922
 10
128.18
 20
266.698992919922
 0
LINE
 5
B8
100
AcDbEntity
 8
Layer8
100
AcDbLine
 39
0.25
 370
106
 10
67.1791
 20
243.438492919922
 30
0.0
 11
67.8411
 21
245.696492919922
 31
0.0
 0
LINE
 5
B9
100
AcDbEntity
 8
Layer8
100
AcDbLine
 39
0.25
 370
106
 10
67.8411
 20
245.696492919922
 30
0.0
 11
85.4431
 21
245.696492919922
 31
0.0
 0
LINE
 5
BA
100
AcDbEntity
 8
Layer8
100
AcDbLine
 39
0.25
 370
106
 10
85.4431
 20
245.696492919922
 30
0.0
 11
86.1171
 21
243.438492919922
 31
0.0
 0
LINE
 5
BB
100
AcDbEntity
 8
Layer8
100
AcDbLine
 39
0.25
 370
106
 10
86.1171
 20
243.438492919922
 30
0.0
 11
67.1791
 21
243.438492919922
 31
0.0
 0
LINE
 5
BC
100
AcDbEntity
 8
Layer8
100
AcDbLine
 39
0.25
 370
106
 10
85.2286
 20
265.548092919922
 30
0.0
 11
85.2286
 21
250.358092919922
 31
0.0
 0
LINE
 5
BD
100
AcDbEntity
 8
Layer8
100
AcDbLine
 39
0.25
 370
106
 10
130.598
 20
161.309292919922
 30
0.0
 11
130.598
 21
158.290292919922
 31
0.0
 0
LINE
 5
BE
100
AcDbEntity
 8
Layer8
100
AcDbLine
 39
0.25
 370
106
 10
51.2624
 20
161.309292919922
 30
0.0
 11
51.2624
 21
158.290292919922
 31
0.0
 0
LINE
 5
BF
100
AcDbEntity
 8
Layer8
100
AcDbLine
 39
0.25
 370
106
 10
102.8755
 20
179.549292919922
 30
0.0
 11
102.8755
 21
176.530292919922
 31
0.0
 0
LINE
 5
C0
100
AcDbEntity
 8
Layer8
100
AcDbLine
 39
0.25
 370
106
 10
51.2624
 20
179.549292919922
 30
0.0
 11
51.2624
 21
176.530292919922
 31
0.0
 0
LINE
 5
C1
100
AcDbEntity
 8
Layer8
100
AcDbLine
 39
0.25
 370
106
 10
102.8755
 20
330.638992919922
 30
0.0
 11
102.8755
 21
327.619992919922
 31
0.0
 0
HATCH
 5
C2
100
AcDbEntity
 8
Layer22
100
AcDbHatch
 10
 0.0
 20
 0.0
 30
 0.0
 210
 0.0
 220
 0.0
 230
 1.0
 2
SOLID
 70
 1
 71
 1
 91
1              
 92
 0
 93
42             
 72
 1
 10
29.8916
 20
14.0427929199219
 11
33.9296
 21
14.0427929199219
 72
 1
 10
33.9296
 20
14.0427929199219
 11
33.8086
 21
22.9237929199219
 72
 1
 10
33.8086
 20
22.9237929199219
 11
33.797488671875
 21
23.6055839355469
 72
 1
 10
33.797488671875
 20
23.6055839355469
 11
33.784959375
 21
24.3374960449219
 72
 1
 10
33.784959375
 20
24.3374960449219
 11
33.769594140625
 21
25.1023378417969
 72
 1
 10
33.769594140625
 20
25.1023378417969
 11
33.749975
 21
25.8829179199219
 72
 1
 10
33.749975
 20
25.8829179199219
 11
33.724683984375
 21
26.6620448730469
 72
 1
 10
33.724683984375
 20
26.6620448730469
 11
33.692303125
 21
27.4225272949218
 72
 1
 10
33.692303125
 20
27.4225272949218
 11
33.651414453125
 21
28.1471737792969
 72
 1
 10
33.651414453125
 20
28.1471737792969
 11
33.6006
 21
28.8187929199219
 72
 1
 10
33.6006
 20
28.8187929199219
 11
33.786723046875
 21
28.2629589355469
 72
 1
 10
33.786723046875
 20
28.2629589355469
 11
34.044459375
 21
27.5761210449219
 72
 1
 10
34.044459375
 20
27.5761210449219
 11
34.361609765625
 21
26.7814003417969
 72
 1
 10
34.361609765625
 20
26.7814003417969
 11
34.725975
 21
25.9019179199219
 72
 1
 10
34.725975
 20
25.9019179199219
 11
35.125355859375
 21
24.9607948730469
 72
 1
 10
35.125355859375
 20
24.9607948730469
 11
35.547553125
 21
23.9811522949219
 72
 1
 10
35.547553125
 20
23.9811522949219
 11
35.980367578125
 21
22.9861112792969
 72
 1
 10
35.980367578125
 20
22.9861112792969
 11
36.4116
 21
21.9987929199219
 72
 1
 10
36.4116
 20
21.9987929199219
 11
39.9716
 21
14.0427929199219
 72
 1
 10
39.9716
 20
14.0427929199219
 11
44.3376
 21
14.0427929199219
 72
 1
 10
44.3376
 20
14.0427929199219
 11
44.3376
 21
34.8287929199219
 72
 1
 10
44.3376
 20
34.8287929199219
 11
40.3596
 21
34.8287929199219
 72
 1
 10
40.3596
 20
34.8287929199219
 11
40.4496
 21
26.3347929199219
 72
 1
 10
40.4496
 20
26.3347929199219
 11
40.465949609375
 21
25.7435097167969
 72
 1
 10
40.465949609375
 20
25.7435097167969
 11
40.492271875
 21
25.0637147949219
 72
 1
 10
40.492271875
 20
25.0637147949219
 11
40.527101953125
 21
24.3221151855469
 72
 1
 10
40.527101953125
 20
24.3221151855469
 11
40.568975
 21
23.5454179199219
 72
 1
 10
40.568975
 20
23.5454179199219
 11
40.616426171875
 21
22.7603300292969
 72
 1
 10
40.616426171875
 20
22.7603300292969
 11
40.667990625
 21
21.9935585449218
 72
 1
 10
40.667990625
 20
21.9935585449218
 11
40.722203515625
 21
21.2718104980469
 72
 1
 10
40.722203515625
 20
21.2718104980469
 11
40.7776
 21
20.6217929199219
 72
 1
 10
40.7776
 20
20.6217929199219
 11
40.6029046875
 21
21.2134296386719
 72
 1
 10
40.6029046875
 20
21.2134296386719
 11
40.393475
 21
21.8619491699219
 72
 1
 10
40.393475
 20
21.8619491699219
 11
40.1510453125
 21
22.5596405761719
 72
 1
 10
40.1510453125
 20
22.5596405761719
 11
39.87735
 21
23.2987929199219
 72
 1
 10
39.87735
 20
23.2987929199219
 11
39.5741234375
 21
24.0716952636719
 72
 1
 10
39.5741234375
 20
24.0716952636719
 11
39.2431
 21
24.8706366699219
 72
 1
 10
39.2431
 20
24.8706366699219
 11
38.8860140625
 21
25.6879062011719
 72
 1
 10
38.8860140625
 20
25.6879062011719
 11
38.5046
 21
26.5157929199219
 72
 1
 10
38.5046
 20
26.5157929199219
 11
34.5286
 21
34.8287929199219
 72
 1
 10
34.5286
 20
34.8287929199219
 11
29.8916
 21
34.8287929199219
 72
 1
 10
29.8916
 20
34.8287929199219
 11
29.8916
 21
14.0427929199219
 97
 1
 330
C3
 75
 0
 76
 1
 98
 1
 10
 0.0
 20
 0.0
 0
HATCH
 5
C4
100
AcDbEntity
 8
Layer22
100
AcDbHatch
 10
 0.0
 20
 0.0
 30
 0.0
 210
 0.0
 220
 0.0
 230
 1.0
 2
SOLID
 70
 1
 71
 1
 91
1              
 92
 0
 93
12             
 72
 1
 10
46.8458
 20
34.8291929199219
 11
46.8458
 21
14.0431929199219
 72
 1
 10
46.8458
 20
14.0431929199219
 11
58.9598
 21
14.0431929199219
 72
 1
 10
58.9598
 20
14.0431929199219
 11
58.9598
 21
17.6321929199219
 72
 1
 10
58.9598
 20
17.6321929199219
 11
51.0948
 21
17.6321929199219
 72
 1
 10
51.0948
 20
17.6321929199219
 11
51.0948
 21
23.1941929199219
 72
 1
 10
51.0948
 20
23.1941929199219
 11
56.9848
 21
23.1941929199219
 72
 1
 10
56.9848
 20
23.1941929199219
 11
56.9848
 21
26.6051929199219
 72
 1
 10
56.9848
 20
26.6051929199219
 11
51.0328
 21
26.6051929199219
 72
 1
 10
51.0328
 20
26.6051929199219
 11
51.0328
 21
31.4191929199219
 72
 1
 10
51.0328
 20
31.4191929199219
 11
58.1508
 21
31.4191929199219
 72
 1
 10
58.1508
 20
31.4191929199219
 11
58.6898
 21
34.8291929199219
 72
 1
 10
58.6898
 20
34.8291929199219
 11
46.8458
 21
34.8291929199219
 97
 1
 330
C5
 75
 0
 76
 1
 98
 1
 10
 0.0
 20
 0.0
 0
HATCH
 5
C6
100
AcDbEntity
 8
Layer22
100
AcDbHatch
 10
 0.0
 20
 0.0
 30
 0.0
 210
 0.0
 220
 0.0
 230
 1.0
 2
SOLID
 70
 1
 71
 1
 91
1              
 92
 0
 93
49             
 72
 1
 10
60.5132
 20
14.0427929199219
 11
64.7302
 21
14.0427929199219
 72
 1
 10
64.7302
 20
14.0427929199219
 11
65.4472
 21
24.8997929199219
 72
 1
 10
65.4472
 20
24.8997929199219
 11
65.479198046875
 21
25.3764862792969
 72
 1
 10
65.479198046875
 20
25.3764862792969
 11
65.508184375
 21
25.8442147949219
 72
 1
 10
65.508184375
 20
25.8442147949219
 11
65.533772265625
 21
26.3050761230469
 72
 1
 10
65.533772265625
 20
26.3050761230469
 11
65.555575
 21
26.7611679199219
 72
 1
 10
65.555575
 20
26.7611679199219
 11
65.573205859375
 21
27.2145878417969
 72
 1
 10
65.573205859375
 20
27.2145878417969
 11
65.586278125
 21
27.6674335449219
 72
 1
 10
65.586278125
 20
27.6674335449219
 11
65.594405078125
 21
28.1218026855469
 72
 1
 10
65.594405078125
 20
28.1218026855469
 11
65.5972
 21
28.5797929199219
 72
 1
 10
65.5972
 20
28.5797929199219
 11
69.3962
 21
14.0427929199219
 72
 1
 10
69.3962
 20
14.0427929199219
 11
73.0752
 21
14.0427929199219
 72
 1
 10
73.0752
 20
14.0427929199219
 11
74.329303515625
 21
18.4087636230469
 72
 1
 10
74.329303515625
 20
18.4087636230469
 11
75.274653125
 21
21.7043085449219
 72
 1
 10
75.274653125
 20
21.7043085449219
 11
75.958557421875
 21
24.0983769042969
 72
 1
 10
75.958557421875
 20
24.0983769042969
 11
76.428325
 21
25.7599179199219
 72
 1
 10
76.428325
 20
25.7599179199219
 11
76.731264453125
 21
26.8578808105469
 72
 1
 10
76.731264453125
 20
26.8578808105469
 11
76.914684375
 21
27.5612147949219
 72
 1
 10
76.914684375
 20
27.5612147949219
 11
77.025893359375
 21
28.0388690917969
 72
 1
 10
77.025893359375
 20
28.0388690917969
 11
77.1122
 21
28.4597929199219
 72
 1
 10
77.1122
 20
28.4597929199219
 11
77.15332109375
 21
27.5221952636719
 72
 1
 10
77.15332109375
 20
27.5221952636719
 11
77.26173125
 21
25.7396991699219
 72
 1
 10
77.26173125
 20
25.7396991699219
 11
77.41500078125
 21
23.4112499511719
 72
 1
 10
77.41500078125
 20
23.4112499511719
 11
77.5907
 21
20.8357929199219
 72
 1
 10
77.5907
 20
20.8357929199219
 11
77.76639921875
 21
18.3122733886718
 72
 1
 10
77.76639921875
 20
18.3122733886718
 11
77.91966875
 21
16.1396366699219
 72
 1
 10
77.91966875
 20
16.1396366699219
 11
78.02807890625
 21
14.6168280761719
 72
 1
 10
78.02807890625
 20
14.6168280761719
 11
78.0692
 21
14.0427929199219
 72
 1
 10
78.0692
 20
14.0427929199219
 11
82.1972
 21
14.0427929199219
 72
 1
 10
82.1972
 20
14.0427929199219
 11
80.3432
 21
34.8287929199219
 72
 1
 10
80.3432
 20
34.8287929199219
 11
74.8692
 21
34.8287929199219
 72
 1
 10
74.8692
 20
34.8287929199219
 11
73.763362109375
 21
30.7000507324219
 72
 1
 10
73.763362109375
 20
30.7000507324219
 11
72.929809375
 21
27.5842304199219
 72
 1
 10
72.929809375
 20
27.5842304199219
 11
72.326858203125
 21
25.3221913574219
 72
 1
 10
72.326858203125
 20
25.3221913574219
 11
71.912825
 21
23.7547929199219
 72
 1
 10
71.912825
 20
23.7547929199219
 11
71.646026171875
 21
22.7228944824219
 72
 1
 10
71.646026171875
 20
22.7228944824219
 11
71.484778125
 21
22.0673554199219
 72
 1
 10
71.484778125
 20
22.0673554199219
 11
71.387397265625
 21
21.6290351074219
 72
 1
 10
71.387397265625
 20
21.6290351074219
 11
71.3122
 21
21.2487929199219
 72
 1
 10
71.3122
 20
21.2487929199219
 11
71.112334765625
 21
22.1418124511719
 72
 1
 10
71.112334765625
 20
22.1418124511719
 11
70.698028125
 21
23.8254491699219
 72
 1
 10
70.698028125
 20
23.8254491699219
 11
70.143588671875
 21
26.0193202636719
 72
 1
 10
70.143588671875
 20
26.0193202636719
 11
69.523325
 21
28.4430429199219
 72
 1
 10
69.523325
 20
28.4430429199219
 11
68.911545703125
 21
30.8162343261719
 72
 1
 10
68.911545703125
 20
30.8162343261719
 11
68.382559375
 21
32.8585116699219
 72
 1
 10
68.382559375
 20
32.8585116699219
 11
68.010674609375
 21
34.2894921386718
 72
 1
 10
68.010674609375
 20
34.2894921386718
 11
67.8702
 21
34.8287929199219
 72
 1
 10
67.8702
 20
34.8287929199219
 11
62.4582
 21
34.8287929199219
 72
 1
 10
62.4582
 20
34.8287929199219
 11
60.5132
 21
14.0427929199219
 97
 1
 330
C7
 75
 0
 76
 1
 98
 1
 10
 0.0
 20
 0.0
 0
HATCH
 5
C8
100
AcDbEntity
 8
Layer22
100
AcDbHatch
 10
 0.0
 20
 0.0
 30
 0.0
 210
 0.0
 220
 0.0
 230
 1.0
 2
SOLID
 70
 1
 71
 1
 91
2              
 92
 0
 93
56             
 72
 1
 10
96.0861
 20
29.2370929199218
 11
96.211672265625
 21
28.7821749511718
 72
 1
 10
96.211672265625
 20
28.7821749511718
 11
96.320615625
 21
28.2908116699218
 72
 1
 10
96.320615625
 20
28.2908116699218
 11
96.412894921875
 21
27.7602140136719
 72
 1
 10
96.412894921875
 20
27.7602140136719
 11
96.488475
 21
27.1875929199219
 72
 1
 10
96.488475
 20
27.1875929199219
 11
96.547320703125
 21
26.5701593261718
 72
 1
 10
96.547320703125
 20
26.5701593261718
 11
96.589396875
 21
25.9051241699219
 72
 1
 10
96.589396875
 20
25.9051241699219
 11
96.614668359375
 21
25.1896983886718
 72
 1
 10
96.614668359375
 20
25.1896983886718
 11
96.6231
 21
24.4210929199219
 72
 1
 10
96.6231
 20
24.4210929199219
 11
96.564797265625
 21
22.5791866699219
 72
 1
 10
96.564797265625
 20
22.5791866699219
 11
96.386365625
 21
21.0157179199218
 72
 1
 10
96.386365625
 20
21.0157179199218
 11
96.082519921875
 21
19.7205616699219
 72
 1
 10
96.082519921875
 20
19.7205616699219
 11
95.647975
 21
18.6835929199219
 72
 1
 10
95.647975
 20
18.6835929199219
 11
95.077445703125
 21
17.8946866699219
 72
 1
 10
95.077445703125
 20
17.8946866699219
 11
94.365646875
 21
17.3437179199219
 72
 1
 10
94.365646875
 20
17.3437179199219
 11
93.507293359375
 21
17.0205616699219
 72
 1
 10
93.507293359375
 20
17.0205616699219
 11
92.4971
 21
16.9150929199219
 72
 1
 10
92.4971
 20
16.9150929199219
 11
92.13373671875
 21
16.9262569824219
 72
 1
 10
92.13373671875
 20
16.9262569824219
 11
91.78488125
 21
16.9597804199219
 72
 1
 10
91.78488125
 20
16.9597804199219
 11
91.45088515625
 21
17.0157101074219
 72
 1
 10
91.45088515625
 20
17.0157101074219
 11
91.1321
 21
17.0940929199219
 72
 1
 10
91.1321
 20
17.0940929199219
 11
90.82887734375
 21
17.1949757324219
 72
 1
 10
90.82887734375
 20
17.1949757324219
 11
90.54156875
 21
17.3184054199219
 72
 1
 10
90.54156875
 20
17.3184054199219
 11
90.27052578125
 21
17.4644288574219
 72
 1
 10
90.27052578125
 20
17.4644288574219
 11
90.0161
 21
17.6330929199219
 72
 1
 10
90.0161
 20
17.6330929199219
 11
89.583449609375
 21
18.0405597167969
 72
 1
 10
89.583449609375
 20
18.0405597167969
 11
89.207459375
 21
18.5698897949219
 72
 1
 10
89.207459375
 20
18.5698897949219
 11
88.888445703125
 21
19.2221026855468
 72
 1
 10
88.888445703125
 20
19.2221026855468
 11
88.626725
 21
19.9982179199219
 72
 1
 10
88.626725
 20
19.9982179199219
 11
88.422613671875
 21
20.8992550292969
 72
 1
 10
88.422613671875
 20
20.8992550292969
 11
88.276428125
 21
21.9262335449219
 72
 1
 10
88.276428125
 20
21.9262335449219
 11
88.188484765625
 21
23.0801729980469
 72
 1
 10
88.188484765625
 20
23.0801729980469
 11
88.1591
 21
24.3620929199218
 72
 1
 10
88.1591
 20
24.3620929199218
 11
88.1746390625
 21
25.2722120605468
 72
 1
 10
88.1746390625
 20
25.2722120605468
 11
88.221725
 21
26.1202335449218
 72
 1
 10
88.221725
 20
26.1202335449218
 11
88.3010609375
 21
26.9086534667969
 72
 1
 10
88.3010609375
 20
26.9086534667969
 11
88.41335
 21
27.6399679199218
 72
 1
 10
88.41335
 20
27.6399679199218
 11
88.5592953125
 21
28.3166729980468
 72
 1
 10
88.5592953125
 20
28.3166729980468
 11
88.7396
 21
28.9412647949218
 72
 1
 10
88.7396
 20
28.9412647949218
 11
88.9549671875
 21
29.5162394042969
 72
 1
 10
88.9549671875
 20
29.5162394042969
 11
89.2061
 21
30.0440929199219
 72
 1
 10
89.2061
 20
30.0440929199219
 11
89.45062734375
 21
30.4400108886719
 72
 1
 10
89.45062734375
 20
30.4400108886719
 11
89.75325625
 21
30.7956866699218
 72
 1
 10
89.75325625
 20
30.7956866699218
 11
90.10768203125
 21
31.1072530761718
 72
 1
 10
90.10768203125
 20
31.1072530761718
 11
90.5076
 21
31.3708429199218
 72
 1
 10
90.5076
 20
31.3708429199218
 11
90.94670546875
 21
31.5825890136719
 72
 1
 10
90.94670546875
 20
31.5825890136719
 11
91.41869375
 21
31.7386241699219
 72
 1
 10
91.41869375
 20
31.7386241699219
 11
91.91726015625
 21
31.8350812011718
 72
 1
 10
91.91726015625
 20
31.8350812011718
 11
92.4361
 21
31.8680929199219
 72
 1
 10
92.4361
 20
31.8680929199219
 11
93.215430078125
 21
31.7980265136719
 72
 1
 10
93.215430078125
 20
31.7980265136719
 11
93.894740625
 21
31.6043741699219
 72
 1
 10
93.894740625
 20
31.6043741699219
 11
94.477887109375
 21
31.3119562011718
 72
 1
 10
94.477887109375
 20
31.3119562011718
 11
94.968725
 21
30.9455929199219
 72
 1
 10
94.968725
 20
30.9455929199219
 11
95.371109765625
 21
30.5301046386719
 72
 1
 10
95.371109765625
 20
30.5301046386719
 11
95.688896875
 21
30.0903116699218
 72
 1
 10
95.688896875
 20
30.0903116699218
 11
95.925941796875
 21
29.6510343261718
 72
 1
 10
95.925941796875
 20
29.6510343261718
 11
96.0861
 21
29.2370929199218
 97
 1
 330
C9
 92
 0
 93
56             
 72
 1
 10
88.1901
 20
34.0820929199219
 11
87.137570703125
 21
33.3767120605469
 72
 1
 10
87.137570703125
 20
33.3767120605469
 11
86.206178125
 21
32.5010460449219
 72
 1
 10
86.206178125
 20
32.5010460449219
 11
85.401840234375
 21
31.4674347167969
 72
 1
 10
85.401840234375
 20
31.4674347167969
 11
84.730475
 21
30.2882179199219
 72
 1
 10
84.730475
 20
30.2882179199219
 11
84.198000390625
 21
28.9757354980469
 72
 1
 10
84.198000390625
 20
28.9757354980469
 11
83.810334375
 21
27.5423272949218
 72
 1
 10
83.810334375
 20
27.5423272949218
 11
83.573394921875
 21
26.0003331542968
 72
 1
 10
83.573394921875
 20
26.0003331542968
 11
83.4931
 21
24.3620929199218
 72
 1
 10
83.4931
 20
24.3620929199218
 11
83.530914453125
 21
23.2377511230468
 72
 1
 10
83.530914453125
 20
23.2377511230468
 11
83.644115625
 21
22.1550460449218
 72
 1
 10
83.644115625
 20
22.1550460449218
 11
83.832340234375
 21
21.1159581542969
 72
 1
 10
83.832340234375
 20
21.1159581542969
 11
84.095225
 21
20.1224679199219
 72
 1
 10
84.095225
 20
20.1224679199219
 11
84.432406640625
 21
19.1765558105469
 72
 1
 10
84.432406640625
 20
19.1765558105469
 11
84.843521875
 21
18.2802022949219
 72
 1
 10
84.843521875
 20
18.2802022949219
 11
85.328207421875
 21
17.4353878417969
 72
 1
 10
85.328207421875
 20
17.4353878417969
 11
85.8861
 21
16.6440929199219
 72
 1
 10
85.8861
 20
16.6440929199219
 11
86.502848046875
 21
15.9261319824219
 72
 1
 10
86.502848046875
 20
15.9261319824219
 11
87.169459375
 21
15.3162179199219
 72
 1
 10
87.169459375
 20
15.3162179199219
 11
87.893609765625
 21
14.8105538574219
 72
 1
 10
87.893609765625
 20
14.8105538574219
 11
88.682975
 21
14.4053429199219
 72
 1
 10
88.682975
 20
14.4053429199219
 11
89.545230859375
 21
14.0967882324218
 72
 1
 10
89.545230859375
 20
14.0967882324218
 11
90.488053125
 21
13.8810929199219
 72
 1
 10
90.488053125
 20
13.8810929199219
 11
91.519117578125
 21
13.7544601074218
 72
 1
 10
91.519117578125
 20
13.7544601074218
 11
92.6461
 21
13.7130929199218
 72
 1
 10
92.6461
 20
13.7130929199218
 11
93.271336328125
 21
13.7260831542968
 72
 1
 10
93.271336328125
 20
13.7260831542968
 11
93.850928125
 21
13.7662022949219
 72
 1
 10
93.850928125
 20
13.7662022949219
 11
94.392574609375
 21
13.8351729980469
 72
 1
 10
94.392574609375
 20
13.8351729980469
 11
94.903975
 21
13.9347179199219
 72
 1
 10
94.903975
 20
13.9347179199219
 11
95.392828515625
 21
14.0665597167969
 72
 1
 10
95.392828515625
 20
14.0665597167969
 11
95.866834375
 21
14.2324210449219
 72
 1
 10
95.866834375
 20
14.2324210449219
 11
96.333691796875
 21
14.4340245605469
 72
 1
 10
96.333691796875
 20
14.4340245605469
 11
96.8011
 21
14.6730929199219
 72
 1
 10
96.8011
 20
14.6730929199219
 11
97.86008046875
 21
15.3845440917969
 72
 1
 10
97.86008046875
 20
15.3845440917969
 11
98.78919375
 21
16.2599522949218
 72
 1
 10
98.78919375
 20
16.2599522949218
 11
99.58494765625
 21
17.2918995605469
 72
 1
 10
99.58494765625
 20
17.2918995605469
 11
100.24385
 21
18.4729679199219
 72
 1
 10
100.24385
 20
18.4729679199219
 11
100.76240859375
 21
19.7957394042969
 72
 1
 10
100.76240859375
 20
19.7957394042969
 11
101.13713125
 21
21.2527960449219
 72
 1
 10
101.13713125
 20
21.2527960449219
 11
101.36452578125
 21
22.8367198730468
 72
 1
 10
101.36452578125
 20
22.8367198730468
 11
101.4411
 21
24.5400929199219
 72
 1
 10
101.4411
 20
24.5400929199219
 11
101.2836859375
 21
26.8660401855469
 72
 1
 10
101.2836859375
 20
26.8660401855469
 11
100.8215375
 21
28.9409835449219
 72
 1
 10
100.8215375
 20
28.9409835449219
 11
100.0697953125
 21
30.7467003417969
 72
 1
 10
100.0697953125
 20
30.7467003417969
 11
99.0436
 21
32.2649679199218
 72
 1
 10
99.0436
 20
32.2649679199218
 11
97.7580921875
 21
33.4775636230468
 72
 1
 10
97.7580921875
 20
33.4775636230468
 11
96.2284125
 21
34.3662647949218
 72
 1
 10
96.2284125
 20
34.3662647949218
 11
94.4697015625
 21
34.9128487792969
 72
 1
 10
94.4697015625
 20
34.9128487792969
 11
92.4971
 21
35.0990929199219
 72
 1
 10
92.4971
 20
35.0990929199219
 11
91.915535546875
 21
35.0823819824219
 72
 1
 10
91.915535546875
 20
35.0823819824219
 11
91.339959375
 21
35.0327179199219
 72
 1
 10
91.339959375
 20
35.0327179199219
 11
90.773547265625
 21
34.9508038574219
 72
 1
 10
90.773547265625
 20
34.9508038574219
 11
90.219475
 21
34.8373429199219
 72
 1
 10
90.219475
 20
34.8373429199219
 11
89.680918359375
 21
34.6930382324219
 72
 1
 10
89.680918359375
 20
34.6930382324219
 11
89.161053125
 21
34.5185929199219
 72
 1
 10
89.161053125
 20
34.5185929199219
 11
88.663055078125
 21
34.3147101074219
 72
 1
 10
88.663055078125
 20
34.3147101074219
 11
88.1901
 21
34.0820929199219
 97
 1
 330
CA
 75
 0
 76
 1
 98
 1
 10
 0.0
 20
 0.0
 0
LINE
 5
CB
100
AcDbEntity
 8
Layer8
100
AcDbLine
 39
0.25
 370
106
 10
51.2624
 20
330.638992919922
 30
0.0
 11
51.2624
 21
327.619992919922
 31
0.0
 0
TEXT
 5
CC
100
AcDbEntity
 8
Layer8
100
AcDbText
 40
9.6
 41
0.61000
 72
0
 50
-270
  1
40
  7
STANDARD
 10
39.7734
 20
245.281192919922
 30
0.0
 11
39.7734
 21
245.281192919922
 31
0.0
100
AcDbText
 73
  1
 0
TEXT
 5
CD
100
AcDbEntity
 8
Layer8
100
AcDbText
 40
9.6
 41
0.61000
 72
0
 50
0
  1
28
  7
STANDARD
 10
84.9404
 20
155.897392919922
 30
0.0
 11
84.9404
 21
155.897392919922
 31
0.0
100
AcDbText
 73
  1
 0
TEXT
 5
CE
100
AcDbEntity
 8
Layer8
100
AcDbText
 40
9.6
 41
0.61000
 72
0
 50
0
  1
Ø17
  7
STANDARD
 10
67.4804
 20
174.137347319922
 30
0.0
 11
67.4804
 21
174.137347319922
 31
0.0
100
AcDbText
 73
  1
 0
TEXT
 5
CF
100
AcDbEntity
 8
Layer8
100
AcDbText
 40
9.6
 41
0.61000
 72
0
 50
0
  1
Ø14
  7
STANDARD
 10
67.4805
 20
325.226492919922
 30
0.0
 11
67.4805
 21
325.226492919922
 31
0.0
100
AcDbText
 73
  1
  0
ENDSEC
  0
SECTION
  2
OBJECTS
  0
DICTIONARY
  5
19
100
AcDbDictionary
  3
ACAD_GROUP
350
1A
  3
ACAD_MLINESTYLE
350
1B
  0
DICTIONARY
  5
1A
102
{ACAD_REACTORS
330
19
102
}
100
AcDbDictionary
  0
DICTIONARY
  5
1B
102
{ACAD_REACTORS
330
19
102
}
100
AcDbDictionary
  3
STANDARD
350
1C
  0
MLINESTYLE
  5
1C
102
{ACAD_REACTORS
330
1B
102
}
100
AcDbMlineStyle
  2
STANDARD
 70
     0
  3

 62
     0
 51
90.0
 52
90.0
 71
     2
 49
0.5
 62
   256
  6
BYLAYER
 49
-0.5
 62
   256
  6
BYLAYER
  0
ENDSEC
  0
EOF
