 999
SCAN2CAD Date : 01/26/16
 999
SCAN2CAD ScalePixelX : 1
 999
SCAN2CAD ScalePixelY : 1
 999
SCAN2CAD TileXOffset : 0
 999
SCAN2CAD TileYOffset : 0
 999
SCAN2CAD MeasureType : 1
 999
SCAN2CAD DotsPerInch : 0
 999
SCAN2CAD GeScalePixX : 1
 999
SCAN2CAD GeScalePixY : 1
 999
SCAN2CAD GeRasTiePtX : 0
 999
SCAN2CAD GeRasTiePtY : 0
 999
SCAN2CAD ScalRasDist : 1
 999
SCAN2CAD ScalVecDist : 1
 999
SCAN2CAD ScalUnitTyp : 0
 999
SCAN2CAD ScalDistFac : 1
 999
SCAN2CAD ScalAdjustX : 1
 999
SCAN2CAD ScalAdjustY : 1
 999
SCAN2CAD MeasureMeth : 1
 999
SCAN2CAD OgDrawScale : 1
 999
SCAN2CAD OgDrawUType : 0
 999
SCAN2CAD ToDrawScale : 1
 999
SCAN2CAD ToDrawUType : 0
  0
SECTION
  2
HEADER
  9
$ACADVER
  1
AC1014
  9
$ACADMAINTVER
 70
     0
  9
$DWGCODEPAGE
  3
ANSI_1252
  9
$INSBASE
 10
0.0
 20
0.0
 30
0.0
 9
$EXTMIN
 10
28.4718
 20
15.0149921875
 30
0.0
 9
$EXTMAX
 10
205.9178
 20
306.6532921875
 30
0.0
 9
$LIMMIN
 10
0
 20
0
 9
$LIMMAX
 10
235
 20
335
  9
$ORTHOMODE
 70
     0
  9
$REGENMODE
 70
     1
  9
$FILLMODE
 70
     1
  9
$QTEXTMODE
 70
     0
  9
$MIRRTEXT
 70
     1
  9
$DRAGMODE
 70
     2
  9
$LTSCALE
 40
1.0
  9
$OSMODE
 70
     0
  9
$ATTMODE
 70
     1
  9
$TEXTSIZE
 40
0.2
  9
$TRACEWID
 40
0.05
  9
$TEXTSTYLE
  7
STANDARD
  9
$CLAYER
  8
0
  9
$CELTYPE
  6
CONTINUOUS
  9
$CECOLOR
 62
   256
  9
$CELTSCALE
 40
1.0
  9
$DELOBJ
 70
     1
  9
$DISPSILH
 70
     0
  9
$DIMSCALE
 40
1.0
  9
$DIMASZ
 40
0.18
  9
$DIMEXO
 40
0.0625
  9
$DIMDLI
 40
0.38
  9
$DIMRND
 40
0.0
  9
$DIMDLE
 40
0.0
  9
$DIMEXE
 40
0.18
  9
$DIMTP
 40
0.0
  9
$DIMTM
 40
0.0
  9
$DIMTXT
 40
0.18
  9
$DIMCEN
 40
0.09
  9
$DIMTSZ
 40
0.0
  9
$DIMTOL
 70
     0
  9
$DIMLIM
 70
     0
  9
$DIMTIH
 70
     1
  9
$DIMTOH
 70
     1
  9
$DIMSE1
 70
     0
  9
$DIMSE2
 70
     0
  9
$DIMTAD
 70
     0
  9
$DIMZIN
 70
     0
  9
$DIMBLK
  1

  9
$DIMASO
 70
     1
  9
$DIMSHO
 70
     1
  9
$DIMPOST
  1

  9
$DIMAPOST
  1

  9
$DIMALT
 70
     0
  9
$DIMALTD
 70
     2
  9
$DIMALTF
 40
25.4
  9
$DIMLFAC
 40
1.0
  9
$DIMTOFL
 70
     0
  9
$DIMTVP
 40
0.0
  9
$DIMTIX
 70
     0
  9
$DIMSOXD
 70
     0
  9
$DIMSAH
 70
     0
  9
$DIMBLK1
  1

  9
$DIMBLK2
  1

  9
$DIMSTYLE
  2
STANDARD
  9
$DIMCLRD
 70
     0
  9
$DIMCLRE
 70
     0
  9
$DIMCLRT
 70
     0
  9
$DIMTFAC
 40
1.0
  9
$DIMGAP
 40
0.09
  9
$DIMJUST
 70
     0
  9
$DIMSD1
 70
     0
  9
$DIMSD2
 70
     0
  9
$DIMTOLJ
 70
     1
  9
$DIMTZIN
 70
     0
  9
$DIMALTZ
 70
     0
  9
$DIMALTTZ
 70
     0
  9
$DIMFIT
 70
     3
  9
$DIMUPT
 70
     0
  9
$DIMUNIT
 70
     2
  9
$DIMDEC
 70
     4
  9
$DIMTDEC
 70
     4
  9
$DIMALTU
 70
     2
  9
$DIMALTTD
 70
     2
  9
$DIMTXSTY
  7
STANDARD
  9
$DIMAUNIT
 70
     0
  9
$LUNITS
 70
     2
  9
$LUPREC
 70
     4
  9
$SKETCHINC
 40
0.1
  9
$FILLETRAD
 40
0.0
  9
$AUNITS
 70
     0
  9
$AUPREC
 70
     0
  9
$MENU
  1
acad
  9
$ELEVATION
 40
0.0
  9
$PELEVATION
 40
0.0
  9
$THICKNESS
 40
0.0
  9
$LIMCHECK
 70
     0
  9
$BLIPMODE
 70
     1
  9
$CHAMFERA
 40
0.0
  9
$CHAMFERB
 40
0.0
  9
$CHAMFERC
 40
0.0
  9
$CHAMFERD
 40
0.0
  9
$SKPOLY
 70
     0
  9
$TDCREATE
 40
0.000000000
  9
$TDUPDATE
 40
0.000000000
  9
$TDINDWG
 40
0.0000000000
  9
$TDUSRTIMER
 40
0.0000000000
  9
$USRTIMER
 70
     1
  9
$ANGBASE
 50
0.0
  9
$ANGDIR
 70
     0
  9
$PDMODE
 70
     0
  9
$PDSIZE
 40
0.0
  9
$PLINEWID
 40
0.0
  9
$COORDS
 70
     0
  9
$SPLFRAME
 70
     0
  9
$SPLINETYPE
 70
     6
  9
$SPLINESEGS
 70
     8
  9
$ATTDIA
 70
     0
  9
$ATTREQ
 70
     1
  9
$HANDLING
 70
     1
  9
$HANDSEED
  5
      CD
  9
$SURFTAB1
 70
     6
  9
$SURFTAB2
 70
     6
  9
$SURFTYPE
 70
     6
  9
$SURFU
 70
     6
  9
$SURFV
 70
     6
  9
$UCSNAME
  2

  9
$UCSORG
 10
0.0
 20
0.0
 30
0.0
  9
$UCSXDIR
 10
1.0
 20
0.0
 30
0.0
  9
$UCSYDIR
 10
0.0
 20
1.0
 30
0.0
  9
$PUCSNAME
  2

  9
$PUCSORG
 10
0.0
 20
0.0
 30
0.0
  9
$PUCSXDIR
 10
1.0
 20
0.0
 30
0.0
  9
$PUCSYDIR
 10
0.0
 20
1.0
 30
0.0
  9
$USERI1
 70
     0
  9
$USERI2
 70
     0
  9
$USERI3
 70
     0
  9
$USERI4
 70
     0
  9
$USERI5
 70
     0
  9
$USERR1
 40
0.0
  9
$USERR2
 40
0.0
  9
$USERR3
 40
0.0
  9
$USERR4
 40
0.0
  9
$USERR5
 40
0.0
  9
$WORLDVIEW
 70
     1
  9
$SHADEDGE
 70
     3
  9
$SHADEDIF
 70
    70
  9
$TILEMODE
 70
     1
  9
$MAXACTVP
 70
    16
  9
$PINSBASE
 10
0.0
 20
0.0
 30
0.0
  9
$PLIMCHECK
 70
     0
 9
$PEXTMIN
 10
28.4718
 20
15.0149921875
 30
0.0
 9
$PEXTMAX
 10
205.9178
 20
306.6532921875
 30
0.0
 9
$PLIMMIN
 10
0
 20
0
 9
$PLIMMAX
 10
235
 20
335
  9
$UNITMODE
 70
     0
  9
$VISRETAIN
 70
     0
  9
$PLINEGEN
 70
     1
  9
$PSLTSCALE
 70
     0
  9
$TREEDEPTH
 70
  3020
  9
$PICKSTYLE
 70
     1
  9
$CMLSTYLE
  2
STANDARD
  9
$CMLJUST
 70
     0
  9
$CMLSCALE
 40
1.0
  9
$PROXYGRAPHICS
 70
     0
  9
$MEASUREMENT
 70
     0
  0
ENDSEC
  0
SECTION
  2
CLASSES
  0
CLASS
  1
LWPOLYLINE
  2
AcDbPolyline
  3
"AutoCAD"
 90
        0
280
     0
281
     1
  0
CLASS
  1
IMAGE
  2
AcDbRasterImage
  3
ISM
 90
      127
280
     0
281
     1
  0
CLASS
  1
OLE2FRAME
  2
AcDbOle2Frame
  3
""
 90
        0
280
     0
281
     1
  0
CLASS
  1
HATCH
  2
AcDbHatch
  3
"ACAD_SEDONA"
 90
        0
280
     0
281
     1
  0
CLASS
  1
DICTIONARYVAR
  2
AcDbDictionaryVar
  3
"AutoCAD"
 90
        0
280
     0
281
     0
  0
CLASS
  1
RASTERVARIABLES
  2
AcDbRasterVariables
  3
ISM
 90
        0
280
     0
281
     0
  0
CLASS
  1
IMAGEDEF
  2
AcDbRasterImageDef
  3
ISM
 90
        0
280
     0
281
     0
  0
CLASS
  1
IMAGEDEF_REACTOR
  2
AcDbRasterImageDefReactor
  3
ISM
 90
        1
280
     0
281
     0
  0
CLASS
  1
IDBUFFER
  2
AcDbIdBuffer
  3
"Acad"
 90
        0
280
     0
281
     0
  0
CLASS
  1
SPATIAL_FILTER
  2
AcDbSpatialFilter
  3
"Acad"
 90
        0
280
     0
281
     0
  0
CLASS
  1
XRECORD
  2
AcDbXrecord
  3
"<Built In>"
 90
        0
280
     0
281
     0
  0
CLASS
  1
SORTENTSTABLE
  2
AcDbSortentsTable
  3
"AutoCAD"
 90
        0
280
     0
281
     0
  0
CLASS
  1
LAYER_INDEX
  2
AcDbLayerIndex
  3
"Acad"
 90
        0
280
     0
281
     0
  0
CLASS
  1
SPATIAL_INDEX
  2
AcDbSpatialIndex
  3
"Acad"
 90
        0
280
     0
281
     0
  0
CLASS
  1
OBJECT_PTR
  2
CAseDLPNTableRecord
  3
"ASE-LPNTableRecord"
 90
        1
280
     0
281
     0
  0
ENDSEC
  0
SECTION
  2
TABLES
  0
TABLE
  2
VPORT
  5
7
100
AcDbSymbolTable
 70
     1
  0
VPORT
  5
15
100
AcDbSymbolTableRecord
100
AcDbViewportTableRecord
 2
*ACTIVE
 70
     0
 10
0
 20
0
 11
1.0
 21
1.0
 12
0.0
 22
0.0
 13
0.0
 23
0.0
 14
1.0
 24
1.0
 15
0.0
 25
0.0
 16
0.0
 26
0.0
 36
1.0
 17
117.1948
 27
160.8341421875
 37
0.0
 40
295.6383
 41
0.613743212567519
 42
50.0
 43
0.0
 44
0.0
 50
0.0
 51
0.0
 71
     0
 72
   100
 73
     1
 74
     1
 75
     0
 76
     0
 77
     0
 78
     0
   0
ENDTAB
  0
TABLE
  2
LTYPE
  5
4
100
AcDbSymbolTable
 70
3
  0
LTYPE
  5
11
100
AcDbSymbolTableRecord
100
AcDbLinetypeTableRecord
  2
BYBLOCK
 70
     0
  3

 72
    65
 73
     0
 40
0.0
  0
LTYPE
  5
12
100
AcDbSymbolTableRecord
100
AcDbLinetypeTableRecord
  2
BYLAYER
 70
     0
  3

 72
    65
 73
     0
 40
0.0
  0
LTYPE
  5
80
330
5
100
AcDbSymbolTableRecord
100
AcDbLinetypeTableRecord
  2
CONTINUOUS
 70
     0
  3
Continuous
 72
    65
 73
     0
 40
0.0
  0
LTYPE
  5
81
330
5
100
AcDbSymbolTableRecord
100
AcDbLinetypeTableRecord
  2
DASH
 70
     0
  3
Dash
 72
    65
 73
     2
 40
48.0
 49
24.0
 74
     0
 49
-24.0
 74
     0
  0
LTYPE
  5
82
330
5
100
AcDbSymbolTableRecord
100
AcDbLinetypeTableRecord
  2
DASHDOT
 70
     0
  3
DashDot
 72
    65
 73
     4
 40
48.0
 49
24.0
 74
     0
 49
 -12.0
 74
     0
 49
0.0
 74
     0
 49
 -12.0
 74
     0	
  0
ENDTAB
  0
TABLE
  2
LAYER
  5
2
100
AcDbSymbolTable
 70
4              
  0
LAYER
  5
83
100
AcDbSymbolTableRecord
100
AcDbLayerTableRecord
  2
0
 70
     0
 62
     7
  6
CONTINUOUS
 0
LAYER
  5
84
100
AcDbSymbolTableRecord
100
AcDbLayerTableRecord
 2
Layer0
 70
 64
 62
 7
 6
CONTINUOUS
 0
LAYER
  5
85
100
AcDbSymbolTableRecord
100
AcDbLayerTableRecord
 2
Layer8
 70
 64
 62
 8
 6
CONTINUOUS
 0
LAYER
  5
86
100
AcDbSymbolTableRecord
100
AcDbLayerTableRecord
 2
Layer22
 70
 64
 62
 22
 6
CONTINUOUS
  0
ENDTAB
  0
TABLE
  2
STYLE
  5
3
100
AcDbSymbolTable
 70
1              
 0
STYLE
 5
17
100
AcDbSymbolTableRecord
100
AcDbTextStyleTableRecord
 2
STANDARD
 70
 0
 40
 0.0
 41
 1.0
 50
 0.0
 71
  0
 42
 8.0
 3
 txt
 4

  0
ENDTAB
  0
TABLE
  2
VIEW
  5
5
100
AcDbSymbolTable
 70
     0
  0
ENDTAB
  0
TABLE
  2
UCS
  5
6
100
AcDbSymbolTable
 70
     0
  0
ENDTAB
  0
TABLE
  2
APPID
  5
8
100
AcDbSymbolTable
 70
     1
  0
APPID
  5
16
100
AcDbSymbolTableRecord
100
AcDbRegAppTableRecord
  2
ACAD
 70
     0
  0
ENDTAB
  0
TABLE
  2
DIMSTYLE
  5
9
100
AcDbSymbolTable
 70
     1
  0
DIMSTYLE
105
18
100
AcDbSymbolTableRecord
100
AcDbDimStyleTableRecord
  2
STANDARD
 70
     0
  3

  4

  5

  6

  7

 40
1.0
 41
0.18
 42
0.0625
 43
0.38
 44
0.18
 45
0.0
 46
0.0
 47
0.0
 48
0.0
140
0.18
141
0.09
142
0.0
143
25.4
144
1.0
145
0.0
146
1.0
147
0.09
 71
     0
 72
     0
 73
     1
 74
     1
 75
     0
 76
     0
 77
     0
 78
     0
170
     0
171
     2
172
     0
173
     0
174
     0
175
     0
176
     0
177
     0
178
     0
270
     2
271
     4
272
     4
273
     2
274
     2
340
17
275
     0
280
     0
281
     0
282
     0
283
     1
284
     0
285
     0
286
     0
287
     0
288
     0
  0
ENDTAB
  0
TABLE
  2
BLOCK_RECORD
  5
1
100
AcDbSymbolTable
 70
     0
  0
BLOCK_RECORD
  5
A
100
AcDbSymbolTableRecord
100
AcDbBlockTableRecord
  2
*MODEL_SPACE
  0
BLOCK_RECORD
  5
B
100
AcDbSymbolTableRecord
100
AcDbBlockTableRecord
  2
*PAPER_SPACE
  0
ENDTAB
  0
ENDSEC
  0
SECTION
  2
BLOCKS
  0
BLOCK
  5
D
100
AcDbEntity
  8
0
100
AcDbBlockBegin
  2
*MODEL_SPACE
 70
     0
 10
0.0
 20
0.0
 30
0.0
  3
*MODEL_SPACE
  1

  0
ENDBLK
  5
E
100
AcDbEntity
  8
0
100
AcDbBlockEnd
  0
BLOCK
  5
F
100
AcDbEntity
 67
     1
  8
0
100
AcDbBlockBegin
  2
*PAPER_SPACE
 70
     0
 10
0.0
 20
0.0
 30
0.0
  3
*PAPER_SPACE
  1

  0
ENDBLK
  5
10
100
AcDbEntity
 67
     1
  8
0
100
AcDbBlockEnd
 0
ENDSEC
 0
SECTION
 2
ENTITIES
 0
HATCH
 5
87
100
AcDbEntity
 8
Layer8
100
AcDbHatch
 10
 0.0
 20
 0.0
 30
 0.0
 210
 0.0
 220
 0.0
 230
 1.0
 2
SOLID
 70
 1
 71
 1
 91
2              
 92
 0
 93
13             
 72
 1
 10
202.0389
 20
183.0321921875
 11
201.4739
 21
183.0321921875
 72
 1
 10
201.4739
 20
183.0321921875
 11
200.9059
 21
183.0321921875
 72
 1
 10
200.9059
 20
183.0321921875
 11
194.9299
 21
186.1841921875
 72
 1
 10
194.9299
 20
186.1841921875
 11
194.9299
 21
186.5711921875
 72
 1
 10
194.9299
 20
186.5711921875
 11
194.9299
 21
186.9581921875
 72
 1
 10
194.9299
 20
186.9581921875
 11
201.0509
 21
186.9581921875
 72
 1
 10
201.0509
 20
186.9581921875
 11
201.0509
 21
187.9421921875
 72
 1
 10
201.0509
 20
187.9421921875
 11
202.0389
 21
187.9421921875
 72
 1
 10
202.0389
 20
187.9421921875
 11
202.0389
 21
186.9581921875
 72
 1
 10
202.0389
 20
186.9581921875
 11
204.2869
 21
186.9581921875
 72
 1
 10
204.2869
 20
186.9581921875
 11
204.2869
 21
186.0851921875
 72
 1
 10
204.2869
 20
186.0851921875
 11
202.0389
 21
186.0851921875
 72
 1
 10
202.0389
 20
186.0851921875
 11
202.0389
 21
183.0321921875
 97
 1
 330
88
 92
 0
 93
4              
 72
 1
 10
201.0509
 20
186.0851921875
 11
196.6639
 21
186.0851921875
 72
 1
 10
196.6639
 20
186.0851921875
 11
200.9059
 21
183.9111921875
 72
 1
 10
200.9059
 20
183.9111921875
 11
201.0509
 21
183.8351921875
 72
 1
 10
201.0509
 20
183.8351921875
 11
201.0509
 21
186.0851921875
 97
 1
 330
89
 75
 0
 76
 1
 98
 1
 10
 0.0
 20
 0.0
 0
HATCH
 5
8A
100
AcDbEntity
 8
Layer8
100
AcDbHatch
 10
 0.0
 20
 0.0
 30
 0.0
 210
 0.0
 220
 0.0
 230
 1.0
 2
SOLID
 70
 1
 71
 1
 91
3              
 92
 0
 93
128            
 72
 1
 10
199.3182
 20
192.2372921875
 11
199.35687578125
 21
192.302450390625
 72
 1
 10
199.35687578125
 20
192.302450390625
 11
199.39791875
 21
192.3659328125
 72
 1
 10
199.39791875
 20
192.3659328125
 11
199.44135234375
 21
192.427751171875
 72
 1
 10
199.44135234375
 20
192.427751171875
 11
199.4872
 21
192.4879171875
 72
 1
 10
199.4872
 20
192.4879171875
 11
199.53548515625
 21
192.546442578125
 72
 1
 10
199.53548515625
 20
192.546442578125
 11
199.58623125
 21
192.6033390625
 72
 1
 10
199.58623125
 20
192.6033390625
 11
199.63946171875
 21
192.658618359375
 72
 1
 10
199.63946171875
 20
192.658618359375
 11
199.6952
 21
192.7122921875
 72
 1
 10
199.6952
 20
192.7122921875
 11
199.873651171875
 21
192.862301953125
 72
 1
 10
199.873651171875
 20
192.862301953125
 11
200.066996875
 21
192.9921203125
 72
 1
 10
200.066996875
 20
192.9921203125
 11
200.275225390625
 21
193.101805859375
 72
 1
 10
200.275225390625
 20
193.101805859375
 11
200.498325
 21
193.1914171875
 72
 1
 10
200.498325
 20
193.1914171875
 11
200.736283984375
 21
193.261012890625
 72
 1
 10
200.736283984375
 20
193.261012890625
 11
200.989090625
 21
193.3106515625
 72
 1
 10
200.989090625
 20
193.3106515625
 11
201.256733203125
 21
193.340391796875
 72
 1
 10
201.256733203125
 20
193.340391796875
 11
201.5392
 21
193.3502921875
 72
 1
 10
201.5392
 20
193.3502921875
 11
201.8738484375
 21
193.340391796875
 72
 1
 10
201.8738484375
 20
193.340391796875
 11
202.190825
 21
193.3106515625
 72
 1
 10
202.190825
 20
193.3106515625
 11
202.4901765625
 21
193.261012890625
 72
 1
 10
202.4901765625
 20
193.261012890625
 11
202.77195
 21
193.1914171875
 72
 1
 10
202.77195
 20
193.1914171875
 11
203.0361921875
 21
193.101805859375
 72
 1
 10
203.0361921875
 20
193.101805859375
 11
203.28295
 21
192.9921203125
 72
 1
 10
203.28295
 20
192.9921203125
 11
203.5122703125
 21
192.862301953125
 72
 1
 10
203.5122703125
 20
192.862301953125
 11
203.7242
 21
192.7122921875
 72
 1
 10
203.7242
 20
192.7122921875
 11
203.913670703125
 21
192.545930859375
 72
 1
 10
203.913670703125
 20
192.545930859375
 11
204.077840625
 21
192.3655890625
 72
 1
 10
204.077840625
 20
192.3655890625
 11
204.216721484375
 21
192.171255078125
 72
 1
 10
204.216721484375
 20
192.171255078125
 11
204.330325
 21
191.9629171875
 72
 1
 10
204.330325
 20
191.9629171875
 11
204.418662890625
 21
191.740563671875
 72
 1
 10
204.418662890625
 20
191.740563671875
 11
204.481746875
 21
191.5041828125
 72
 1
 10
204.481746875
 20
191.5041828125
 11
204.519588671875
 21
191.253762890625
 72
 1
 10
204.519588671875
 20
191.253762890625
 11
204.5322
 21
190.9892921875
 72
 1
 10
204.5322
 20
190.9892921875
 11
204.51973515625
 21
190.725805859375
 72
 1
 10
204.51973515625
 20
190.725805859375
 11
204.48235625
 21
190.4760890625
 72
 1
 10
204.48235625
 20
190.4760890625
 11
204.42008671875
 21
190.240130078125
 72
 1
 10
204.42008671875
 20
190.240130078125
 11
204.33295
 21
190.0179171875
 72
 1
 10
204.33295
 20
190.0179171875
 11
204.22096953125
 21
189.809438671875
 72
 1
 10
204.22096953125
 20
189.809438671875
 11
204.08416875
 21
189.6146828125
 72
 1
 10
204.08416875
 20
189.6146828125
 11
203.92257109375
 21
189.433637890625
 72
 1
 10
203.92257109375
 20
189.433637890625
 11
203.7362
 21
189.2662921875
 72
 1
 10
203.7362
 20
189.2662921875
 11
203.528408984375
 21
189.118794140625
 72
 1
 10
203.528408984375
 20
189.118794140625
 11
203.303309375
 21
188.9906203125
 72
 1
 10
203.303309375
 20
188.9906203125
 11
203.060936328125
 21
188.881876171875
 72
 1
 10
203.060936328125
 20
188.881876171875
 11
202.801325
 21
188.7926671875
 72
 1
 10
202.801325
 20
188.7926671875
 11
202.524510546875
 21
188.723098828125
 72
 1
 10
202.524510546875
 20
188.723098828125
 11
202.230528125
 21
188.6732765625
 72
 1
 10
202.230528125
 20
188.6732765625
 11
201.919412890625
 21
188.643305859375
 72
 1
 10
201.919412890625
 20
188.643305859375
 11
201.5912
 21
188.6332921875
 72
 1
 10
201.5912
 20
188.6332921875
 11
201.3025515625
 21
188.64331171875
 72
 1
 10
201.3025515625
 20
188.64331171875
 11
201.0291375
 21
188.6733234375
 72
 1
 10
201.0291375
 20
188.6733234375
 11
200.7710046875
 21
188.72325703125
 72
 1
 10
200.7710046875
 20
188.72325703125
 11
200.5282
 21
188.7930421875
 72
 1
 10
200.5282
 20
188.7930421875
 11
200.3007703125
 21
188.88260859375
 72
 1
 10
200.3007703125
 20
188.88260859375
 11
200.0887625
 21
188.9918859375
 72
 1
 10
200.0887625
 20
188.9918859375
 11
199.8922234375
 21
189.12080390625
 72
 1
 10
199.8922234375
 20
189.12080390625
 11
199.7112
 21
189.2692921875
 72
 1
 10
199.7112
 20
189.2692921875
 11
199.6523953125
 21
189.32395625
 72
 1
 10
199.6523953125
 20
189.32395625
 11
199.5966375
 21
189.3799796875
 72
 1
 10
199.5966375
 20
189.3799796875
 11
199.5437859375
 21
189.437409375
 72
 1
 10
199.5437859375
 20
189.437409375
 11
199.4937
 21
189.4962921875
 72
 1
 10
199.4937
 20
189.4962921875
 11
199.4462390625
 21
189.556675
 72
 1
 10
199.4462390625
 20
189.556675
 11
199.4012625
 21
189.6186046875
 72
 1
 10
199.4012625
 20
189.6186046875
 11
199.3586296875
 21
189.682128125
 72
 1
 10
199.3586296875
 20
189.682128125
 11
199.3182
 21
189.7472921875
 72
 1
 10
199.3182
 20
189.7472921875
 11
199.2870828125
 21
189.7090734375
 72
 1
 10
199.2870828125
 20
189.7090734375
 11
199.2552625
 21
189.6716046875
 72
 1
 10
199.2552625
 20
189.6716046875
 11
199.2227859375
 21
189.6347921875
 72
 1
 10
199.2227859375
 20
189.6347921875
 11
199.1897
 21
189.5985421875
 72
 1
 10
199.1897
 20
189.5985421875
 11
199.1560515625
 21
189.5627609375
 72
 1
 10
199.1560515625
 20
189.5627609375
 11
199.1218875
 21
189.5273546875
 72
 1
 10
199.1218875
 20
189.5273546875
 11
199.0872546875
 21
189.4922296875
 72
 1
 10
199.0872546875
 20
189.4922296875
 11
199.0522
 21
189.4572921875
 72
 1
 10
199.0522
 20
189.4572921875
 11
198.88673125
 21
189.32444453125
 72
 1
 10
198.88673125
 20
189.32444453125
 11
198.707575
 21
189.2093859375
 72
 1
 10
198.707575
 20
189.2093859375
 11
198.51473125
 21
189.11209296875
 72
 1
 10
198.51473125
 20
189.11209296875
 11
198.3082
 21
189.0325421875
 72
 1
 10
198.3082
 20
189.0325421875
 11
198.08798125
 21
188.97071015625
 72
 1
 10
198.08798125
 20
188.97071015625
 11
197.854075
 21
188.9265734375
 72
 1
 10
197.854075
 20
188.9265734375
 11
197.60648125
 21
188.90010859375
 72
 1
 10
197.60648125
 20
188.90010859375
 11
197.3452
 21
188.8912921875
 72
 1
 10
197.3452
 20
188.8912921875
 11
197.07553203125
 21
188.90010859375
 72
 1
 10
197.07553203125
 20
188.90010859375
 11
196.82004375
 21
188.9265734375
 72
 1
 10
196.82004375
 20
188.9265734375
 11
196.57875859375
 21
188.97071015625
 72
 1
 10
196.57875859375
 20
188.97071015625
 11
196.3517
 21
189.0325421875
 72
 1
 10
196.3517
 20
189.0325421875
 11
196.13889140625
 21
189.11209296875
 72
 1
 10
196.13889140625
 20
189.11209296875
 11
195.94035625
 21
189.2093859375
 72
 1
 10
195.94035625
 20
189.2093859375
 11
195.75611796875
 21
189.32444453125
 72
 1
 10
195.75611796875
 20
189.32444453125
 11
195.5862
 21
189.4572921875
 72
 1
 10
195.5862
 20
189.4572921875
 11
195.431928515625
 21
189.607161328125
 72
 1
 10
195.431928515625
 20
189.607161328125
 11
195.298340625
 21
189.7688078125
 72
 1
 10
195.298340625
 20
189.7688078125
 11
195.185401171875
 21
189.942290234375
 72
 1
 10
195.185401171875
 20
189.942290234375
 11
195.093075
 21
190.1276671875
 72
 1
 10
195.093075
 20
190.1276671875
 11
195.021326953125
 21
190.324997265625
 72
 1
 10
195.021326953125
 20
190.324997265625
 11
194.970121875
 21
190.5343390625
 72
 1
 10
194.970121875
 20
190.5343390625
 11
194.939424609375
 21
190.755751171875
 72
 1
 10
194.939424609375
 20
190.755751171875
 11
194.9292
 21
190.9892921875
 72
 1
 10
194.9292
 20
190.9892921875
 11
194.939424609375
 21
191.223805859375
 72
 1
 10
194.939424609375
 20
191.223805859375
 11
194.970121875
 21
191.4458390625
 72
 1
 10
194.970121875
 20
191.4458390625
 11
195.021326953125
 21
191.655380078125
 72
 1
 10
195.021326953125
 20
191.655380078125
 11
195.093075
 21
191.8524171875
 72
 1
 10
195.093075
 20
191.8524171875
 11
195.185401171875
 21
192.036938671875
 72
 1
 10
195.185401171875
 20
192.036938671875
 11
195.298340625
 21
192.2089328125
 72
 1
 10
195.298340625
 20
192.2089328125
 11
195.431928515625
 21
192.368387890625
 72
 1
 10
195.431928515625
 20
192.368387890625
 11
195.5862
 21
192.5152921875
 72
 1
 10
195.5862
 20
192.5152921875
 11
195.75611796875
 21
192.6501203125
 72
 1
 10
195.75611796875
 20
192.6501203125
 11
195.94035625
 21
192.7666671875
 72
 1
 10
195.94035625
 20
192.7666671875
 11
196.13889140625
 21
192.8650265625
 72
 1
 10
196.13889140625
 20
192.8650265625
 11
196.3517
 21
192.9452921875
 72
 1
 10
196.3517
 20
192.9452921875
 11
196.57875859375
 21
193.0075578125
 72
 1
 10
196.57875859375
 20
193.0075578125
 11
196.82004375
 21
193.0519171875
 72
 1
 10
196.82004375
 20
193.0519171875
 11
197.07553203125
 21
193.0784640625
 72
 1
 10
197.07553203125
 20
193.0784640625
 11
197.3452
 21
193.0872921875
 72
 1
 10
197.3452
 20
193.0872921875
 11
197.606573046875
 21
193.0784640625
 72
 1
 10
197.606573046875
 20
193.0784640625
 11
197.854434375
 21
193.0519171875
 72
 1
 10
197.854434375
 20
193.0519171875
 11
198.088772265625
 21
193.0075578125
 72
 1
 10
198.088772265625
 20
193.0075578125
 11
198.309575
 21
192.9452921875
 72
 1
 10
198.309575
 20
192.9452921875
 11
198.516830859375
 21
192.8650265625
 72
 1
 10
198.516830859375
 20
192.8650265625
 11
198.710528125
 21
192.7666671875
 72
 1
 10
198.710528125
 20
192.7666671875
 11
198.890655078125
 21
192.6501203125
 72
 1
 10
198.890655078125
 20
192.6501203125
 11
199.0572
 21
192.5152921875
 72
 1
 10
199.0572
 20
192.5152921875
 11
199.092573046875
 21
192.484028515625
 72
 1
 10
199.092573046875
 20
192.484028515625
 11
199.127371875
 21
192.4517453125
 72
 1
 10
199.127371875
 20
192.4517453125
 11
199.161491015625
 21
192.418454296875
 72
 1
 10
199.161491015625
 20
192.418454296875
 11
199.194825
 21
192.3841671875
 72
 1
 10
199.194825
 20
192.3841671875
 11
199.227268359375
 21
192.348895703125
 72
 1
 10
199.227268359375
 20
192.348895703125
 11
199.258715625
 21
192.3126515625
 72
 1
 10
199.258715625
 20
192.3126515625
 11
199.289061328125
 21
192.275446484375
 72
 1
 10
199.289061328125
 20
192.275446484375
 11
199.3182
 21
192.2372921875
 97
 1
 330
8B
 92
 0
 93
64             
 72
 1
 10
198.8632
 20
190.9892921875
 11
198.857381640625
 21
191.12606171875
 72
 1
 10
198.857381640625
 20
191.12606171875
 11
198.839903125
 21
191.2550734375
 72
 1
 10
198.839903125
 20
191.2550734375
 11
198.810729296875
 21
191.37625703125
 72
 1
 10
198.810729296875
 20
191.37625703125
 11
198.769825
 21
191.4895421875
 72
 1
 10
198.769825
 20
191.4895421875
 11
198.717155078125
 21
191.59485859375
 72
 1
 10
198.717155078125
 20
191.59485859375
 11
198.652684375
 21
191.6921359375
 72
 1
 10
198.652684375
 20
191.6921359375
 11
198.576377734375
 21
191.78130390625
 72
 1
 10
198.576377734375
 20
191.78130390625
 11
198.4882
 21
191.8622921875
 72
 1
 10
198.4882
 20
191.8622921875
 11
198.390334765625
 21
191.93537421875
 72
 1
 10
198.390334765625
 20
191.93537421875
 11
198.282778125
 21
191.9986359375
 72
 1
 10
198.282778125
 20
191.9986359375
 11
198.165588671875
 21
192.05210078125
 72
 1
 10
198.165588671875
 20
192.05210078125
 11
198.038825
 21
192.0957921875
 72
 1
 10
198.038825
 20
192.0957921875
 11
197.902545703125
 21
192.12973359375
 72
 1
 10
197.902545703125
 20
192.12973359375
 11
197.756809375
 21
192.1539484375
 72
 1
 10
197.756809375
 20
192.1539484375
 11
197.601674609375
 21
192.16846015625
 72
 1
 10
197.601674609375
 20
192.16846015625
 11
197.4372
 21
192.1732921875
 72
 1
 10
197.4372
 20
192.1732921875
 11
197.2668328125
 21
192.16846015625
 72
 1
 10
197.2668328125
 20
192.16846015625
 11
197.1066375
 21
192.1539484375
 72
 1
 10
197.1066375
 20
192.1539484375
 11
196.9564734375
 21
192.12973359375
 72
 1
 10
196.9564734375
 20
192.12973359375
 11
196.8162
 21
192.0957921875
 72
 1
 10
196.8162
 20
192.0957921875
 11
196.6856765625
 21
192.05210078125
 72
 1
 10
196.6856765625
 20
192.05210078125
 11
196.5647625
 21
191.9986359375
 72
 1
 10
196.5647625
 20
191.9986359375
 11
196.4533171875
 21
191.93537421875
 72
 1
 10
196.4533171875
 20
191.93537421875
 11
196.3512
 21
191.8622921875
 72
 1
 10
196.3512
 20
191.8622921875
 11
196.2611140625
 21
191.78130390625
 72
 1
 10
196.2611140625
 20
191.78130390625
 11
196.1828875
 21
191.6921359375
 72
 1
 10
196.1828875
 20
191.6921359375
 11
196.1165671875
 21
191.59485859375
 72
 1
 10
196.1165671875
 20
191.59485859375
 11
196.0622
 21
191.4895421875
 72
 1
 10
196.0622
 20
191.4895421875
 11
196.0198328125
 21
191.37625703125
 72
 1
 10
196.0198328125
 20
191.37625703125
 11
195.9895125
 21
191.2550734375
 72
 1
 10
195.9895125
 20
191.2550734375
 11
195.9712859375
 21
191.12606171875
 72
 1
 10
195.9712859375
 20
191.12606171875
 11
195.9652
 21
190.9892921875
 72
 1
 10
195.9652
 20
190.9892921875
 11
195.9712859375
 21
190.852645703125
 72
 1
 10
195.9712859375
 20
190.852645703125
 11
195.9895125
 21
190.7239328125
 72
 1
 10
195.9895125
 20
190.7239328125
 11
196.0198328125
 21
190.603118359375
 72
 1
 10
196.0198328125
 20
190.603118359375
 11
196.0622
 21
190.4901671875
 72
 1
 10
196.0622
 20
190.4901671875
 11
196.1165671875
 21
190.385044140625
 72
 1
 10
196.1165671875
 20
190.385044140625
 11
196.1828875
 21
190.2877140625
 72
 1
 10
196.1828875
 20
190.2877140625
 11
196.2611140625
 21
190.198141796875
 72
 1
 10
196.2611140625
 20
190.198141796875
 11
196.3512
 21
190.1162921875
 72
 1
 10
196.3512
 20
190.1162921875
 11
196.4533171875
 21
190.044071484375
 72
 1
 10
196.4533171875
 20
190.044071484375
 11
196.5647625
 21
189.9812140625
 72
 1
 10
196.5647625
 20
189.9812140625
 11
196.6856765625
 21
189.927801953125
 72
 1
 10
196.6856765625
 20
189.927801953125
 11
196.8162
 21
189.8839171875
 72
 1
 10
196.8162
 20
189.8839171875
 11
196.9564734375
 21
189.849641796875
 72
 1
 10
196.9564734375
 20
189.849641796875
 11
197.1066375
 21
189.8250578125
 72
 1
 10
197.1066375
 20
189.8250578125
 11
197.2668328125
 21
189.810247265625
 72
 1
 10
197.2668328125
 20
189.810247265625
 11
197.4372
 21
189.8052921875
 72
 1
 10
197.4372
 20
189.8052921875
 11
197.601682421875
 21
189.810247265625
 72
 1
 10
197.601682421875
 20
189.810247265625
 11
197.756871875
 21
189.8250578125
 72
 1
 10
197.756871875
 20
189.8250578125
 11
197.902756640625
 21
189.849641796875
 72
 1
 10
197.902756640625
 20
189.849641796875
 11
198.039325
 21
189.8839171875
 72
 1
 10
198.039325
 20
189.8839171875
 11
198.166565234375
 21
189.927801953125
 72
 1
 10
198.166565234375
 20
189.927801953125
 11
198.284465625
 21
189.9812140625
 72
 1
 10
198.284465625
 20
189.9812140625
 11
198.393014453125
 21
190.044071484375
 72
 1
 10
198.393014453125
 20
190.044071484375
 11
198.4922
 21
190.1162921875
 72
 1
 10
198.4922
 20
190.1162921875
 11
198.579057421875
 21
190.198141796875
 72
 1
 10
198.579057421875
 20
190.198141796875
 11
198.654371875
 21
190.2877140625
 72
 1
 10
198.654371875
 20
190.2877140625
 11
198.718131640625
 21
190.385044140625
 72
 1
 10
198.718131640625
 20
190.385044140625
 11
198.770325
 21
190.4901671875
 72
 1
 10
198.770325
 20
190.4901671875
 11
198.810940234375
 21
190.603118359375
 72
 1
 10
198.810940234375
 20
190.603118359375
 11
198.839965625
 21
190.7239328125
 72
 1
 10
198.839965625
 20
190.7239328125
 11
198.857389453125
 21
190.852645703125
 72
 1
 10
198.857389453125
 20
190.852645703125
 11
198.8632
 21
190.9892921875
 97
 1
 330
8C
 92
 0
 93
64             
 72
 1
 10
199.8392
 20
190.9892921875
 11
199.846838671875
 21
190.824675
 72
 1
 10
199.846838671875
 20
190.824675
 11
199.869746875
 21
190.6691046875
 72
 1
 10
199.869746875
 20
190.6691046875
 11
199.907912890625
 21
190.522628125
 72
 1
 10
199.907912890625
 20
190.522628125
 11
199.961325
 21
190.3852921875
 72
 1
 10
199.961325
 20
190.3852921875
 11
200.029971484375
 21
190.25714375
 72
 1
 10
200.029971484375
 20
190.25714375
 11
200.113840625
 21
190.1382296875
 72
 1
 10
200.113840625
 20
190.1382296875
 11
200.212920703125
 21
190.028596875
 72
 1
 10
200.212920703125
 20
190.028596875
 11
200.3272
 21
189.9282921875
 72
 1
 10
200.3272
 20
189.9282921875
 11
200.455170703125
 21
189.8396125
 72
 1
 10
200.455170703125
 20
189.8396125
 11
200.595340625
 21
189.7626046875
 72
 1
 10
200.595340625
 20
189.7626046875
 11
200.747721484375
 21
189.697315625
 72
 1
 10
200.747721484375
 20
189.697315625
 11
200.912325
 21
189.6437921875
 72
 1
 10
200.912325
 20
189.6437921875
 11
201.089162890625
 21
189.60208125
 72
 1
 10
201.089162890625
 20
189.60208125
 11
201.278246875
 21
189.5722296875
 72
 1
 10
201.278246875
 20
189.5722296875
 11
201.479588671875
 21
189.554284375
 72
 1
 10
201.479588671875
 20
189.554284375
 11
201.6932
 21
189.5482921875
 72
 1
 10
201.6932
 20
189.5482921875
 11
201.900463671875
 21
189.554284375
 72
 1
 10
201.900463671875
 20
189.554284375
 11
202.096184375
 21
189.5722296875
 72
 1
 10
202.096184375
 20
189.5722296875
 11
202.280256640625
 21
189.60208125
 72
 1
 10
202.280256640625
 20
189.60208125
 11
202.452575
 21
189.6437921875
 72
 1
 10
202.452575
 20
189.6437921875
 11
202.613033984375
 21
189.697315625
 72
 1
 10
202.613033984375
 20
189.697315625
 11
202.761528125
 21
189.7626046875
 72
 1
 10
202.761528125
 20
189.7626046875
 11
202.897951953125
 21
189.8396125
 72
 1
 10
202.897951953125
 20
189.8396125
 11
203.0222
 21
189.9282921875
 72
 1
 10
203.0222
 20
189.9282921875
 11
203.133623828125
 21
190.028596875
 72
 1
 10
203.133623828125
 20
190.028596875
 11
203.230153125
 21
190.1382296875
 72
 1
 10
203.230153125
 20
190.1382296875
 11
203.311799609375
 21
190.25714375
 72
 1
 10
203.311799609375
 20
190.25714375
 11
203.378575
 21
190.3852921875
 72
 1
 10
203.378575
 20
190.3852921875
 11
203.430491015625
 21
190.522628125
 72
 1
 10
203.430491015625
 20
190.522628125
 11
203.467559375
 21
190.6691046875
 72
 1
 10
203.467559375
 20
190.6691046875
 11
203.489791796875
 21
190.824675
 72
 1
 10
203.489791796875
 20
190.824675
 11
203.4972
 21
190.9892921875
 72
 1
 10
203.4972
 20
190.9892921875
 11
203.489791796875
 21
191.155969921875
 72
 1
 10
203.489791796875
 20
191.155969921875
 11
203.467559375
 21
191.3132140625
 72
 1
 10
203.467559375
 20
191.3132140625
 11
203.430491015625
 21
191.460966015625
 72
 1
 10
203.430491015625
 20
191.460966015625
 11
203.378575
 21
191.5991671875
 72
 1
 10
203.378575
 20
191.5991671875
 11
203.311799609375
 21
191.727758984375
 72
 1
 10
203.311799609375
 20
191.727758984375
 11
203.230153125
 21
191.8466828125
 72
 1
 10
203.230153125
 20
191.8466828125
 11
203.133623828125
 21
191.955880078125
 72
 1
 10
203.133623828125
 20
191.955880078125
 11
203.0222
 21
192.0552921875
 72
 1
 10
203.0222
 20
192.0552921875
 11
202.897951953125
 21
192.144876171875
 72
 1
 10
202.897951953125
 20
192.144876171875
 11
202.761528125
 21
192.2224015625
 72
 1
 10
202.761528125
 20
192.2224015625
 11
202.613033984375
 21
192.287903515625
 72
 1
 10
202.613033984375
 20
192.287903515625
 11
202.452575
 21
192.3414171875
 72
 1
 10
202.452575
 20
192.3414171875
 11
202.280256640625
 21
192.382977734375
 72
 1
 10
202.280256640625
 20
192.382977734375
 11
202.096184375
 21
192.4126203125
 72
 1
 10
202.096184375
 20
192.4126203125
 11
201.900463671875
 21
192.430380078125
 72
 1
 10
201.900463671875
 20
192.430380078125
 11
201.6932
 21
192.4362921875
 72
 1
 10
201.6932
 20
192.4362921875
 11
201.479588671875
 21
192.430380078125
 72
 1
 10
201.479588671875
 20
192.430380078125
 11
201.278246875
 21
192.4126203125
 72
 1
 10
201.278246875
 20
192.4126203125
 11
201.089162890625
 21
192.382977734375
 72
 1
 10
201.089162890625
 20
192.382977734375
 11
200.912325
 21
192.3414171875
 72
 1
 10
200.912325
 20
192.3414171875
 11
200.747721484375
 21
192.287903515625
 72
 1
 10
200.747721484375
 20
192.287903515625
 11
200.595340625
 21
192.2224015625
 72
 1
 10
200.595340625
 20
192.2224015625
 11
200.455170703125
 21
192.144876171875
 72
 1
 10
200.455170703125
 20
192.144876171875
 11
200.3272
 21
192.0552921875
 72
 1
 10
200.3272
 20
192.0552921875
 11
200.212920703125
 21
191.955880078125
 72
 1
 10
200.212920703125
 20
191.955880078125
 11
200.113840625
 21
191.8466828125
 72
 1
 10
200.113840625
 20
191.8466828125
 11
200.029971484375
 21
191.727758984375
 72
 1
 10
200.029971484375
 20
191.727758984375
 11
199.961325
 21
191.5991671875
 72
 1
 10
199.961325
 20
191.5991671875
 11
199.907912890625
 21
191.460966015625
 72
 1
 10
199.907912890625
 20
191.460966015625
 11
199.869746875
 21
191.3132140625
 72
 1
 10
199.869746875
 20
191.3132140625
 11
199.846838671875
 21
191.155969921875
 72
 1
 10
199.846838671875
 20
191.155969921875
 11
199.8392
 21
190.9892921875
 97
 1
 330
8D
 75
 0
 76
 1
 98
 1
 10
 0.0
 20
 0.0
 0
HATCH
 5
8E
100
AcDbEntity
 8
Layer8
100
AcDbHatch
 10
 0.0
 20
 0.0
 30
 0.0
 210
 0.0
 220
 0.0
 230
 1.0
 2
SOLID
 70
 1
 71
 1
 91
2              
 92
 0
 93
13             
 72
 1
 10
96.2791
 20
298.6640921875
 11
96.2791
 21
299.2290921875
 72
 1
 10
96.2791
 20
299.2290921875
 11
96.2791
 21
299.7980921875
 72
 1
 10
96.2791
 20
299.7980921875
 11
99.4321
 21
305.7740921875
 72
 1
 10
99.4321
 20
305.7740921875
 11
99.8151
 21
305.7740921875
 72
 1
 10
99.8151
 20
305.7740921875
 11
100.2051
 21
305.7740921875
 72
 1
 10
100.2051
 20
305.7740921875
 11
100.2051
 21
299.6540921875
 72
 1
 10
100.2051
 20
299.6540921875
 11
101.1871
 21
299.6540921875
 72
 1
 10
101.1871
 20
299.6540921875
 11
101.1871
 21
298.6640921875
 72
 1
 10
101.1871
 20
298.6640921875
 11
100.2051
 21
298.6640921875
 72
 1
 10
100.2051
 20
298.6640921875
 11
100.2051
 21
296.4170921875
 72
 1
 10
100.2051
 20
296.4170921875
 11
99.3321
 21
296.4170921875
 72
 1
 10
99.3321
 20
296.4170921875
 11
99.3321
 21
298.6640921875
 72
 1
 10
99.3321
 20
298.6640921875
 11
96.2791
 21
298.6640921875
 97
 1
 330
8F
 92
 0
 93
4              
 72
 1
 10
99.3321
 20
299.6540921875
 11
99.3321
 21
304.0400921875
 72
 1
 10
99.3321
 20
304.0400921875
 11
97.1561
 21
299.7980921875
 72
 1
 10
97.1561
 20
299.7980921875
 11
97.0801
 21
299.6540921875
 72
 1
 10
97.0801
 20
299.6540921875
 11
99.3321
 21
299.6540921875
 97
 1
 330
90
 75
 0
 76
 1
 98
 1
 10
 0.0
 20
 0.0
 0
HATCH
 5
91
100
AcDbEntity
 8
Layer8
100
AcDbHatch
 10
 0.0
 20
 0.0
 30
 0.0
 210
 0.0
 220
 0.0
 230
 1.0
 2
SOLID
 70
 1
 71
 1
 91
2              
 92
 0
 93
64             
 72
 1
 10
102.4881
 20
297.4042921875
 11
102.34321328125
 21
297.7291359375
 72
 1
 10
102.34321328125
 20
297.7291359375
 11
102.21756875
 21
298.0864171875
 72
 1
 10
102.21756875
 20
298.0864171875
 11
102.11118984375
 21
298.4761359375
 72
 1
 10
102.11118984375
 20
298.4761359375
 11
102.0241
 21
298.8982921875
 72
 1
 10
102.0241
 20
298.8982921875
 11
101.95632265625
 21
299.3528859375
 72
 1
 10
101.95632265625
 20
299.3528859375
 11
101.90788125
 21
299.8399171875
 72
 1
 10
101.90788125
 20
299.8399171875
 11
101.87879921875
 21
300.3593859375
 72
 1
 10
101.87879921875
 20
300.3593859375
 11
101.8691
 21
300.9112921875
 72
 1
 10
101.8691
 20
300.9112921875
 11
101.87879921875
 21
301.477028515625
 72
 1
 10
101.87879921875
 20
301.477028515625
 11
101.90788125
 21
302.0094953125
 72
 1
 10
101.90788125
 20
302.0094953125
 11
101.95632265625
 21
302.508704296875
 72
 1
 10
101.95632265625
 20
302.508704296875
 11
102.0241
 21
302.9746671875
 72
 1
 10
102.0241
 20
302.9746671875
 11
102.11118984375
 21
303.407395703125
 72
 1
 10
102.11118984375
 20
303.407395703125
 11
102.21756875
 21
303.8069015625
 72
 1
 10
102.21756875
 20
303.8069015625
 11
102.34321328125
 21
304.173196484375
 72
 1
 10
102.34321328125
 20
304.173196484375
 11
102.4881
 21
304.5062921875
 72
 1
 10
102.4881
 20
304.5062921875
 11
102.65207265625
 21
304.802809765625
 72
 1
 10
102.65207265625
 20
304.802809765625
 11
102.83200625
 21
305.0600578125
 72
 1
 10
102.83200625
 20
305.0600578125
 11
103.02792421875
 21
305.277954296875
 72
 1
 10
103.02792421875
 20
305.277954296875
 11
103.23985
 21
305.4564171875
 72
 1
 10
103.23985
 20
305.4564171875
 11
103.46780703125
 21
305.595364453125
 72
 1
 10
103.46780703125
 20
305.595364453125
 11
103.71181875
 21
305.6947140625
 72
 1
 10
103.71181875
 20
305.6947140625
 11
103.97190859375
 21
305.754383984375
 72
 1
 10
103.97190859375
 20
305.754383984375
 11
104.2481
 21
305.7742921875
 72
 1
 10
104.2481
 20
305.7742921875
 11
104.525851953125
 21
305.754383984375
 72
 1
 10
104.525851953125
 20
305.754383984375
 11
104.786928125
 21
305.6947140625
 72
 1
 10
104.786928125
 20
305.6947140625
 11
105.031433984375
 21
305.595364453125
 72
 1
 10
105.031433984375
 20
305.595364453125
 11
105.259475
 21
305.4564171875
 72
 1
 10
105.259475
 20
305.4564171875
 11
105.471156640625
 21
305.277954296875
 72
 1
 10
105.471156640625
 20
305.277954296875
 11
105.666584375
 21
305.0600578125
 72
 1
 10
105.666584375
 20
305.0600578125
 11
105.845863671875
 21
304.802809765625
 72
 1
 10
105.845863671875
 20
304.802809765625
 11
106.0091
 21
304.5062921875
 72
 1
 10
106.0091
 20
304.5062921875
 11
106.153656640625
 21
304.173196484375
 72
 1
 10
106.153656640625
 20
304.173196484375
 11
106.279053125
 21
303.8069015625
 72
 1
 10
106.279053125
 20
303.8069015625
 11
106.385254296875
 21
303.407395703125
 72
 1
 10
106.385254296875
 20
303.407395703125
 11
106.472225
 21
302.9746671875
 72
 1
 10
106.472225
 20
302.9746671875
 11
106.539930078125
 21
302.508704296875
 72
 1
 10
106.539930078125
 20
302.508704296875
 11
106.588334375
 21
302.0094953125
 72
 1
 10
106.588334375
 20
302.0094953125
 11
106.617402734375
 21
301.477028515625
 72
 1
 10
106.617402734375
 20
301.477028515625
 11
106.6271
 21
300.9112921875
 72
 1
 10
106.6271
 20
300.9112921875
 11
106.617402734375
 21
300.3593859375
 72
 1
 10
106.617402734375
 20
300.3593859375
 11
106.588334375
 21
299.8399171875
 72
 1
 10
106.588334375
 20
299.8399171875
 11
106.539930078125
 21
299.3528859375
 72
 1
 10
106.539930078125
 20
299.3528859375
 11
106.472225
 21
298.8982921875
 72
 1
 10
106.472225
 20
298.8982921875
 11
106.385254296875
 21
298.4761359375
 72
 1
 10
106.385254296875
 20
298.4761359375
 11
106.279053125
 21
298.0864171875
 72
 1
 10
106.279053125
 20
298.0864171875
 11
106.153656640625
 21
297.7291359375
 72
 1
 10
106.153656640625
 20
297.7291359375
 11
106.0091
 21
297.4042921875
 72
 1
 10
106.0091
 20
297.4042921875
 11
105.845863671875
 21
297.115020703125
 72
 1
 10
105.845863671875
 20
297.115020703125
 11
105.666584375
 21
296.8644328125
 72
 1
 10
105.666584375
 20
296.8644328125
 11
105.471156640625
 21
296.652493359375
 72
 1
 10
105.471156640625
 20
296.652493359375
 11
105.259475
 21
296.4791671875
 72
 1
 10
105.259475
 20
296.4791671875
 11
105.031433984375
 21
296.344419140625
 72
 1
 10
105.031433984375
 20
296.344419140625
 11
104.786928125
 21
296.2482140625
 72
 1
 10
104.786928125
 20
296.2482140625
 11
104.525851953125
 21
296.190516796875
 72
 1
 10
104.525851953125
 20
296.190516796875
 11
104.2481
 21
296.1712921875
 72
 1
 10
104.2481
 20
296.1712921875
 11
103.97190859375
 21
296.190516796875
 72
 1
 10
103.97190859375
 20
296.190516796875
 11
103.71181875
 21
296.2482140625
 72
 1
 10
103.71181875
 20
296.2482140625
 11
103.46780703125
 21
296.344419140625
 72
 1
 10
103.46780703125
 20
296.344419140625
 11
103.23985
 21
296.4791671875
 72
 1
 10
103.23985
 20
296.4791671875
 11
103.02792421875
 21
296.652493359375
 72
 1
 10
103.02792421875
 20
296.652493359375
 11
102.83200625
 21
296.8644328125
 72
 1
 10
102.83200625
 20
296.8644328125
 11
102.65207265625
 21
297.115020703125
 72
 1
 10
102.65207265625
 20
297.115020703125
 11
102.4881
 21
297.4042921875
 97
 1
 330
92
 92
 0
 93
64             
 72
 1
 10
105.3331
 20
298.1662921875
 11
105.421980859375
 21
298.418755078125
 72
 1
 10
105.421980859375
 20
298.418755078125
 11
105.498896875
 21
298.6976203125
 72
 1
 10
105.498896875
 20
298.6976203125
 11
105.563883203125
 21
299.002852734375
 72
 1
 10
105.563883203125
 20
299.002852734375
 11
105.616975
 21
299.3344171875
 72
 1
 10
105.616975
 20
299.3344171875
 11
105.658207421875
 21
299.692278515625
 72
 1
 10
105.658207421875
 20
299.692278515625
 11
105.687615625
 21
300.0764015625
 72
 1
 10
105.687615625
 20
300.0764015625
 11
105.705234765625
 21
300.486751171875
 72
 1
 10
105.705234765625
 20
300.486751171875
 11
105.7111
 21
300.9232921875
 72
 1
 10
105.7111
 20
300.9232921875
 11
105.7070765625
 21
301.388063671875
 72
 1
 10
105.7070765625
 20
301.388063671875
 11
105.6912875
 21
301.8224015625
 72
 1
 10
105.6912875
 20
301.8224015625
 11
105.6637796875
 21
302.226341015625
 72
 1
 10
105.6637796875
 20
302.226341015625
 11
105.6246
 21
302.5999171875
 72
 1
 10
105.6246
 20
302.5999171875
 11
105.5737953125
 21
302.943165234375
 72
 1
 10
105.5737953125
 20
302.943165234375
 11
105.5114125
 21
303.2561203125
 72
 1
 10
105.5114125
 20
303.2561203125
 11
105.4374984375
 21
303.538817578125
 72
 1
 10
105.4374984375
 20
303.538817578125
 11
105.3521
 21
303.7912921875
 72
 1
 10
105.3521
 20
303.7912921875
 11
105.254418359375
 21
304.01281953125
 72
 1
 10
105.254418359375
 20
304.01281953125
 11
105.145146875
 21
304.2048859375
 72
 1
 10
105.145146875
 20
304.2048859375
 11
105.024320703125
 21
304.36746796875
 72
 1
 10
105.024320703125
 20
304.36746796875
 11
104.891975
 21
304.5005421875
 72
 1
 10
104.891975
 20
304.5005421875
 11
104.748144921875
 21
304.60408515625
 72
 1
 10
104.748144921875
 20
304.60408515625
 11
104.592865625
 21
304.6780734375
 72
 1
 10
104.592865625
 20
304.6780734375
 11
104.426172265625
 21
304.72248359375
 72
 1
 10
104.426172265625
 20
304.72248359375
 11
104.2481
 21
304.7372921875
 72
 1
 10
104.2481
 20
304.7372921875
 11
104.0705296875
 21
304.72248359375
 72
 1
 10
104.0705296875
 20
304.72248359375
 11
103.9045375
 21
304.6780734375
 72
 1
 10
103.9045375
 20
304.6780734375
 11
103.7500765625
 21
304.60408515625
 72
 1
 10
103.7500765625
 20
304.60408515625
 11
103.6071
 21
304.5005421875
 72
 1
 10
103.6071
 20
304.5005421875
 11
103.4755609375
 21
304.36746796875
 72
 1
 10
103.4755609375
 20
304.36746796875
 11
103.3554125
 21
304.2048859375
 72
 1
 10
103.3554125
 20
304.2048859375
 11
103.2466078125
 21
304.01281953125
 72
 1
 10
103.2466078125
 20
304.01281953125
 11
103.1491
 21
303.7912921875
 72
 1
 10
103.1491
 20
303.7912921875
 11
103.0649125
 21
303.538817578125
 72
 1
 10
103.0649125
 20
303.538817578125
 11
102.9916
 21
303.2561203125
 72
 1
 10
102.9916
 20
303.2561203125
 11
102.9291625
 21
302.943165234375
 72
 1
 10
102.9291625
 20
302.943165234375
 11
102.8776
 21
302.5999171875
 72
 1
 10
102.8776
 20
302.5999171875
 11
102.8369125
 21
302.226341015625
 72
 1
 10
102.8369125
 20
302.226341015625
 11
102.8071
 21
301.8224015625
 72
 1
 10
102.8071
 20
301.8224015625
 11
102.7881625
 21
301.388063671875
 72
 1
 10
102.7881625
 20
301.388063671875
 11
102.7801
 21
300.9232921875
 72
 1
 10
102.7801
 20
300.9232921875
 11
102.78618203125
 21
300.486751171875
 72
 1
 10
102.78618203125
 20
300.486751171875
 11
102.80438125
 21
300.0764015625
 72
 1
 10
102.80438125
 20
300.0764015625
 11
102.83462734375
 21
299.692278515625
 72
 1
 10
102.83462734375
 20
299.692278515625
 11
102.87685
 21
299.3344171875
 72
 1
 10
102.87685
 20
299.3344171875
 11
102.93097890625
 21
299.002852734375
 72
 1
 10
102.93097890625
 20
299.002852734375
 11
102.99694375
 21
298.6976203125
 72
 1
 10
102.99694375
 20
298.6976203125
 11
103.07467421875
 21
298.418755078125
 72
 1
 10
103.07467421875
 20
298.418755078125
 11
103.1641
 21
298.1662921875
 72
 1
 10
103.1641
 20
298.1662921875
 11
103.26424453125
 21
297.940675
 72
 1
 10
103.26424453125
 20
297.940675
 11
103.37425625
 21
297.7452921875
 72
 1
 10
103.37425625
 20
297.7452921875
 11
103.49425234375
 21
297.580096875
 72
 1
 10
103.49425234375
 20
297.580096875
 11
103.62435
 21
297.4450421875
 72
 1
 10
103.62435
 20
297.4450421875
 11
103.76466640625
 21
297.34008125
 72
 1
 10
103.76466640625
 20
297.34008125
 11
103.91531875
 21
297.2651671875
 72
 1
 10
103.91531875
 20
297.2651671875
 11
104.07642421875
 21
297.220253125
 72
 1
 10
104.07642421875
 20
297.220253125
 11
104.2481
 21
297.2052921875
 72
 1
 10
104.2481
 20
297.2052921875
 11
104.419695703125
 21
297.220253125
 72
 1
 10
104.419695703125
 20
297.220253125
 11
104.581178125
 21
297.2651671875
 72
 1
 10
104.581178125
 20
297.2651671875
 11
104.732465234375
 21
297.34008125
 72
 1
 10
104.732465234375
 20
297.34008125
 11
104.873475
 21
297.4450421875
 72
 1
 10
104.873475
 20
297.4450421875
 11
105.004125390625
 21
297.580096875
 72
 1
 10
105.004125390625
 20
297.580096875
 11
105.124334375
 21
297.7452921875
 72
 1
 10
105.124334375
 20
297.7452921875
 11
105.234019921875
 21
297.940675
 72
 1
 10
105.234019921875
 20
297.940675
 11
105.3331
 21
298.1662921875
 97
 1
 330
93
 75
 0
 76
 1
 98
 1
 10
 0.0
 20
 0.0
 0
LWPOLYLINE
 5
94
100
AcDbEntity
 8
Layer8
100
AcDbPolyline
 39
0.25
 370
106
 90
5              
 70
 1
 43
0.0
 10
114.6408
 20
155.7592921875
 10
90.9568
 20
155.7592921875
 10
90.9568
 20
177.0732921875
 10
114.6408
 20
177.0732921875
 10
114.6408
 20
155.7592921875
 0
LWPOLYLINE
 5
95
100
AcDbEntity
 8
Layer8
100
AcDbPolyline
 39
0.25
 370
106
 90
5              
 70
 1
 43
0.0
 10
114.6408
 20
109.0102921875
 10
91.2248
 20
109.0102921875
 10
91.2248
 20
155.4842921875
 10
114.6408
 20
155.4842921875
 10
114.6408
 20
109.0102921875
 0
LINE
 5
96
100
AcDbEntity
 8
Layer8
100
AcDbLine
 39
0.25
 370
106
 10
93.0008
 20
177.0732921875
 30
0.0
 11
88.8898625
 21
189.1916671875
 31
0.0
 0
LINE
 5
97
100
AcDbEntity
 8
Layer8
100
AcDbLine
 39
0.25
 370
106
 10
88.8898625
 20
189.1916671875
 30
0.0
 11
79.8458
 21
194.7745421875
 31
0.0
 0
LINE
 5
98
100
AcDbEntity
 8
Layer8
100
AcDbLine
 39
0.25
 370
106
 10
79.8458
 20
194.7745421875
 30
0.0
 11
70.8017375
 21
196.3040421875
 31
0.0
 0
LINE
 5
99
100
AcDbEntity
 8
Layer8
100
AcDbLine
 39
0.25
 370
106
 10
70.8017375
 20
196.3040421875
 30
0.0
 11
66.6908
 21
196.2622921875
 31
0.0
 0
LINE
 5
9A
100
AcDbEntity
 8
Layer8
100
AcDbLine
 39
0.25
 370
106
 10
66.6908
 20
196.2622921875
 30
0.0
 11
51.815409375
 21
199.3192921875
 31
0.0
 0
LINE
 5
9B
100
AcDbEntity
 8
Layer8
100
AcDbLine
 39
0.25
 370
106
 10
51.815409375
 20
199.3192921875
 30
0.0
 11
39.666925
 21
207.6555421875
 31
0.0
 0
LINE
 5
9C
100
AcDbEntity
 8
Layer8
100
AcDbLine
 39
0.25
 370
106
 10
39.666925
 20
207.6555421875
 30
0.0
 11
31.475628125
 21
220.0189171875
 31
0.0
 0
LINE
 5
9D
100
AcDbEntity
 8
Layer8
100
AcDbLine
 39
0.25
 370
106
 10
31.475628125
 20
220.0189171875
 30
0.0
 11
28.4718
 21
235.1572921875
 31
0.0
 0
LINE
 5
9E
100
AcDbEntity
 8
Layer8
100
AcDbLine
 39
0.25
 370
106
 10
28.4718
 20
235.1572921875
 30
0.0
 11
28.4718
 21
239.9152921875
 31
0.0
 0
LINE
 5
9F
100
AcDbEntity
 8
Layer8
100
AcDbLine
 39
0.25
 370
106
 10
28.4718
 20
239.9152921875
 30
0.0
 11
31.475628125
 21
255.0543546875
 31
0.0
 0
LINE
 5
A0
100
AcDbEntity
 8
Layer8
100
AcDbLine
 39
0.25
 370
106
 10
31.475628125
 20
255.0543546875
 30
0.0
 11
39.666925
 21
267.4172921875
 31
0.0
 0
LINE
 5
A1
100
AcDbEntity
 8
Layer8
100
AcDbLine
 39
0.25
 370
106
 10
39.666925
 20
267.4172921875
 30
0.0
 11
51.815409375
 21
275.7527296875
 31
0.0
 0
LINE
 5
A2
100
AcDbEntity
 8
Layer8
100
AcDbLine
 39
0.25
 370
106
 10
51.815409375
 20
275.7527296875
 30
0.0
 11
66.6908
 21
278.8092921875
 31
0.0
 0
LINE
 5
A3
100
AcDbEntity
 8
Layer8
100
AcDbLine
 39
0.25
 370
106
 10
66.6908
 20
278.8092921875
 30
0.0
 11
138.3638
 21
278.8092921875
 31
0.0
 0
LINE
 5
A4
100
AcDbEntity
 8
Layer8
100
AcDbLine
 39
0.25
 370
106
 10
138.3638
 20
278.8092921875
 30
0.0
 11
153.24008125
 21
275.7527296875
 31
0.0
 0
LINE
 5
A5
100
AcDbEntity
 8
Layer8
100
AcDbLine
 39
0.25
 370
106
 10
153.24008125
 20
275.7527296875
 30
0.0
 11
165.38955
 21
267.4172921875
 31
0.0
 0
LINE
 5
A6
100
AcDbEntity
 8
Layer8
100
AcDbLine
 39
0.25
 370
106
 10
165.38955
 20
267.4172921875
 30
0.0
 11
173.58164375
 21
255.0543546875
 31
0.0
 0
LINE
 5
A7
100
AcDbEntity
 8
Layer8
100
AcDbLine
 39
0.25
 370
106
 10
173.58164375
 20
255.0543546875
 30
0.0
 11
176.5858
 21
239.9152921875
 31
0.0
 0
LINE
 5
A8
100
AcDbEntity
 8
Layer8
100
AcDbLine
 39
0.25
 370
106
 10
176.5858
 20
239.9152921875
 30
0.0
 11
176.5858
 21
235.1572921875
 31
0.0
 0
LINE
 5
A9
100
AcDbEntity
 8
Layer8
100
AcDbLine
 39
0.25
 370
106
 10
176.5858
 20
235.1572921875
 30
0.0
 11
173.6488
 21
220.1815265625
 31
0.0
 0
LINE
 5
AA
100
AcDbEntity
 8
Layer8
100
AcDbLine
 39
0.25
 370
106
 10
173.6488
 20
220.1815265625
 30
0.0
 11
165.6298
 21
207.9034171875
 31
0.0
 0
LINE
 5
AB
100
AcDbEntity
 8
Layer8
100
AcDbLine
 39
0.25
 370
106
 10
165.6298
 20
207.9034171875
 30
0.0
 11
153.7168
 21
199.5314953125
 31
0.0
 0
LINE
 5
AC
100
AcDbEntity
 8
Layer8
100
AcDbLine
 39
0.25
 370
106
 10
153.7168
 20
199.5314953125
 30
0.0
 11
139.0978
 21
196.2742921875
 31
0.0
 0
LINE
 5
AD
100
AcDbEntity
 8
Layer8
100
AcDbLine
 39
0.25
 370
106
 10
139.0978
 20
196.2742921875
 30
0.0
 11
123.842815625
 21
197.4739015625
 31
0.0
 0
LINE
 5
AE
100
AcDbEntity
 8
Layer8
100
AcDbLine
 39
0.25
 370
106
 10
123.842815625
 20
197.4739015625
 30
0.0
 11
116.009175
 21
195.8736671875
 31
0.0
 0
LINE
 5
AF
100
AcDbEntity
 8
Layer8
100
AcDbLine
 39
0.25
 370
106
 10
116.009175
 20
195.8736671875
 30
0.0
 11
113.123096875
 21
189.6734953125
 31
0.0
 0
LINE
 5
B0
100
AcDbEntity
 8
Layer8
100
AcDbLine
 39
0.25
 370
106
 10
113.123096875
 20
189.6734953125
 30
0.0
 11
112.7108
 21
177.0732921875
 31
0.0
 0
LINE
 5
B1
100
AcDbEntity
 8
Layer8
100
AcDbLine
 39
0.25
 370
106
 10
112.7108
 20
177.0732921875
 30
0.0
 11
93.0008
 21
177.0732921875
 31
0.0
 0
LWPOLYLINE
 5
B2
100
AcDbEntity
 8
Layer8
100
AcDbPolyline
 39
0.25
 370
106
 90
5              
 70
 1
 43
0.0
 10
142.1828
 20
101.0802921875
 10
63.1268
 20
101.0802921875
 10
63.1268
 20
106.4182921875
 10
142.1828
 20
106.4182921875
 10
142.1828
 20
101.0802921875
 0
ARC
 5
B3
100
AcDbEntity
 8
Layer8
100
AcDbCircle
 39
0.25
 370
106
 10
143.661495579443
 20
107.483753515146
 30
0.0
 40
1.06046647595658
100
AcDbArc
 50
-89.8214656829582
 51
1.00167409078829
 0
ARC
 5
B4
100
AcDbEntity
 8
Layer8
100
AcDbCircle
 39
0.25
 370
106
 10
62.0187213177478
 20
107.5017921875
 30
0.0
 40
1.07852220869117
100
AcDbArc
 50
90.3676929546927
 51
-90.3676929546929
 0
ARC
 5
B5
100
AcDbEntity
 8
Layer8
100
AcDbCircle
 39
0.25
 370
106
 10
143.647223229655
 20
107.505853276314
 30
0.0
 40
1.07458267095575
100
AcDbArc
 50
-0.189874393565629
 51
89.0627806521273
 0
LINE
 5
B6
100
AcDbEntity
 8
Layer8
100
AcDbLine
 39
0.25
 370
106
 10
143.6648
 20
106.4232921875
 30
0.0
 11
62.0118
 21
106.4232921875
 31
0.0
 0
LINE
 5
B7
100
AcDbEntity
 8
Layer8
100
AcDbLine
 39
0.25
 370
106
 10
62.0118
 20
108.5802921875
 30
0.0
 11
143.6648
 21
108.5802921875
 31
0.0
 0
LINE
 5
B8
100
AcDbEntity
 8
Layer8
100
AcDbLine
 39
0.25
 370
106
 10
29.7978
 20
306.6532921875
 30
0.0
 11
29.7978
 21
294.7792921875
 31
0.0
 0
LINE
 5
B9
100
AcDbEntity
 8
Layer8
100
AcDbLine
 39
0.25
 370
106
 10
176.6788
 20
306.6532921875
 30
0.0
 11
176.6788
 21
294.7792921875
 31
0.0
 0
LINE
 5
BA
100
AcDbEntity
 8
Layer8
100
AcDbLine
 39
0.25
 370
106
 10
62.2478
 20
85.4472921875
 30
0.0
 11
62.2478
 21
73.5762921875
 31
0.0
 0
LINE
 5
BB
100
AcDbEntity
 8
Layer8
100
AcDbLine
 39
0.25
 370
106
 10
142.1988
 20
85.4472921875
 30
0.0
 11
142.1988
 21
73.5762921875
 31
0.0
 0
LINE
 5
BC
100
AcDbEntity
 8
Layer8
100
AcDbLine
 39
0.25
 370
106
 10
205.9178
 20
100.7492921875
 30
0.0
 11
194.0518
 21
100.7492921875
 31
0.0
 0
LINE
 5
BD
100
AcDbEntity
 8
Layer8
100
AcDbLine
 39
0.25
 370
106
 10
139.0978
 20
196.2742921875
 30
0.0
 11
138.851059259259
 21
196.268514409722
 31
0.0
 0
LINE
 5
BE
100
AcDbEntity
 8
Layer8
100
AcDbLine
 39
0.25
 370
106
 10
138.851059259259
 20
196.268514409722
 30
0.0
 11
138.607874074074
 21
196.264069965278
 31
0.0
 0
LINE
 5
BF
100
AcDbEntity
 8
Layer8
100
AcDbLine
 39
0.25
 370
106
 10
138.607874074074
 20
196.264069965278
 30
0.0
 11
138.3638
 21
196.2622921875
 31
0.0
 0
LINE
 5
C0
100
AcDbEntity
 8
Layer8
100
AcDbLine
 39
0.25
 370
106
 10
205.9178
 20
279.2312921875
 30
0.0
 11
194.0518
 21
279.2312921875
 31
0.0
 0
LINE
 5
C1
100
AcDbEntity
 8
Layer8
100
AcDbLine
 39
0.25
 370
106
 10
138.3638
 20
196.2622921875
 30
0.0
 11
66.6908
 21
196.2622921875
 31
0.0
 0
HATCH
 5
C2
100
AcDbEntity
 8
Layer22
100
AcDbHatch
 10
 0.0
 20
 0.0
 30
 0.0
 210
 0.0
 220
 0.0
 230
 1.0
 2
SOLID
 70
 1
 71
 1
 91
1              
 92
 0
 93
42             
 72
 1
 10
28.6954
 20
15.3446921875
 11
32.7334
 21
15.3446921875
 72
 1
 10
32.7334
 20
15.3446921875
 11
32.6124
 21
24.2256921875
 72
 1
 10
32.6124
 20
24.2256921875
 11
32.601288671875
 21
24.907483203125
 72
 1
 10
32.601288671875
 20
24.907483203125
 11
32.588759375
 21
25.6393953125
 72
 1
 10
32.588759375
 20
25.6393953125
 11
32.573394140625
 21
26.404237109375
 72
 1
 10
32.573394140625
 20
26.404237109375
 11
32.553775
 21
27.1848171875
 72
 1
 10
32.553775
 20
27.1848171875
 11
32.528483984375
 21
27.963944140625
 72
 1
 10
32.528483984375
 20
27.963944140625
 11
32.496103125
 21
28.7244265625001
 72
 1
 10
32.496103125
 20
28.7244265625001
 11
32.455214453125
 21
29.449073046875
 72
 1
 10
32.455214453125
 20
29.449073046875
 11
32.4044
 21
30.1206921875
 72
 1
 10
32.4044
 20
30.1206921875
 11
32.590523046875
 21
29.564858203125
 72
 1
 10
32.590523046875
 20
29.564858203125
 11
32.848259375
 21
28.8780203125
 72
 1
 10
32.848259375
 20
28.8780203125
 11
33.165409765625
 21
28.083299609375
 72
 1
 10
33.165409765625
 20
28.083299609375
 11
33.529775
 21
27.2038171875
 72
 1
 10
33.529775
 20
27.2038171875
 11
33.929155859375
 21
26.262694140625
 72
 1
 10
33.929155859375
 20
26.262694140625
 11
34.351353125
 21
25.2830515625
 72
 1
 10
34.351353125
 20
25.2830515625
 11
34.784167578125
 21
24.288010546875
 72
 1
 10
34.784167578125
 20
24.288010546875
 11
35.2154
 21
23.3006921875
 72
 1
 10
35.2154
 20
23.3006921875
 11
38.7754
 21
15.3446921875
 72
 1
 10
38.7754
 20
15.3446921875
 11
43.1414
 21
15.3446921875
 72
 1
 10
43.1414
 20
15.3446921875
 11
43.1414
 21
36.1306921875
 72
 1
 10
43.1414
 20
36.1306921875
 11
39.1634
 21
36.1306921875
 72
 1
 10
39.1634
 20
36.1306921875
 11
39.2534
 21
27.6366921875
 72
 1
 10
39.2534
 20
27.6366921875
 11
39.269749609375
 21
27.045408984375
 72
 1
 10
39.269749609375
 20
27.045408984375
 11
39.296071875
 21
26.3656140625
 72
 1
 10
39.296071875
 20
26.3656140625
 11
39.330901953125
 21
25.624014453125
 72
 1
 10
39.330901953125
 20
25.624014453125
 11
39.372775
 21
24.8473171875
 72
 1
 10
39.372775
 20
24.8473171875
 11
39.420226171875
 21
24.062229296875
 72
 1
 10
39.420226171875
 20
24.062229296875
 11
39.471790625
 21
23.2954578125
 72
 1
 10
39.471790625
 20
23.2954578125
 11
39.526003515625
 21
22.573709765625
 72
 1
 10
39.526003515625
 20
22.573709765625
 11
39.5814
 21
21.9236921875
 72
 1
 10
39.5814
 20
21.9236921875
 11
39.4067046875
 21
22.51532890625
 72
 1
 10
39.4067046875
 20
22.51532890625
 11
39.197275
 21
23.1638484375001
 72
 1
 10
39.197275
 20
23.1638484375001
 11
38.9548453125
 21
23.86153984375
 72
 1
 10
38.9548453125
 20
23.86153984375
 11
38.68115
 21
24.6006921875
 72
 1
 10
38.68115
 20
24.6006921875
 11
38.3779234375
 21
25.37359453125
 72
 1
 10
38.3779234375
 20
25.37359453125
 11
38.0469
 21
26.1725359375
 72
 1
 10
38.0469
 20
26.1725359375
 11
37.6898140625
 21
26.98980546875
 72
 1
 10
37.6898140625
 20
26.98980546875
 11
37.3084
 21
27.8176921875
 72
 1
 10
37.3084
 20
27.8176921875
 11
33.3324
 21
36.1306921875
 72
 1
 10
33.3324
 20
36.1306921875
 11
28.6954
 21
36.1306921875
 72
 1
 10
28.6954
 20
36.1306921875
 11
28.6954
 21
15.3446921875
 97
 1
 330
C3
 75
 0
 76
 1
 98
 1
 10
 0.0
 20
 0.0
 0
HATCH
 5
C4
100
AcDbEntity
 8
Layer22
100
AcDbHatch
 10
 0.0
 20
 0.0
 30
 0.0
 210
 0.0
 220
 0.0
 230
 1.0
 2
SOLID
 70
 1
 71
 1
 91
1              
 92
 0
 93
12             
 72
 1
 10
45.6496
 20
36.1310921875
 11
45.6496
 21
15.3450921875
 72
 1
 10
45.6496
 20
15.3450921875
 11
57.7636
 21
15.3450921875
 72
 1
 10
57.7636
 20
15.3450921875
 11
57.7636
 21
18.9340921875
 72
 1
 10
57.7636
 20
18.9340921875
 11
49.8986
 21
18.9340921875
 72
 1
 10
49.8986
 20
18.9340921875
 11
49.8986
 21
24.4960921875
 72
 1
 10
49.8986
 20
24.4960921875
 11
55.7886
 21
24.4960921875
 72
 1
 10
55.7886
 20
24.4960921875
 11
55.7886
 21
27.9070921875
 72
 1
 10
55.7886
 20
27.9070921875
 11
49.8366
 21
27.9070921875
 72
 1
 10
49.8366
 20
27.9070921875
 11
49.8366
 21
32.7210921875
 72
 1
 10
49.8366
 20
32.7210921875
 11
56.9546
 21
32.7210921875
 72
 1
 10
56.9546
 20
32.7210921875
 11
57.4936
 21
36.1310921875
 72
 1
 10
57.4936
 20
36.1310921875
 11
45.6496
 21
36.1310921875
 97
 1
 330
C5
 75
 0
 76
 1
 98
 1
 10
 0.0
 20
 0.0
 0
HATCH
 5
C6
100
AcDbEntity
 8
Layer22
100
AcDbHatch
 10
 0.0
 20
 0.0
 30
 0.0
 210
 0.0
 220
 0.0
 230
 1.0
 2
SOLID
 70
 1
 71
 1
 91
1              
 92
 0
 93
49             
 72
 1
 10
59.317
 20
15.3446921875
 11
63.534
 21
15.3446921875
 72
 1
 10
63.534
 20
15.3446921875
 11
64.251
 21
26.2016921875
 72
 1
 10
64.251
 20
26.2016921875
 11
64.282998046875
 21
26.678385546875
 72
 1
 10
64.282998046875
 20
26.678385546875
 11
64.311984375
 21
27.1461140625
 72
 1
 10
64.311984375
 20
27.1461140625
 11
64.337572265625
 21
27.606975390625
 72
 1
 10
64.337572265625
 20
27.606975390625
 11
64.359375
 21
28.0630671875
 72
 1
 10
64.359375
 20
28.0630671875
 11
64.377005859375
 21
28.516487109375
 72
 1
 10
64.377005859375
 20
28.516487109375
 11
64.390078125
 21
28.9693328125
 72
 1
 10
64.390078125
 20
28.9693328125
 11
64.398205078125
 21
29.423701953125
 72
 1
 10
64.398205078125
 20
29.423701953125
 11
64.401
 21
29.8816921875
 72
 1
 10
64.401
 20
29.8816921875
 11
68.2
 21
15.3446921875
 72
 1
 10
68.2
 20
15.3446921875
 11
71.879
 21
15.3446921875
 72
 1
 10
71.879
 20
15.3446921875
 11
73.133103515625
 21
19.710662890625
 72
 1
 10
73.133103515625
 20
19.710662890625
 11
74.078453125
 21
23.0062078125
 72
 1
 10
74.078453125
 20
23.0062078125
 11
74.762357421875
 21
25.400276171875
 72
 1
 10
74.762357421875
 20
25.400276171875
 11
75.232125
 21
27.0618171875
 72
 1
 10
75.232125
 20
27.0618171875
 11
75.535064453125
 21
28.159780078125
 72
 1
 10
75.535064453125
 20
28.159780078125
 11
75.718484375
 21
28.8631140625
 72
 1
 10
75.718484375
 20
28.8631140625
 11
75.829693359375
 21
29.340768359375
 72
 1
 10
75.829693359375
 20
29.340768359375
 11
75.916
 21
29.7616921875
 72
 1
 10
75.916
 20
29.7616921875
 11
75.95712109375
 21
28.82409453125
 72
 1
 10
75.95712109375
 20
28.82409453125
 11
76.06553125
 21
27.0415984375
 72
 1
 10
76.06553125
 20
27.0415984375
 11
76.21880078125
 21
24.71314921875
 72
 1
 10
76.21880078125
 20
24.71314921875
 11
76.3945
 21
22.1376921875
 72
 1
 10
76.3945
 20
22.1376921875
 11
76.57019921875
 21
19.61417265625
 72
 1
 10
76.57019921875
 20
19.61417265625
 11
76.72346875
 21
17.4415359375001
 72
 1
 10
76.72346875
 20
17.4415359375001
 11
76.83187890625
 21
15.91872734375
 72
 1
 10
76.83187890625
 20
15.91872734375
 11
76.873
 21
15.3446921875
 72
 1
 10
76.873
 20
15.3446921875
 11
81.001
 21
15.3446921875
 72
 1
 10
81.001
 20
15.3446921875
 11
79.147
 21
36.1306921875
 72
 1
 10
79.147
 20
36.1306921875
 11
73.673
 21
36.1306921875
 72
 1
 10
73.673
 20
36.1306921875
 11
72.567162109375
 21
32.00195
 72
 1
 10
72.567162109375
 20
32.00195
 11
71.733609375
 21
28.8861296875
 72
 1
 10
71.733609375
 20
28.8861296875
 11
71.130658203125
 21
26.624090625
 72
 1
 10
71.130658203125
 20
26.624090625
 11
70.716625
 21
25.0566921874999
 72
 1
 10
70.716625
 20
25.0566921874999
 11
70.449826171875
 21
24.02479375
 72
 1
 10
70.449826171875
 20
24.02479375
 11
70.288578125
 21
23.3692546875
 72
 1
 10
70.288578125
 20
23.3692546875
 11
70.191197265625
 21
22.930934375
 72
 1
 10
70.191197265625
 20
22.930934375
 11
70.116
 21
22.5506921875
 72
 1
 10
70.116
 20
22.5506921875
 11
69.916134765625
 21
23.44371171875
 72
 1
 10
69.916134765625
 20
23.44371171875
 11
69.501828125
 21
25.1273484375
 72
 1
 10
69.501828125
 20
25.1273484375
 11
68.947388671875
 21
27.32121953125
 72
 1
 10
68.947388671875
 20
27.32121953125
 11
68.327125
 21
29.7449421875
 72
 1
 10
68.327125
 20
29.7449421875
 11
67.715345703125
 21
32.11813359375
 72
 1
 10
67.715345703125
 20
32.11813359375
 11
67.186359375
 21
34.1604109375
 72
 1
 10
67.186359375
 20
34.1604109375
 11
66.814474609375
 21
35.59139140625
 72
 1
 10
66.814474609375
 20
35.59139140625
 11
66.674
 21
36.1306921875
 72
 1
 10
66.674
 20
36.1306921875
 11
61.262
 21
36.1306921875
 72
 1
 10
61.262
 20
36.1306921875
 11
59.317
 21
15.3446921875
 97
 1
 330
C7
 75
 0
 76
 1
 98
 1
 10
 0.0
 20
 0.0
 0
HATCH
 5
C8
100
AcDbEntity
 8
Layer22
100
AcDbHatch
 10
 0.0
 20
 0.0
 30
 0.0
 210
 0.0
 220
 0.0
 230
 1.0
 2
SOLID
 70
 1
 71
 1
 91
2              
 92
 0
 93
56             
 72
 1
 10
94.8899
 20
30.5389921875
 11
95.015472265625
 21
30.08407421875
 72
 1
 10
95.015472265625
 20
30.08407421875
 11
95.124415625
 21
29.5927109375
 72
 1
 10
95.124415625
 20
29.5927109375
 11
95.216694921875
 21
29.06211328125
 72
 1
 10
95.216694921875
 20
29.06211328125
 11
95.292275
 21
28.4894921874999
 72
 1
 10
95.292275
 20
28.4894921874999
 11
95.351120703125
 21
27.87205859375
 72
 1
 10
95.351120703125
 20
27.87205859375
 11
95.393196875
 21
27.2070234375
 72
 1
 10
95.393196875
 20
27.2070234375
 11
95.418468359375
 21
26.49159765625
 72
 1
 10
95.418468359375
 20
26.49159765625
 11
95.4269
 21
25.7229921875
 72
 1
 10
95.4269
 20
25.7229921875
 11
95.368597265625
 21
23.8810859375
 72
 1
 10
95.368597265625
 20
23.8810859375
 11
95.190165625
 21
22.3176171875
 72
 1
 10
95.190165625
 20
22.3176171875
 11
94.886319921875
 21
21.0224609375
 72
 1
 10
94.886319921875
 20
21.0224609375
 11
94.451775
 21
19.9854921875
 72
 1
 10
94.451775
 20
19.9854921875
 11
93.881245703125
 21
19.1965859375
 72
 1
 10
93.881245703125
 20
19.1965859375
 11
93.169446875
 21
18.6456171875
 72
 1
 10
93.169446875
 20
18.6456171875
 11
92.311093359375
 21
18.3224609375
 72
 1
 10
92.311093359375
 20
18.3224609375
 11
91.3009
 21
18.2169921875
 72
 1
 10
91.3009
 20
18.2169921875
 11
90.93753671875
 21
18.22815625
 72
 1
 10
90.93753671875
 20
18.22815625
 11
90.58868125
 21
18.2616796875
 72
 1
 10
90.58868125
 20
18.2616796875
 11
90.25468515625
 21
18.317609375
 72
 1
 10
90.25468515625
 20
18.317609375
 11
89.9359
 21
18.3959921875
 72
 1
 10
89.9359
 20
18.3959921875
 11
89.63267734375
 21
18.496875
 72
 1
 10
89.63267734375
 20
18.496875
 11
89.34536875
 21
18.6203046875
 72
 1
 10
89.34536875
 20
18.6203046875
 11
89.07432578125
 21
18.766328125
 72
 1
 10
89.07432578125
 20
18.766328125
 11
88.8199
 21
18.9349921875
 72
 1
 10
88.8199
 20
18.9349921875
 11
88.387249609375
 21
19.342458984375
 72
 1
 10
88.387249609375
 20
19.342458984375
 11
88.011259375
 21
19.8717890625
 72
 1
 10
88.011259375
 20
19.8717890625
 11
87.692245703125
 21
20.524001953125
 72
 1
 10
87.692245703125
 20
20.524001953125
 11
87.430525
 21
21.3001171875
 72
 1
 10
87.430525
 20
21.3001171875
 11
87.226413671875
 21
22.201154296875
 72
 1
 10
87.226413671875
 20
22.201154296875
 11
87.080228125
 21
23.2281328125
 72
 1
 10
87.080228125
 20
23.2281328125
 11
86.992284765625
 21
24.382072265625
 72
 1
 10
86.992284765625
 20
24.382072265625
 11
86.9629
 21
25.6639921875
 72
 1
 10
86.9629
 20
25.6639921875
 11
86.9784390625
 21
26.574111328125
 72
 1
 10
86.9784390625
 20
26.574111328125
 11
87.025525
 21
27.4221328125
 72
 1
 10
87.025525
 20
27.4221328125
 11
87.1048609375
 21
28.210552734375
 72
 1
 10
87.1048609375
 20
28.210552734375
 11
87.21715
 21
28.9418671875
 72
 1
 10
87.21715
 20
28.9418671875
 11
87.3630953125
 21
29.618572265625
 72
 1
 10
87.3630953125
 20
29.618572265625
 11
87.5434
 21
30.2431640624999
 72
 1
 10
87.5434
 20
30.2431640624999
 11
87.7587671875
 21
30.818138671875
 72
 1
 10
87.7587671875
 20
30.818138671875
 11
88.0099
 21
31.3459921875
 72
 1
 10
88.0099
 20
31.3459921875
 11
88.25442734375
 21
31.74191015625
 72
 1
 10
88.25442734375
 20
31.74191015625
 11
88.55705625
 21
32.0975859375
 72
 1
 10
88.55705625
 20
32.0975859375
 11
88.91148203125
 21
32.40915234375
 72
 1
 10
88.91148203125
 20
32.40915234375
 11
89.3114
 21
32.6727421875
 72
 1
 10
89.3114
 20
32.6727421875
 11
89.75050546875
 21
32.88448828125
 72
 1
 10
89.75050546875
 20
32.88448828125
 11
90.22249375
 21
33.0405234375
 72
 1
 10
90.22249375
 20
33.0405234375
 11
90.72106015625
 21
33.13698046875
 72
 1
 10
90.72106015625
 20
33.13698046875
 11
91.2399
 21
33.1699921875
 72
 1
 10
91.2399
 20
33.1699921875
 11
92.019230078125
 21
33.09992578125
 72
 1
 10
92.019230078125
 20
33.09992578125
 11
92.698540625
 21
32.9062734375
 72
 1
 10
92.698540625
 20
32.9062734375
 11
93.281687109375
 21
32.61385546875
 72
 1
 10
93.281687109375
 20
32.61385546875
 11
93.772525
 21
32.2474921875
 72
 1
 10
93.772525
 20
32.2474921875
 11
94.174909765625
 21
31.83200390625
 72
 1
 10
94.174909765625
 20
31.83200390625
 11
94.492696875
 21
31.3922109375
 72
 1
 10
94.492696875
 20
31.3922109375
 11
94.729741796875
 21
30.95293359375
 72
 1
 10
94.729741796875
 20
30.95293359375
 11
94.8899
 21
30.5389921875
 97
 1
 330
C9
 92
 0
 93
56             
 72
 1
 10
86.9939
 20
35.3839921875
 11
85.941370703125
 21
34.678611328125
 72
 1
 10
85.941370703125
 20
34.678611328125
 11
85.009978125
 21
33.8029453125
 72
 1
 10
85.009978125
 20
33.8029453125
 11
84.205640234375
 21
32.769333984375
 72
 1
 10
84.205640234375
 20
32.769333984375
 11
83.534275
 21
31.5901171875
 72
 1
 10
83.534275
 20
31.5901171875
 11
83.001800390625
 21
30.277634765625
 72
 1
 10
83.001800390625
 20
30.277634765625
 11
82.614134375
 21
28.8442265625
 72
 1
 10
82.614134375
 20
28.8442265625
 11
82.377194921875
 21
27.302232421875
 72
 1
 10
82.377194921875
 20
27.302232421875
 11
82.2969
 21
25.6639921875
 72
 1
 10
82.2969
 20
25.6639921875
 11
82.334714453125
 21
24.539650390625
 72
 1
 10
82.334714453125
 20
24.539650390625
 11
82.447915625
 21
23.4569453125
 72
 1
 10
82.447915625
 20
23.4569453125
 11
82.636140234375
 21
22.417857421875
 72
 1
 10
82.636140234375
 20
22.417857421875
 11
82.899025
 21
21.4243671875
 72
 1
 10
82.899025
 20
21.4243671875
 11
83.236206640625
 21
20.478455078125
 72
 1
 10
83.236206640625
 20
20.478455078125
 11
83.647321875
 21
19.5821015625
 72
 1
 10
83.647321875
 20
19.5821015625
 11
84.132007421875
 21
18.737287109375
 72
 1
 10
84.132007421875
 20
18.737287109375
 11
84.6899
 21
17.9459921875
 72
 1
 10
84.6899
 20
17.9459921875
 11
85.306648046875
 21
17.22803125
 72
 1
 10
85.306648046875
 20
17.22803125
 11
85.973259375
 21
16.6181171875
 72
 1
 10
85.973259375
 20
16.6181171875
 11
86.697409765625
 21
16.112453125
 72
 1
 10
86.697409765625
 20
16.112453125
 11
87.486775
 21
15.7072421875
 72
 1
 10
87.486775
 20
15.7072421875
 11
88.349030859375
 21
15.3986875
 72
 1
 10
88.349030859375
 20
15.3986875
 11
89.291853125
 21
15.1829921875
 72
 1
 10
89.291853125
 20
15.1829921875
 11
90.322917578125
 21
15.0563593750001
 72
 1
 10
90.322917578125
 20
15.0563593750001
 11
91.4499
 21
15.0149921875
 72
 1
 10
91.4499
 20
15.0149921875
 11
92.075136328125
 21
15.027982421875
 72
 1
 10
92.075136328125
 20
15.027982421875
 11
92.654728125
 21
15.0681015625
 72
 1
 10
92.654728125
 20
15.0681015625
 11
93.196374609375
 21
15.1370722656251
 72
 1
 10
93.196374609375
 20
15.1370722656251
 11
93.707775
 21
15.2366171875
 72
 1
 10
93.707775
 20
15.2366171875
 11
94.196628515625
 21
15.368458984375
 72
 1
 10
94.196628515625
 20
15.368458984375
 11
94.670634375
 21
15.5343203125001
 72
 1
 10
94.670634375
 20
15.5343203125001
 11
95.137491796875
 21
15.735923828125
 72
 1
 10
95.137491796875
 20
15.735923828125
 11
95.6049
 21
15.9749921875
 72
 1
 10
95.6049
 20
15.9749921875
 11
96.66388046875
 21
16.686443359375
 72
 1
 10
96.66388046875
 20
16.686443359375
 11
97.59299375
 21
17.5618515625
 72
 1
 10
97.59299375
 20
17.5618515625
 11
98.38874765625
 21
18.593798828125
 72
 1
 10
98.38874765625
 20
18.593798828125
 11
99.04765
 21
19.7748671875
 72
 1
 10
99.04765
 20
19.7748671875
 11
99.56620859375
 21
21.097638671875
 72
 1
 10
99.56620859375
 20
21.097638671875
 11
99.94093125
 21
22.5546953125
 72
 1
 10
99.94093125
 20
22.5546953125
 11
100.16832578125
 21
24.138619140625
 72
 1
 10
100.16832578125
 20
24.138619140625
 11
100.2449
 21
25.8419921875
 72
 1
 10
100.2449
 20
25.8419921875
 11
100.0874859375
 21
28.167939453125
 72
 1
 10
100.0874859375
 20
28.167939453125
 11
99.6253375
 21
30.2428828125
 72
 1
 10
99.6253375
 20
30.2428828125
 11
98.8735953125
 21
32.048599609375
 72
 1
 10
98.8735953125
 20
32.048599609375
 11
97.8474
 21
33.5668671875
 72
 1
 10
97.8474
 20
33.5668671875
 11
96.5618921875
 21
34.779462890625
 72
 1
 10
96.5618921875
 20
34.779462890625
 11
95.0322125
 21
35.6681640625
 72
 1
 10
95.0322125
 20
35.6681640625
 11
93.2735015625
 21
36.2147480468749
 72
 1
 10
93.2735015625
 20
36.2147480468749
 11
91.3009
 21
36.4009921875
 72
 1
 10
91.3009
 20
36.4009921875
 11
90.719335546875
 21
36.38428125
 72
 1
 10
90.719335546875
 20
36.38428125
 11
90.143759375
 21
36.3346171875
 72
 1
 10
90.143759375
 20
36.3346171875
 11
89.577347265625
 21
36.252703125
 72
 1
 10
89.577347265625
 20
36.252703125
 11
89.023275
 21
36.1392421875
 72
 1
 10
89.023275
 20
36.1392421875
 11
88.484718359375
 21
35.9949375
 72
 1
 10
88.484718359375
 20
35.9949375
 11
87.964853125
 21
35.8204921875
 72
 1
 10
87.964853125
 20
35.8204921875
 11
87.466855078125
 21
35.6166093749999
 72
 1
 10
87.466855078125
 20
35.6166093749999
 11
86.9939
 21
35.3839921875
 97
 1
 330
CA
 75
 0
 76
 1
 98
 1
 10
 0.0
 20
 0.0
 0
LINE
 5
CB
100
AcDbEntity
 8
Layer8
100
AcDbLine
 39
0.25
 370
106
 10
92.8118
 20
180.1262921875
 30
0.0
 11
112.4658
 21
180.1262921875
 31
0.0
 0
TEXT
 5
CC
100
AcDbEntity
 8
Layer8
100
AcDbText
 40
9.6
 41
0.61000
 72
0
 50
0
  1
Ø 24
  7
STANDARD
 10
95.2461
 20
74.8690921875
 30
0.0
 11
95.2461
 21
74.8690921875
 31
0.0
100
AcDbText
 73
  1
  0
ENDSEC
  0
SECTION
  2
OBJECTS
  0
DICTIONARY
  5
19
100
AcDbDictionary
  3
ACAD_GROUP
350
1A
  3
ACAD_MLINESTYLE
350
1B
  0
DICTIONARY
  5
1A
102
{ACAD_REACTORS
330
19
102
}
100
AcDbDictionary
  0
DICTIONARY
  5
1B
102
{ACAD_REACTORS
330
19
102
}
100
AcDbDictionary
  3
STANDARD
350
1C
  0
MLINESTYLE
  5
1C
102
{ACAD_REACTORS
330
1B
102
}
100
AcDbMlineStyle
  2
STANDARD
 70
     0
  3

 62
     0
 51
90.0
 52
90.0
 71
     2
 49
0.5
 62
   256
  6
BYLAYER
 49
-0.5
 62
   256
  6
BYLAYER
  0
ENDSEC
  0
EOF
