 999
SCAN2CAD Date : 01/26/16
 999
SCAN2CAD ScalePixelX : 1
 999
SCAN2CAD ScalePixelY : 1
 999
SCAN2CAD TileXOffset : 0
 999
SCAN2CAD TileYOffset : 0
 999
SCAN2CAD MeasureType : 1
 999
SCAN2CAD DotsPerInch : 0
 999
SCAN2CAD GeScalePixX : 1
 999
SCAN2CAD GeScalePixY : 1
 999
SCAN2CAD GeRasTiePtX : 0
 999
SCAN2CAD GeRasTiePtY : 0
 999
SCAN2CAD ScalRasDist : 1
 999
SCAN2CAD ScalVecDist : 1
 999
SCAN2CAD ScalUnitTyp : 0
 999
SCAN2CAD ScalDistFac : 1
 999
SCAN2CAD ScalAdjustX : 1
 999
SCAN2CAD ScalAdjustY : 1
 999
SCAN2CAD MeasureMeth : 1
 999
SCAN2CAD OgDrawScale : 1
 999
SCAN2CAD OgDrawUType : 0
 999
SCAN2CAD ToDrawScale : 1
 999
SCAN2CAD ToDrawUType : 0
  0
SECTION
  2
HEADER
  9
$ACADVER
  1
AC1014
  9
$ACADMAINTVER
 70
     0
  9
$DWGCODEPAGE
  3
ANSI_1252
  9
$INSBASE
 10
0.0
 20
0.0
 30
0.0
 9
$EXTMIN
 10
25.6272999999983
 20
18.0229916992188
 30
0.0
 9
$EXTMAX
 10
225.961994552972
 20
529.649091699219
 30
0.0
 9
$LIMMIN
 10
0
 20
0
 9
$LIMMAX
 10
255
 20
558
  9
$ORTHOMODE
 70
     0
  9
$REGENMODE
 70
     1
  9
$FILLMODE
 70
     1
  9
$QTEXTMODE
 70
     0
  9
$MIRRTEXT
 70
     1
  9
$DRAGMODE
 70
     2
  9
$LTSCALE
 40
1.0
  9
$OSMODE
 70
     0
  9
$ATTMODE
 70
     1
  9
$TEXTSIZE
 40
0.2
  9
$TRACEWID
 40
0.05
  9
$TEXTSTYLE
  7
STANDARD
  9
$CLAYER
  8
0
  9
$CELTYPE
  6
CONTINUOUS
  9
$CECOLOR
 62
   256
  9
$CELTSCALE
 40
1.0
  9
$DELOBJ
 70
     1
  9
$DISPSILH
 70
     0
  9
$DIMSCALE
 40
1.0
  9
$DIMASZ
 40
0.18
  9
$DIMEXO
 40
0.0625
  9
$DIMDLI
 40
0.38
  9
$DIMRND
 40
0.0
  9
$DIMDLE
 40
0.0
  9
$DIMEXE
 40
0.18
  9
$DIMTP
 40
0.0
  9
$DIMTM
 40
0.0
  9
$DIMTXT
 40
0.18
  9
$DIMCEN
 40
0.09
  9
$DIMTSZ
 40
0.0
  9
$DIMTOL
 70
     0
  9
$DIMLIM
 70
     0
  9
$DIMTIH
 70
     1
  9
$DIMTOH
 70
     1
  9
$DIMSE1
 70
     0
  9
$DIMSE2
 70
     0
  9
$DIMTAD
 70
     0
  9
$DIMZIN
 70
     0
  9
$DIMBLK
  1

  9
$DIMASO
 70
     1
  9
$DIMSHO
 70
     1
  9
$DIMPOST
  1

  9
$DIMAPOST
  1

  9
$DIMALT
 70
     0
  9
$DIMALTD
 70
     2
  9
$DIMALTF
 40
25.4
  9
$DIMLFAC
 40
1.0
  9
$DIMTOFL
 70
     0
  9
$DIMTVP
 40
0.0
  9
$DIMTIX
 70
     0
  9
$DIMSOXD
 70
     0
  9
$DIMSAH
 70
     0
  9
$DIMBLK1
  1

  9
$DIMBLK2
  1

  9
$DIMSTYLE
  2
STANDARD
  9
$DIMCLRD
 70
     0
  9
$DIMCLRE
 70
     0
  9
$DIMCLRT
 70
     0
  9
$DIMTFAC
 40
1.0
  9
$DIMGAP
 40
0.09
  9
$DIMJUST
 70
     0
  9
$DIMSD1
 70
     0
  9
$DIMSD2
 70
     0
  9
$DIMTOLJ
 70
     1
  9
$DIMTZIN
 70
     0
  9
$DIMALTZ
 70
     0
  9
$DIMALTTZ
 70
     0
  9
$DIMFIT
 70
     3
  9
$DIMUPT
 70
     0
  9
$DIMUNIT
 70
     2
  9
$DIMDEC
 70
     4
  9
$DIMTDEC
 70
     4
  9
$DIMALTU
 70
     2
  9
$DIMALTTD
 70
     2
  9
$DIMTXSTY
  7
STANDARD
  9
$DIMAUNIT
 70
     0
  9
$LUNITS
 70
     2
  9
$LUPREC
 70
     4
  9
$SKETCHINC
 40
0.1
  9
$FILLETRAD
 40
0.0
  9
$AUNITS
 70
     0
  9
$AUPREC
 70
     0
  9
$MENU
  1
acad
  9
$ELEVATION
 40
0.0
  9
$PELEVATION
 40
0.0
  9
$THICKNESS
 40
0.0
  9
$LIMCHECK
 70
     0
  9
$BLIPMODE
 70
     1
  9
$CHAMFERA
 40
0.0
  9
$CHAMFERB
 40
0.0
  9
$CHAMFERC
 40
0.0
  9
$CHAMFERD
 40
0.0
  9
$SKPOLY
 70
     0
  9
$TDCREATE
 40
0.000000000
  9
$TDUPDATE
 40
0.000000000
  9
$TDINDWG
 40
0.0000000000
  9
$TDUSRTIMER
 40
0.0000000000
  9
$USRTIMER
 70
     1
  9
$ANGBASE
 50
0.0
  9
$ANGDIR
 70
     0
  9
$PDMODE
 70
     0
  9
$PDSIZE
 40
0.0
  9
$PLINEWID
 40
0.0
  9
$COORDS
 70
     0
  9
$SPLFRAME
 70
     0
  9
$SPLINETYPE
 70
     6
  9
$SPLINESEGS
 70
     8
  9
$ATTDIA
 70
     0
  9
$ATTREQ
 70
     1
  9
$HANDLING
 70
     1
  9
$HANDSEED
  5
     4A0
  9
$SURFTAB1
 70
     6
  9
$SURFTAB2
 70
     6
  9
$SURFTYPE
 70
     6
  9
$SURFU
 70
     6
  9
$SURFV
 70
     6
  9
$UCSNAME
  2

  9
$UCSORG
 10
0.0
 20
0.0
 30
0.0
  9
$UCSXDIR
 10
1.0
 20
0.0
 30
0.0
  9
$UCSYDIR
 10
0.0
 20
1.0
 30
0.0
  9
$PUCSNAME
  2

  9
$PUCSORG
 10
0.0
 20
0.0
 30
0.0
  9
$PUCSXDIR
 10
1.0
 20
0.0
 30
0.0
  9
$PUCSYDIR
 10
0.0
 20
1.0
 30
0.0
  9
$USERI1
 70
     0
  9
$USERI2
 70
     0
  9
$USERI3
 70
     0
  9
$USERI4
 70
     0
  9
$USERI5
 70
     0
  9
$USERR1
 40
0.0
  9
$USERR2
 40
0.0
  9
$USERR3
 40
0.0
  9
$USERR4
 40
0.0
  9
$USERR5
 40
0.0
  9
$WORLDVIEW
 70
     1
  9
$SHADEDGE
 70
     3
  9
$SHADEDIF
 70
    70
  9
$TILEMODE
 70
     1
  9
$MAXACTVP
 70
    16
  9
$PINSBASE
 10
0.0
 20
0.0
 30
0.0
  9
$PLIMCHECK
 70
     0
 9
$PEXTMIN
 10
25.6272999999983
 20
18.0229916992188
 30
0.0
 9
$PEXTMAX
 10
225.961994552972
 20
529.649091699219
 30
0.0
 9
$PLIMMIN
 10
0
 20
0
 9
$PLIMMAX
 10
255
 20
558
  9
$UNITMODE
 70
     0
  9
$VISRETAIN
 70
     0
  9
$PLINEGEN
 70
     1
  9
$PSLTSCALE
 70
     0
  9
$TREEDEPTH
 70
  3020
  9
$PICKSTYLE
 70
     1
  9
$CMLSTYLE
  2
STANDARD
  9
$CMLJUST
 70
     0
  9
$CMLSCALE
 40
1.0
  9
$PROXYGRAPHICS
 70
     0
  9
$MEASUREMENT
 70
     0
  0
ENDSEC
  0
SECTION
  2
CLASSES
  0
CLASS
  1
LWPOLYLINE
  2
AcDbPolyline
  3
"AutoCAD"
 90
        0
280
     0
281
     1
  0
CLASS
  1
IMAGE
  2
AcDbRasterImage
  3
ISM
 90
      127
280
     0
281
     1
  0
CLASS
  1
OLE2FRAME
  2
AcDbOle2Frame
  3
""
 90
        0
280
     0
281
     1
  0
CLASS
  1
HATCH
  2
AcDbHatch
  3
"ACAD_SEDONA"
 90
        0
280
     0
281
     1
  0
CLASS
  1
DICTIONARYVAR
  2
AcDbDictionaryVar
  3
"AutoCAD"
 90
        0
280
     0
281
     0
  0
CLASS
  1
RASTERVARIABLES
  2
AcDbRasterVariables
  3
ISM
 90
        0
280
     0
281
     0
  0
CLASS
  1
IMAGEDEF
  2
AcDbRasterImageDef
  3
ISM
 90
        0
280
     0
281
     0
  0
CLASS
  1
IMAGEDEF_REACTOR
  2
AcDbRasterImageDefReactor
  3
ISM
 90
        1
280
     0
281
     0
  0
CLASS
  1
IDBUFFER
  2
AcDbIdBuffer
  3
"Acad"
 90
        0
280
     0
281
     0
  0
CLASS
  1
SPATIAL_FILTER
  2
AcDbSpatialFilter
  3
"Acad"
 90
        0
280
     0
281
     0
  0
CLASS
  1
XRECORD
  2
AcDbXrecord
  3
"<Built In>"
 90
        0
280
     0
281
     0
  0
CLASS
  1
SORTENTSTABLE
  2
AcDbSortentsTable
  3
"AutoCAD"
 90
        0
280
     0
281
     0
  0
CLASS
  1
LAYER_INDEX
  2
AcDbLayerIndex
  3
"Acad"
 90
        0
280
     0
281
     0
  0
CLASS
  1
SPATIAL_INDEX
  2
AcDbSpatialIndex
  3
"Acad"
 90
        0
280
     0
281
     0
  0
CLASS
  1
OBJECT_PTR
  2
CAseDLPNTableRecord
  3
"ASE-LPNTableRecord"
 90
        1
280
     0
281
     0
  0
ENDSEC
  0
SECTION
  2
TABLES
  0
TABLE
  2
VPORT
  5
7
100
AcDbSymbolTable
 70
     1
  0
VPORT
  5
15
100
AcDbSymbolTableRecord
100
AcDbViewportTableRecord
 2
*ACTIVE
 70
     0
 10
0
 20
0
 11
1.0
 21
1.0
 12
0.0
 22
0.0
 13
0.0
 23
0.0
 14
1.0
 24
1.0
 15
0.0
 25
0.0
 16
0.0
 26
0.0
 36
1.0
 17
125.794647276485
 27
273.836041699219
 37
0.0
 40
515.6261
 41
0.396284622816753
 42
50.0
 43
0.0
 44
0.0
 50
0.0
 51
0.0
 71
     0
 72
   100
 73
     1
 74
     1
 75
     0
 76
     0
 77
     0
 78
     0
   0
ENDTAB
  0
TABLE
  2
LTYPE
  5
4
100
AcDbSymbolTable
 70
3
  0
LTYPE
  5
11
100
AcDbSymbolTableRecord
100
AcDbLinetypeTableRecord
  2
BYBLOCK
 70
     0
  3

 72
    65
 73
     0
 40
0.0
  0
LTYPE
  5
12
100
AcDbSymbolTableRecord
100
AcDbLinetypeTableRecord
  2
BYLAYER
 70
     0
  3

 72
    65
 73
     0
 40
0.0
  0
LTYPE
  5
80
330
5
100
AcDbSymbolTableRecord
100
AcDbLinetypeTableRecord
  2
CONTINUOUS
 70
     0
  3
Continuous
 72
    65
 73
     0
 40
0.0
  0
LTYPE
  5
81
330
5
100
AcDbSymbolTableRecord
100
AcDbLinetypeTableRecord
  2
DASH
 70
     0
  3
Dash
 72
    65
 73
     2
 40
48.0
 49
24.0
 74
     0
 49
-24.0
 74
     0
  0
LTYPE
  5
82
330
5
100
AcDbSymbolTableRecord
100
AcDbLinetypeTableRecord
  2
DASHDOT
 70
     0
  3
DashDot
 72
    65
 73
     4
 40
48.0
 49
24.0
 74
     0
 49
 -12.0
 74
     0
 49
0.0
 74
     0
 49
 -12.0
 74
     0	
  0
ENDTAB
  0
TABLE
  2
LAYER
  5
2
100
AcDbSymbolTable
 70
4              
  0
LAYER
  5
83
100
AcDbSymbolTableRecord
100
AcDbLayerTableRecord
  2
0
 70
     0
 62
     7
  6
CONTINUOUS
 0
LAYER
  5
84
100
AcDbSymbolTableRecord
100
AcDbLayerTableRecord
 2
Layer0
 70
 64
 62
 7
 6
CONTINUOUS
 0
LAYER
  5
85
100
AcDbSymbolTableRecord
100
AcDbLayerTableRecord
 2
Layer8
 70
 64
 62
 8
 6
CONTINUOUS
 0
LAYER
  5
86
100
AcDbSymbolTableRecord
100
AcDbLayerTableRecord
 2
Layer22
 70
 64
 62
 22
 6
CONTINUOUS
  0
ENDTAB
  0
TABLE
  2
STYLE
  5
3
100
AcDbSymbolTable
 70
1              
 0
STYLE
 5
17
100
AcDbSymbolTableRecord
100
AcDbTextStyleTableRecord
 2
STANDARD
 70
 0
 40
 0.0
 41
 1.0
 50
 0.0
 71
  0
 42
 8.0
 3
 txt
 4

  0
ENDTAB
  0
TABLE
  2
VIEW
  5
5
100
AcDbSymbolTable
 70
     0
  0
ENDTAB
  0
TABLE
  2
UCS
  5
6
100
AcDbSymbolTable
 70
     0
  0
ENDTAB
  0
TABLE
  2
APPID
  5
8
100
AcDbSymbolTable
 70
     1
  0
APPID
  5
16
100
AcDbSymbolTableRecord
100
AcDbRegAppTableRecord
  2
ACAD
 70
     0
  0
ENDTAB
  0
TABLE
  2
DIMSTYLE
  5
9
100
AcDbSymbolTable
 70
     1
  0
DIMSTYLE
105
18
100
AcDbSymbolTableRecord
100
AcDbDimStyleTableRecord
  2
STANDARD
 70
     0
  3

  4

  5

  6

  7

 40
1.0
 41
0.18
 42
0.0625
 43
0.38
 44
0.18
 45
0.0
 46
0.0
 47
0.0
 48
0.0
140
0.18
141
0.09
142
0.0
143
25.4
144
1.0
145
0.0
146
1.0
147
0.09
 71
     0
 72
     0
 73
     1
 74
     1
 75
     0
 76
     0
 77
     0
 78
     0
170
     0
171
     2
172
     0
173
     0
174
     0
175
     0
176
     0
177
     0
178
     0
270
     2
271
     4
272
     4
273
     2
274
     2
340
17
275
     0
280
     0
281
     0
282
     0
283
     1
284
     0
285
     0
286
     0
287
     0
288
     0
  0
ENDTAB
  0
TABLE
  2
BLOCK_RECORD
  5
1
100
AcDbSymbolTable
 70
     0
  0
BLOCK_RECORD
  5
A
100
AcDbSymbolTableRecord
100
AcDbBlockTableRecord
  2
*MODEL_SPACE
  0
BLOCK_RECORD
  5
B
100
AcDbSymbolTableRecord
100
AcDbBlockTableRecord
  2
*PAPER_SPACE
  0
ENDTAB
  0
ENDSEC
  0
SECTION
  2
BLOCKS
  0
BLOCK
  5
D
100
AcDbEntity
  8
0
100
AcDbBlockBegin
  2
*MODEL_SPACE
 70
     0
 10
0.0
 20
0.0
 30
0.0
  3
*MODEL_SPACE
  1

  0
ENDBLK
  5
E
100
AcDbEntity
  8
0
100
AcDbBlockEnd
  0
BLOCK
  5
F
100
AcDbEntity
 67
     1
  8
0
100
AcDbBlockBegin
  2
*PAPER_SPACE
 70
     0
 10
0.0
 20
0.0
 30
0.0
  3
*PAPER_SPACE
  1

  0
ENDBLK
  5
10
100
AcDbEntity
 67
     1
  8
0
100
AcDbBlockEnd
 0
ENDSEC
 0
SECTION
 2
ENTITIES
 0
LINE
 5
87
100
AcDbEntity
 8
Layer8
100
AcDbLine
 39
0.25
 370
106
 10
137.5446
 20
445.713091699219
 30
0.0
 11
137.5146
 21
445.713091699219
 31
0.0
 0
LINE
 5
88
100
AcDbEntity
 8
Layer8
100
AcDbLine
 39
0.25
 370
106
 10
143.7214
 20
445.713091699219
 30
0.0
 11
143.7514
 21
445.713091699219
 31
0.0
 0
LINE
 5
89
100
AcDbEntity
 8
Layer8
100
AcDbLine
 39
0.25
 370
106
 10
127.5488
 20
428.405491699219
 30
0.0
 11
127.5468
 21
428.427491699219
 31
0.0
 0
LINE
 5
8A
100
AcDbEntity
 8
Layer8
100
AcDbLine
 39
0.25
 370
106
 10
153.7177
 20
428.405491699219
 30
0.0
 11
153.7197
 21
428.427491699219
 31
0.0
 0
LINE
 5
8B
100
AcDbEntity
 8
Layer8
100
AcDbLine
 39
0.25
 370
106
 10
150.6181
 20
423.052291699219
 30
0.0
 11
150.6161
 21
423.030291699219
 31
0.0
 0
LINE
 5
8C
100
AcDbEntity
 8
Layer8
100
AcDbLine
 39
0.25
 370
106
 10
130.6489
 20
423.052291699219
 30
0.0
 11
130.6509
 21
423.030291699219
 31
0.0
 0
LINE
 5
8D
100
AcDbEntity
 8
Layer8
100
AcDbLine
 39
0.25
 370
106
 10
160.3093
 20
417.425491699219
 30
0.0
 11
222.2673
 21
381.690491699219
 31
0.0
 0
LINE
 5
8E
100
AcDbEntity
 8
Layer8
100
AcDbLine
 39
0.25
 370
106
 10
160.2269
 20
417.479191699219
 30
0.0
 11
160.2309
 21
417.501191699219
 31
0.0
 0
LINE
 5
8F
100
AcDbEntity
 8
Layer8
100
AcDbLine
 39
0.25
 370
106
 10
163.3295
 20
422.854391699219
 30
0.0
 11
163.3335
 21
422.876391699219
 31
0.0
 0
LINE
 5
90
100
AcDbEntity
 8
Layer8
100
AcDbLine
 39
0.25
 370
106
 10
225.351
 20
387.031191699219
 30
0.0
 11
163.391
 21
422.766191699219
 31
0.0
 0
LINE
 5
91
100
AcDbEntity
 8
Layer8
100
AcDbLine
 39
0.25
 370
106
 10
117.8753
 20
422.766491699219
 30
0.0
 11
55.9173
 21
387.031491699219
 31
0.0
 0
LINE
 5
92
100
AcDbEntity
 8
Layer8
100
AcDbLine
 39
0.25
 370
106
 10
117.9342
 20
422.877091699219
 30
0.0
 11
117.9362
 21
422.855091699219
 31
0.0
 0
LINE
 5
93
100
AcDbEntity
 8
Layer8
100
AcDbLine
 39
0.25
 370
106
 10
121.0367
 20
417.501691699219
 30
0.0
 11
121.0407
 21
417.479691699219
 31
0.0
 0
LINE
 5
94
100
AcDbEntity
 8
Layer8
100
AcDbLine
 39
0.25
 370
106
 10
58.9998
 20
381.689191699219
 30
0.0
 11
120.9578
 21
417.424191699219
 31
0.0
 0
LINE
 5
95
100
AcDbEntity
 8
Layer8
100
AcDbLine
 39
0.25
 370
106
 10
143.7141
 20
456.872791699219
 30
0.0
 11
143.7141
 21
528.459791699219
 31
0.0
 0
LINE
 5
96
100
AcDbEntity
 8
Layer8
100
AcDbLine
 39
0.25
 370
106
 10
143.7509
 20
456.813891699219
 30
0.0
 11
143.7209
 21
456.813891699219
 31
0.0
 0
LINE
 5
97
100
AcDbEntity
 8
Layer8
100
AcDbLine
 39
0.25
 370
106
 10
137.5446
 20
456.813891699219
 30
0.0
 11
137.5146
 21
456.813891699219
 31
0.0
 0
LINE
 5
98
100
AcDbEntity
 8
Layer8
100
AcDbLine
 39
0.25
 370
106
 10
137.5513
 20
528.460591699219
 30
0.0
 11
137.5513
 21
456.873591699219
 31
0.0
 0
LINE
 5
99
100
AcDbEntity
 8
Layer8
100
AcDbLine
 39
0.25
 370
106
 10
68.6331
 20
394.419791699219
 30
0.0
 11
68.6091
 21
394.405791699219
 31
0.0
 0
LINE
 5
9A
100
AcDbEntity
 8
Layer8
100
AcDbLine
 39
0.25
 370
106
 10
137.5446
 20
447.470691699219
 30
0.0
 11
137.5146
 21
447.470691699219
 31
0.0
 0
LINE
 5
9B
100
AcDbEntity
 8
Layer8
100
AcDbLine
 39
0.25
 370
106
 10
143.7214
 20
447.470691699219
 30
0.0
 11
143.7514
 21
447.470691699219
 31
0.0
 0
LINE
 5
9C
100
AcDbEntity
 8
Layer8
100
AcDbLine
 39
0.25
 370
106
 10
126.0273
 20
427.526991699219
 30
0.0
 11
126.0253
 21
427.548991699219
 31
0.0
 0
LINE
 5
9D
100
AcDbEntity
 8
Layer8
100
AcDbLine
 39
0.25
 370
106
 10
129.1261
 20
422.173691699219
 30
0.0
 11
129.1301
 21
422.151691699219
 31
0.0
 0
LINE
 5
9E
100
AcDbEntity
 8
Layer8
100
AcDbLine
 39
0.25
 370
106
 10
143.6438
 20
447.472591699219
 30
0.0
 11
143.6438
 21
447.561591699219
 31
0.0
 0
LINE
 5
9F
100
AcDbEntity
 8
Layer8
100
AcDbLine
 39
0.25
 370
106
 10
137.6239
 20
447.472591699219
 30
0.0
 11
137.6239
 21
447.561591699219
 31
0.0
 0
LINE
 5
A0
100
AcDbEntity
 8
Layer8
100
AcDbLine
 39
0.25
 370
106
 10
126.0694
 20
427.451291699219
 30
0.0
 11
125.9964
 21
427.419291699219
 31
0.0
 0
LINE
 5
A1
100
AcDbEntity
 8
Layer8
100
AcDbLine
 39
0.25
 370
106
 10
129.0793
 20
422.236391699219
 30
0.0
 11
129.0063
 21
422.202391699219
 31
0.0
 0
LINE
 5
A2
100
AcDbEntity
 8
Layer8
100
AcDbLine
 39
0.25
 370
106
 10
143.0121
 20
447.472591699219
 30
0.0
 11
143.0121
 21
447.561591699219
 31
0.0
 0
LINE
 5
A3
100
AcDbEntity
 8
Layer8
100
AcDbLine
 39
0.25
 370
106
 10
138.2553
 20
447.472591699219
 30
0.0
 11
138.2553
 21
447.561591699219
 31
0.0
 0
LINE
 5
A4
100
AcDbEntity
 8
Layer8
100
AcDbLine
 39
0.25
 370
106
 10
126.3855
 20
426.904491699219
 30
0.0
 11
126.3125
 21
426.872491699219
 31
0.0
 0
LINE
 5
A5
100
AcDbEntity
 8
Layer8
100
AcDbLine
 39
0.25
 370
106
 10
128.7643
 20
422.783091699219
 30
0.0
 11
128.6913
 21
422.751091699219
 31
0.0
 0
LINE
 5
A6
100
AcDbEntity
 8
Layer8
100
AcDbLine
 39
0.25
 370
106
 10
138.1247
 20
447.470691699219
 30
0.0
 11
137.6087
 21
447.470691699219
 31
0.0
 0
LINE
 5
A7
100
AcDbEntity
 8
Layer8
100
AcDbLine
 39
0.25
 370
106
 10
137.5519
 20
447.406191699219
 30
0.0
 11
137.5519
 21
445.764191699219
 31
0.0
 0
LINE
 5
A8
100
AcDbEntity
 8
Layer8
100
AcDbLine
 39
0.25
 370
106
 10
143.1427
 20
447.470691699219
 30
0.0
 11
143.6587
 21
447.470691699219
 31
0.0
 0
LINE
 5
A9
100
AcDbEntity
 8
Layer8
100
AcDbLine
 39
0.25
 370
106
 10
143.7141
 20
447.406191699219
 30
0.0
 11
143.7141
 21
445.764191699219
 31
0.0
 0
LINE
 5
AA
100
AcDbEntity
 8
Layer8
100
AcDbLine
 39
0.25
 370
106
 10
155.1812
 20
427.558191699219
 30
0.0
 11
153.7742
 21
428.321191699219
 31
0.0
 0
LINE
 5
AB
100
AcDbEntity
 8
Layer8
100
AcDbLine
 39
0.25
 370
106
 10
126.2864
 20
427.010791699219
 30
0.0
 11
126.0864
 21
427.441791699219
 31
0.0
 0
LINE
 5
AC
100
AcDbEntity
 8
Layer8
100
AcDbLine
 39
0.25
 370
106
 10
126.0862
 20
427.558191699219
 30
0.0
 11
127.4932
 21
428.321191699219
 31
0.0
 0
LINE
 5
AD
100
AcDbEntity
 8
Layer8
100
AcDbLine
 39
0.25
 370
106
 10
128.854
 20
422.647691699219
 30
0.0
 11
129.052
 21
422.216691699219
 31
0.0
 0
LINE
 5
AE
100
AcDbEntity
 8
Layer8
100
AcDbLine
 39
0.25
 370
106
 10
129.1686
 20
422.216591699219
 30
0.0
 11
130.5756
 21
422.979591699219
 31
0.0
 0
LINE
 5
AF
100
AcDbEntity
 8
Layer8
100
AcDbLine
 39
0.25
 370
106
 10
152.0974
 20
422.216591699219
 30
0.0
 11
150.6904
 21
422.979591699219
 31
0.0
 0
LINE
 5
B0
100
AcDbEntity
 8
Layer8
100
AcDbLine
 39
0.25
 370
106
 10
138.2516
 20
447.470691699219
 30
0.0
 11
138.2296
 21
447.470691699219
 31
0.0
 0
LINE
 5
B1
100
AcDbEntity
 8
Layer8
100
AcDbLine
 39
0.25
 370
106
 10
143.0159
 20
447.470691699219
 30
0.0
 11
143.0379
 21
447.470691699219
 31
0.0
 0
LINE
 5
B2
100
AcDbEntity
 8
Layer8
100
AcDbLine
 39
0.25
 370
106
 10
126.4042
 20
426.905091699219
 30
0.0
 11
126.3592
 21
426.911091699219
 31
0.0
 0
LINE
 5
B3
100
AcDbEntity
 8
Layer8
100
AcDbLine
 39
0.25
 370
106
 10
128.7508
 20
422.763891699219
 30
0.0
 11
128.7978
 21
422.757891699219
 31
0.0
 0
LINE
 5
B4
100
AcDbEntity
 8
Layer8
100
AcDbLine
 39
0.25
 370
106
 10
142.9556
 20
447.472591699219
 30
0.0
 11
142.9556
 21
447.561591699219
 31
0.0
 0
LINE
 5
B5
100
AcDbEntity
 8
Layer8
100
AcDbLine
 39
0.25
 370
106
 10
138.3118
 20
447.472591699219
 30
0.0
 11
138.3118
 21
447.561591699219
 31
0.0
 0
LINE
 5
B6
100
AcDbEntity
 8
Layer8
100
AcDbLine
 39
0.25
 370
106
 10
140.6337
 20
447.472591699219
 30
0.0
 11
140.6337
 21
447.561591699219
 31
0.0
 0
LINE
 5
B7
100
AcDbEntity
 8
Layer8
100
AcDbLine
 39
0.25
 370
106
 10
126.4143
 20
426.854991699219
 30
0.0
 11
126.3413
 21
426.820991699219
 31
0.0
 0
LINE
 5
B8
100
AcDbEntity
 8
Layer8
100
AcDbLine
 39
0.25
 370
106
 10
153.6922
 20
424.843791699219
 30
0.0
 11
153.7652
 21
424.811791699219
 31
0.0
 0
LINE
 5
B9
100
AcDbEntity
 8
Layer8
100
AcDbLine
 39
0.25
 370
106
 10
128.7354
 20
422.831891699219
 30
0.0
 11
128.6624
 21
422.799891699219
 31
0.0
 0
LINE
 5
BA
100
AcDbEntity
 8
Layer8
100
AcDbLine
 39
0.25
 370
106
 10
127.5749
 20
424.843791699219
 30
0.0
 11
127.5019
 21
424.811791699219
 31
0.0
 0
LINE
 5
BB
100
AcDbEntity
 8
Layer8
100
AcDbLine
 39
0.25
 370
106
 10
140.6916
 20
447.470691699219
 30
0.0
 11
142.9126
 21
447.470691699219
 31
0.0
 0
LINE
 5
BC
100
AcDbEntity
 8
Layer8
100
AcDbLine
 39
0.25
 370
106
 10
140.6337
 20
432.432391699219
 30
0.0
 11
140.6337
 21
447.405391699219
 31
0.0
 0
LINE
 5
BD
100
AcDbEntity
 8
Layer8
100
AcDbLine
 39
0.25
 370
106
 10
140.5758
 20
447.470691699219
 30
0.0
 11
138.3548
 21
447.470691699219
 31
0.0
 0
LINE
 5
BE
100
AcDbEntity
 8
Layer8
100
AcDbLine
 39
0.25
 370
106
 10
146.2676
 20
435.604091699219
 30
0.0
 11
140.6926
 21
432.432091699219
 31
0.0
 0
LINE
 5
BF
100
AcDbEntity
 8
Layer8
100
AcDbLine
 39
0.25
 370
106
 10
140.6916
 20
432.316391699219
 30
0.0
 11
153.6386
 21
424.887391699219
 31
0.0
 0
LINE
 5
C0
100
AcDbEntity
 8
Layer8
100
AcDbLine
 39
0.25
 370
106
 10
134.9288
 20
435.644491699219
 30
0.0
 11
140.5758
 21
432.432491699219
 31
0.0
 0
LINE
 5
C1
100
AcDbEntity
 8
Layer8
100
AcDbLine
 39
0.25
 370
106
 10
127.5116
 20
424.887291699219
 30
0.0
 11
126.4606
 21
426.796291699219
 31
0.0
 0
LINE
 5
C2
100
AcDbEntity
 8
Layer8
100
AcDbLine
 39
0.25
 370
106
 10
140.5758
 20
432.316391699219
 30
0.0
 11
127.6288
 21
424.887391699219
 31
0.0
 0
LINE
 5
C3
100
AcDbEntity
 8
Layer8
100
AcDbLine
 39
0.25
 370
106
 10
127.628
 20
424.771291699219
 30
0.0
 11
128.679
 21
422.862291699219
 31
0.0
 0
LINE
 5
C4
100
AcDbEntity
 8
Layer8
100
AcDbLine
 39
0.25
 370
106
 10
140.6337
 20
425.900491699219
 30
0.0
 11
140.6337
 21
432.315491699219
 31
0.0
 0
LINE
 5
C5
100
AcDbEntity
 8
Layer8
100
AcDbLine
 39
0.25
 370
106
 10
140.6337
 20
425.784391699219
 30
0.0
 11
140.6337
 21
425.776391699219
 31
0.0
 0
ARC
 5
C6
100
AcDbEntity
 8
Layer8
100
AcDbCircle
 39
0.25
 370
106
 10
140.638509721551
 20
405.097909090351
 30
0.0
 40
20.5634922403963
100
AcDbArc
 50
67.4970369317847
 51
118.927807833696
 0
LINE
 5
C7
100
AcDbEntity
 8
Layer8
100
AcDbLine
 39
0.25
 370
106
 10
148.5088
 20
424.095691699219
 30
0.0
 11
150.5748
 21
423.095691699219
 31
0.0
 0
ARC
 5
C8
100
AcDbEntity
 8
Layer8
100
AcDbCircle
 39
0.25
 370
106
 10
117.632772933997
 20
445.609412635905
 30
0.0
 40
19.8592630003402
100
AcDbArc
 50
-59.8479855943396
 51
0.108996098564117
 0
LINE
 5
C9
100
AcDbEntity
 8
Layer8
100
AcDbLine
 39
0.25
 370
106
 10
135.4781
 20
435.345991699219
 30
0.0
 11
135.4621
 21
435.396991699219
 31
0.0
 0
ARC
 5
CA
100
AcDbEntity
 8
Layer8
100
AcDbCircle
 39
0.25
 370
106
 10
163.633227066
 20
445.609412635903
 30
0.0
 40
19.859263000337
100
AcDbArc
 50
179.891003901434
 51
-120.152014405662
 0
LINE
 5
CB
100
AcDbEntity
 8
Layer8
100
AcDbLine
 39
0.25
 370
106
 10
146.3708
 20
435.681791699219
 30
0.0
 11
146.3868
 21
435.732791699219
 31
0.0
 0
LINE
 5
CC
100
AcDbEntity
 8
Layer8
100
AcDbLine
 39
0.25
 370
106
 10
155.0616
 20
426.964491699219
 30
0.0
 11
155.2616
 21
427.395491699219
 31
0.0
 0
LINE
 5
CD
100
AcDbEntity
 8
Layer8
100
AcDbLine
 39
0.25
 370
106
 10
163.2755
 20
422.882491699219
 30
0.0
 11
155.3775
 21
427.396491699219
 31
0.0
 0
LINE
 5
CE
100
AcDbEntity
 8
Layer8
100
AcDbLine
 39
0.25
 370
106
 10
152.2939
 20
422.170191699219
 30
0.0
 11
152.4959
 21
422.601191699219
 31
0.0
 0
LINE
 5
CF
100
AcDbEntity
 8
Layer8
100
AcDbLine
 39
0.25
 370
106
 10
152.2939
 20
422.053991699219
 30
0.0
 11
160.1939
 21
417.541991699219
 31
0.0
 0
LINE
 5
D0
100
AcDbEntity
 8
Layer8
100
AcDbLine
 39
0.25
 370
106
 10
153.8354
 20
424.841291699219
 30
0.0
 11
154.8884
 21
426.750291699219
 31
0.0
 0
LINE
 5
D1
100
AcDbEntity
 8
Layer8
100
AcDbLine
 39
0.25
 370
106
 10
152.6103
 20
422.717391699219
 30
0.0
 11
153.7193
 21
424.725391699219
 31
0.0
 0
LINE
 5
D2
100
AcDbEntity
 8
Layer8
100
AcDbLine
 39
0.25
 370
106
 10
161.7337
 20
420.211791699219
 30
0.0
 11
153.8357
 21
424.725791699219
 31
0.0
 0
LINE
 5
D3
100
AcDbEntity
 8
Layer8
100
AcDbLine
 39
0.25
 370
106
 10
161.8501
 20
420.095691699219
 30
0.0
 11
224.8281
 21
383.771691699219
 31
0.0
 0
LINE
 5
D4
100
AcDbEntity
 8
Layer8
100
AcDbLine
 39
0.25
 370
106
 10
222.2706
 20
381.689191699219
 30
0.0
 11
222.2626
 21
381.693191699219
 31
0.0
 0
LINE
 5
D5
100
AcDbEntity
 8
Layer8
100
AcDbLine
 39
0.25
 370
106
 10
225.1498
 20
387.142891699219
 30
0.0
 11
225.1418
 21
387.146891699219
 31
0.0
 0
LINE
 5
D6
100
AcDbEntity
 8
Layer8
100
AcDbLine
 39
0.25
 370
106
 10
225.3443
 20
387.030991699219
 30
0.0
 11
225.3523
 21
387.026991699219
 31
0.0
 0
LINE
 5
D7
100
AcDbEntity
 8
Layer8
100
AcDbLine
 39
0.25
 370
106
 10
129.0465
 20
422.127091699219
 30
0.0
 11
129.0505
 21
422.105091699219
 31
0.0
 0
LINE
 5
D8
100
AcDbEntity
 8
Layer8
100
AcDbLine
 39
0.25
 370
106
 10
125.9439
 20
427.502491699219
 30
0.0
 11
125.9459
 21
427.480491699219
 31
0.0
 0
LINE
 5
D9
100
AcDbEntity
 8
Layer8
100
AcDbLine
 39
0.25
 370
106
 10
126.0056
 20
427.395791699219
 30
0.0
 11
126.2076
 21
426.964791699219
 31
0.0
 0
LINE
 5
DA
100
AcDbEntity
 8
Layer8
100
AcDbLine
 39
0.25
 370
106
 10
125.89
 20
427.395791699219
 30
0.0
 11
117.992
 21
422.881791699219
 31
0.0
 0
LINE
 5
DB
100
AcDbEntity
 8
Layer8
100
AcDbLine
 39
0.25
 370
106
 10
128.7733
 20
422.601391699219
 30
0.0
 11
128.9733
 21
422.170391699219
 31
0.0
 0
LINE
 5
DC
100
AcDbEntity
 8
Layer8
100
AcDbLine
 39
0.25
 370
106
 10
121.0743
 20
417.541491699219
 30
0.0
 11
128.9723
 21
422.053491699219
 31
0.0
 0
LINE
 5
DD
100
AcDbEntity
 8
Layer8
100
AcDbLine
 39
0.25
 370
106
 10
128.6716
 20
422.717591699219
 30
0.0
 11
128.7166
 21
422.711591699219
 31
0.0
 0
LINE
 5
DE
100
AcDbEntity
 8
Layer8
100
AcDbLine
 39
0.25
 370
106
 10
126.2787
 20
426.865091699219
 30
0.0
 11
126.3237
 21
426.859091699219
 31
0.0
 0
LINE
 5
DF
100
AcDbEntity
 8
Layer8
100
AcDbLine
 39
0.25
 370
106
 10
126.3787
 20
426.749691699219
 30
0.0
 11
127.4317
 21
424.840691699219
 31
0.0
 0
LINE
 5
E0
100
AcDbEntity
 8
Layer8
100
AcDbLine
 39
0.25
 370
106
 10
127.5474
 20
424.725091699219
 30
0.0
 11
128.6004
 21
422.816091699219
 31
0.0
 0
LINE
 5
E1
100
AcDbEntity
 8
Layer8
100
AcDbLine
 39
0.25
 370
106
 10
119.5337
 20
420.211791699219
 30
0.0
 11
127.4317
 21
424.725791699219
 31
0.0
 0
LINE
 5
E2
100
AcDbEntity
 8
Layer8
100
AcDbLine
 39
0.25
 370
106
 10
119.4175
 20
420.095691699219
 30
0.0
 11
56.4395
 21
383.771691699219
 31
0.0
 0
LINE
 5
E3
100
AcDbEntity
 8
Layer8
100
AcDbLine
 39
0.25
 370
106
 10
55.9164
 20
387.026891699219
 30
0.0
 11
55.9224
 21
387.030891699219
 31
0.0
 0
LINE
 5
E4
100
AcDbEntity
 8
Layer8
100
AcDbLine
 39
0.25
 370
106
 10
59.198
 20
381.805591699219
 30
0.0
 11
59.204
 21
381.809591699219
 31
0.0
 0
LINE
 5
E5
100
AcDbEntity
 8
Layer8
100
AcDbLine
 39
0.25
 370
106
 10
59.0041
 20
381.693891699219
 30
0.0
 11
58.9981
 21
381.689891699219
 31
0.0
 0
LINE
 5
E6
100
AcDbEntity
 8
Layer8
100
AcDbLine
 39
0.25
 370
106
 10
137.5446
 20
447.563491699219
 30
0.0
 11
137.5146
 21
447.563491699219
 31
0.0
 0
LINE
 5
E7
100
AcDbEntity
 8
Layer8
100
AcDbLine
 39
0.25
 370
106
 10
143.7509
 20
447.563491699219
 30
0.0
 11
143.7209
 21
447.563491699219
 31
0.0
 0
LINE
 5
E8
100
AcDbEntity
 8
Layer8
100
AcDbLine
 39
0.25
 370
106
 10
143.6582
 20
447.563491699219
 30
0.0
 11
143.1422
 21
447.563491699219
 31
0.0
 0
LINE
 5
E9
100
AcDbEntity
 8
Layer8
100
AcDbLine
 39
0.25
 370
106
 10
143.7141
 20
447.615091699219
 30
0.0
 11
143.7141
 21
456.756091699219
 31
0.0
 0
LINE
 5
EA
100
AcDbEntity
 8
Layer8
100
AcDbLine
 39
0.25
 370
106
 10
138.1247
 20
447.563491699219
 30
0.0
 11
137.6087
 21
447.563491699219
 31
0.0
 0
LINE
 5
EB
100
AcDbEntity
 8
Layer8
100
AcDbLine
 39
0.25
 370
106
 10
137.5519
 20
456.756791699219
 30
0.0
 11
137.5519
 21
447.615791699219
 31
0.0
 0
LINE
 5
EC
100
AcDbEntity
 8
Layer8
100
AcDbLine
 39
0.25
 370
106
 10
138.2506
 20
447.563491699219
 30
0.0
 11
138.2286
 21
447.563491699219
 31
0.0
 0
LINE
 5
ED
100
AcDbEntity
 8
Layer8
100
AcDbLine
 39
0.25
 370
106
 10
143.0382
 20
447.563491699219
 30
0.0
 11
143.0162
 21
447.563491699219
 31
0.0
 0
LINE
 5
EE
100
AcDbEntity
 8
Layer8
100
AcDbLine
 39
0.25
 370
106
 10
140.6337
 20
456.872791699219
 30
0.0
 11
140.6337
 21
529.635791699219
 31
0.0
 0
LINE
 5
EF
100
AcDbEntity
 8
Layer8
100
AcDbLine
 39
0.25
 370
106
 10
140.5758
 20
447.563491699219
 30
0.0
 11
138.3548
 21
447.563491699219
 31
0.0
 0
LINE
 5
F0
100
AcDbEntity
 8
Layer8
100
AcDbLine
 39
0.25
 370
106
 10
142.9127
 20
447.563491699219
 30
0.0
 11
140.6917
 21
447.563491699219
 31
0.0
 0
LINE
 5
F1
100
AcDbEntity
 8
Layer8
100
AcDbLine
 39
0.25
 370
106
 10
140.6337
 20
456.756791699219
 30
0.0
 11
140.6337
 21
447.615791699219
 31
0.0
 0
LINE
 5
F2
100
AcDbEntity
 8
Layer8
100
AcDbLine
 39
0.25
 370
106
 10
143.7141
 20
528.461591699219
 30
0.0
 11
143.7141
 21
528.453591699219
 31
0.0
 0
LINE
 5
F3
100
AcDbEntity
 8
Layer8
100
AcDbLine
 39
0.25
 370
106
 10
137.5533
 20
528.228791699219
 30
0.0
 11
137.5513
 21
528.220791699219
 31
0.0
 0
LINE
 5
F4
100
AcDbEntity
 8
Layer8
100
AcDbLine
 39
0.25
 370
106
 10
137.5519
 20
528.453591699219
 30
0.0
 11
137.5519
 21
528.461591699219
 31
0.0
 0
LINE
 5
F5
100
AcDbEntity
 8
Layer8
100
AcDbLine
 39
0.25
 370
106
 10
143.7556
 20
513.771291699219
 30
0.0
 11
143.7576
 21
513.775291699219
 31
0.0
 0
LINE
 5
F6
100
AcDbEntity
 8
Layer8
100
AcDbLine
 39
0.25
 370
106
 10
137.5124
 20
515.099391699219
 30
0.0
 11
137.5084
 21
515.093391699219
 31
0.0
 0
LINE
 5
F7
100
AcDbEntity
 8
Layer8
100
AcDbLine
 39
0.25
 370
106
 10
143.7546
 20
515.099391699219
 30
0.0
 11
143.7586
 21
515.093391699219
 31
0.0
 0
LINE
 5
F8
100
AcDbEntity
 8
Layer8
100
AcDbLine
 39
0.25
 370
106
 10
209.5114
 20
389.010191699219
 30
0.0
 11
209.5354
 21
388.994191699219
 31
0.0
 0
LINE
 5
F9
100
AcDbEntity
 8
Layer8
100
AcDbLine
 39
0.25
 370
106
 10
213.8039
 20
393.741891699219
 30
0.0
 11
213.8019
 21
393.761891699219
 31
0.0
 0
LINE
 5
FA
100
AcDbEntity
 8
Layer8
100
AcDbLine
 39
0.25
 370
106
 10
210.682
 20
388.337791699219
 30
0.0
 11
210.599
 21
388.343791699219
 31
0.0
 0
LINE
 5
FB
100
AcDbEntity
 8
Layer8
100
AcDbLine
 39
0.25
 370
106
 10
70.5864
 20
388.333391699219
 30
0.0
 11
70.5904
 21
388.347391699219
 31
0.0
 0
LINE
 5
FC
100
AcDbEntity
 8
Layer8
100
AcDbLine
 39
0.25
 370
106
 10
67.4708
 20
393.743691699219
 30
0.0
 11
67.4788
 21
393.759691699219
 31
0.0
 0
LINE
 5
FD
100
AcDbEntity
 8
Layer8
100
AcDbLine
 39
0.25
 370
106
 10
67.4788
 20
393.759691699219
 30
0.0
 11
67.4848
 21
393.757691699219
 31
0.0
 0
ARC
 5
FE
100
AcDbEntity
 8
Layer8
100
AcDbCircle
 39
0.25
 370
106
 10
140.703917651966
 20
432.343501454756
 30
0.0
 40
23.0552132631754
100
AcDbArc
 50
-90.0316053385258
 51
-38.0220891915947
 0
ARC
 5
FF
100
AcDbEntity
 8
Layer8
100
AcDbCircle
 39
0.25
 370
106
 10
140.624618885036
 20
432.386591857148
 30
0.0
 40
23.0838365240285
100
AcDbArc
 50
-22.1761032481842
 51
82.0485423451572
 0
ARC
 5
100
100
AcDbEntity
 8
Layer8
100
AcDbCircle
 39
0.25
 370
106
 10
140.57648455384
 20
432.42477881743
 30
0.0
 40
23.0377811865911
100
AcDbArc
 50
97.8040136564387
 51
-157.676452753412
 0
ARC
 5
101
100
AcDbEntity
 8
Layer8
100
AcDbCircle
 39
0.25
 370
106
 10
140.548985391995
 20
432.313864005466
 30
0.0
 40
23.0262879193468
100
AcDbArc
 50
-142.013027653707
 51
-89.9332778161843
 0
LINE
 5
102
100
AcDbEntity
 8
Layer8
100
AcDbLine
 39
0.25
 370
106
 10
143.6655
 20
447.472591699219
 30
0.0
 11
143.6655
 21
447.561591699219
 31
0.0
 0
LINE
 5
103
100
AcDbEntity
 8
Layer8
100
AcDbLine
 39
0.25
 370
106
 10
137.6021
 20
447.560991699219
 30
0.0
 11
137.6021
 21
447.471991699219
 31
0.0
 0
LINE
 5
104
100
AcDbEntity
 8
Layer8
100
AcDbLine
 39
0.25
 370
106
 10
129.017
 20
422.184191699219
 30
0.0
 11
129.09
 21
422.218191699219
 31
0.0
 0
LINE
 5
105
100
AcDbEntity
 8
Layer8
100
AcDbLine
 39
0.25
 370
106
 10
126.0588
 20
427.469691699219
 30
0.0
 11
125.9858
 21
427.437691699219
 31
0.0
 0
LINE
 5
106
100
AcDbEntity
 8
Layer8
100
AcDbLine
 39
0.25
 370
106
 10
137.509
 20
447.406191699219
 30
0.0
 11
137.509
 21
445.764191699219
 31
0.0
 0
LINE
 5
107
100
AcDbEntity
 8
Layer8
100
AcDbLine
 39
0.25
 370
106
 10
143.7576
 20
445.763391699219
 30
0.0
 11
143.7576
 21
447.405391699219
 31
0.0
 0
ARC
 5
108
100
AcDbEntity
 8
Layer8
100
AcDbCircle
 39
0.25
 370
106
 10
117.631815747987
 20
445.60914672125
 30
0.0
 40
19.8167207722245
100
AcDbArc
 50
-59.8452237443687
 51
0.109998926330499
 0
ARC
 5
109
100
AcDbEntity
 8
Layer8
100
AcDbCircle
 39
0.25
 370
106
 10
163.703319445088
 20
445.64974923532
 30
0.0
 40
19.8858195141678
100
AcDbArc
 50
-179.995224243943
 51
-120.269550938024
 0
LINE
 5
10A
100
AcDbEntity
 8
Layer8
100
AcDbLine
 39
0.25
 370
106
 10
127.4711
 20
428.359091699219
 30
0.0
 11
126.0661
 21
427.596091699219
 31
0.0
 0
LINE
 5
10B
100
AcDbEntity
 8
Layer8
100
AcDbLine
 39
0.25
 370
106
 10
155.2029
 20
427.595591699219
 30
0.0
 11
153.7959
 21
428.358591699219
 31
0.0
 0
ARC
 5
10C
100
AcDbEntity
 8
Layer8
100
AcDbCircle
 39
0.25
 370
106
 10
140.735195369851
 20
405.502171471582
 30
0.0
 40
20.1148674702673
100
AcDbArc
 50
60.7831210815105
 51
90.124178429613
 0
ARC
 5
10D
100
AcDbEntity
 8
Layer8
100
AcDbCircle
 39
0.25
 370
106
 10
140.564217110821
 20
405.376887890343
 30
0.0
 40
20.2405067886397
100
AcDbArc
 50
89.9689102039692
 51
119.123790284918
 0
LINE
 5
10E
100
AcDbEntity
 8
Layer8
100
AcDbLine
 39
0.25
 370
106
 10
150.6697
 20
422.942091699219
 30
0.0
 11
152.0747
 21
422.179091699219
 31
0.0
 0
LINE
 5
10F
100
AcDbEntity
 8
Layer8
100
AcDbLine
 39
0.25
 370
106
 10
129.1908
 20
422.179291699219
 30
0.0
 11
130.5978
 21
422.942291699219
 31
0.0
 0
LINE
 5
110
100
AcDbEntity
 8
Layer8
100
AcDbLine
 39
0.25
 370
106
 10
163.2973
 20
422.920391699219
 30
0.0
 11
155.3973
 21
427.432391699219
 31
0.0
 0
LINE
 5
111
100
AcDbEntity
 8
Layer8
100
AcDbLine
 39
0.25
 370
106
 10
152.2725
 20
422.016791699219
 30
0.0
 11
160.1705
 21
417.502791699219
 31
0.0
 0
LINE
 5
112
100
AcDbEntity
 8
Layer8
100
AcDbLine
 39
0.25
 370
106
 10
222.3874
 20
381.682891699219
 30
0.0
 11
223.2514
 21
381.739891699219
 31
0.0
 0
LINE
 5
113
100
AcDbEntity
 8
Layer8
100
AcDbLine
 39
0.25
 370
106
 10
225.6985
 20
386.095991699219
 30
0.0
 11
225.4755
 21
386.913991699219
 31
0.0
 0
LINE
 5
114
100
AcDbEntity
 8
Layer8
100
AcDbLine
 39
0.25
 370
106
 10
224.9539
 20
383.766391699219
 30
0.0
 11
225.7009
 21
385.867391699219
 31
0.0
 0
LINE
 5
115
100
AcDbEntity
 8
Layer8
100
AcDbLine
 39
0.25
 370
106
 10
223.4649
 20
381.910191699219
 30
0.0
 11
224.8389
 21
383.649191699219
 31
0.0
 0
LINE
 5
116
100
AcDbEntity
 8
Layer8
100
AcDbLine
 39
0.25
 370
106
 10
160.2868
 20
417.387491699219
 30
0.0
 11
222.1698
 21
381.695491699219
 31
0.0
 0
LINE
 5
117
100
AcDbEntity
 8
Layer8
100
AcDbLine
 39
0.25
 370
106
 10
213.2823
 20
386.780391699219
 30
0.0
 11
222.2673
 21
381.671391699219
 31
0.0
 0
LINE
 5
118
100
AcDbEntity
 8
Layer8
100
AcDbLine
 39
0.25
 370
106
 10
225.3664
 20
387.040291699219
 30
0.0
 11
216.4094
 21
392.196291699219
 31
0.0
 0
LINE
 5
119
100
AcDbEntity
 8
Layer8
100
AcDbLine
 39
0.25
 370
106
 10
225.2961
 20
387.112791699219
 30
0.0
 11
163.4131
 21
422.804791699219
 31
0.0
 0
LINE
 5
11A
100
AcDbEntity
 8
Layer8
100
AcDbLine
 39
0.25
 370
106
 10
225.6927
 20
385.991191699219
 30
0.0
 11
225.7127
 21
385.981191699219
 31
0.0
 0
LINE
 5
11B
100
AcDbEntity
 8
Layer8
100
AcDbLine
 39
0.25
 370
106
 10
225.7127
 20
385.981191699219
 30
0.0
 11
225.6967
 21
385.969191699219
 31
0.0
 0
LINE
 5
11C
100
AcDbEntity
 8
Layer8
100
AcDbLine
 39
0.25
 370
106
 10
223.3602
 20
381.905791699219
 30
0.0
 11
223.3522
 21
381.850791699219
 31
0.0
 0
LINE
 5
11D
100
AcDbEntity
 8
Layer8
100
AcDbLine
 39
0.25
 370
106
 10
68.088
 20
386.885991699219
 30
0.0
 11
68.09
 21
386.885991699219
 31
0.0
 0
LINE
 5
11E
100
AcDbEntity
 8
Layer8
100
AcDbLine
 39
0.25
 370
106
 10
121.096
 20
417.503491699219
 30
0.0
 11
128.996
 21
422.017491699219
 31
0.0
 0
LINE
 5
11F
100
AcDbEntity
 8
Layer8
100
AcDbLine
 39
0.25
 370
106
 10
125.8682
 20
427.432891699219
 30
0.0
 11
117.9702
 21
422.920891699219
 31
0.0
 0
LINE
 5
120
100
AcDbEntity
 8
Layer8
100
AcDbLine
 39
0.25
 370
106
 10
55.7925
 20
386.914991699219
 30
0.0
 11
55.5695
 21
386.096991699219
 31
0.0
 0
LINE
 5
121
100
AcDbEntity
 8
Layer8
100
AcDbLine
 39
0.25
 370
106
 10
58.0153
 20
381.739791699219
 30
0.0
 11
58.8793
 21
381.682791699219
 31
0.0
 0
LINE
 5
122
100
AcDbEntity
 8
Layer8
100
AcDbLine
 39
0.25
 370
106
 10
55.5666
 20
385.867691699219
 30
0.0
 11
56.3136
 21
383.766691699219
 31
0.0
 0
LINE
 5
123
100
AcDbEntity
 8
Layer8
100
AcDbLine
 39
0.25
 370
106
 10
56.4299
 20
383.650391699219
 30
0.0
 11
57.8019
 21
381.911391699219
 31
0.0
 0
LINE
 5
124
100
AcDbEntity
 8
Layer8
100
AcDbLine
 39
0.25
 370
106
 10
117.8535
 20
422.804391699219
 30
0.0
 11
55.9705
 21
387.112391699219
 31
0.0
 0
LINE
 5
125
100
AcDbEntity
 8
Layer8
100
AcDbLine
 39
0.25
 370
106
 10
64.8584
 20
392.196691699219
 30
0.0
 11
55.9014
 21
387.040691699219
 31
0.0
 0
LINE
 5
126
100
AcDbEntity
 8
Layer8
100
AcDbLine
 39
0.25
 370
106
 10
58.9998
 20
381.670991699219
 30
0.0
 11
67.9848
 21
386.779991699219
 31
0.0
 0
LINE
 5
127
100
AcDbEntity
 8
Layer8
100
AcDbLine
 39
0.25
 370
106
 10
59.0966
 20
381.695691699219
 30
0.0
 11
120.9796
 21
417.387691699219
 31
0.0
 0
LINE
 5
128
100
AcDbEntity
 8
Layer8
100
AcDbLine
 39
0.25
 370
106
 10
57.9102
 20
381.851091699219
 30
0.0
 11
57.9062
 21
381.908091699219
 31
0.0
 0
LINE
 5
129
100
AcDbEntity
 8
Layer8
100
AcDbLine
 39
0.25
 370
106
 10
55.5699
 20
385.971391699219
 30
0.0
 11
55.5559
 21
385.983391699219
 31
0.0
 0
LINE
 5
12A
100
AcDbEntity
 8
Layer8
100
AcDbLine
 39
0.25
 370
106
 10
55.5559
 20
385.983391699219
 30
0.0
 11
55.5779
 21
385.995391699219
 31
0.0
 0
LINE
 5
12B
100
AcDbEntity
 8
Layer8
100
AcDbLine
 39
0.25
 370
106
 10
137.509
 20
456.756791699219
 30
0.0
 11
137.509
 21
447.615791699219
 31
0.0
 0
LINE
 5
12C
100
AcDbEntity
 8
Layer8
100
AcDbLine
 39
0.25
 370
106
 10
143.7576
 20
447.615091699219
 30
0.0
 11
143.7576
 21
456.756091699219
 31
0.0
 0
LINE
 5
12D
100
AcDbEntity
 8
Layer8
100
AcDbLine
 39
0.25
 370
106
 10
143.6619
 20
528.583591699219
 30
0.0
 11
143.1379
 21
529.229591699219
 31
0.0
 0
LINE
 5
12E
100
AcDbEntity
 8
Layer8
100
AcDbLine
 39
0.25
 370
106
 10
138.128
 20
529.229691699219
 30
0.0
 11
137.604
 21
528.583691699219
 31
0.0
 0
LINE
 5
12F
100
AcDbEntity
 8
Layer8
100
AcDbLine
 39
0.25
 370
106
 10
142.9271
 20
529.403191699219
 30
0.0
 11
140.6921
 21
529.648191699219
 31
0.0
 0
LINE
 5
130
100
AcDbEntity
 8
Layer8
100
AcDbLine
 39
0.25
 370
106
 10
140.5758
 20
529.649091699219
 30
0.0
 11
138.3408
 21
529.404091699219
 31
0.0
 0
LINE
 5
131
100
AcDbEntity
 8
Layer8
100
AcDbLine
 39
0.25
 370
106
 10
143.7576
 20
456.872791699219
 30
0.0
 11
143.7576
 21
528.372791699219
 31
0.0
 0
LINE
 5
132
100
AcDbEntity
 8
Layer8
100
AcDbLine
 39
0.25
 370
106
 10
143.7493
 20
518.087991699219
 30
0.0
 11
143.7493
 21
528.398991699219
 31
0.0
 0
LINE
 5
133
100
AcDbEntity
 8
Layer8
100
AcDbLine
 39
0.25
 370
106
 10
143.7493
 20
528.398991699219
 30
0.0
 11
143.7393
 21
528.467991699219
 31
0.0
 0
LINE
 5
134
100
AcDbEntity
 8
Layer8
100
AcDbLine
 39
0.25
 370
106
 10
137.5278
 20
528.469391699219
 30
0.0
 11
137.5178
 21
528.398391699219
 31
0.0
 0
LINE
 5
135
100
AcDbEntity
 8
Layer8
100
AcDbLine
 39
0.25
 370
106
 10
137.5178
 20
528.398391699219
 30
0.0
 11
137.5178
 21
518.089391699219
 31
0.0
 0
LINE
 5
136
100
AcDbEntity
 8
Layer8
100
AcDbLine
 39
0.25
 370
106
 10
137.509
 20
528.372491699219
 30
0.0
 11
137.509
 21
456.872491699219
 31
0.0
 0
LINE
 5
137
100
AcDbEntity
 8
Layer8
100
AcDbLine
 39
0.25
 370
106
 10
138.2352
 20
529.232091699219
 30
0.0
 11
138.2372
 21
529.293091699219
 31
0.0
 0
LINE
 5
138
100
AcDbEntity
 8
Layer8
100
AcDbLine
 39
0.25
 370
106
 10
143.0329
 20
529.293291699219
 30
0.0
 11
143.0349
 21
529.226291699219
 31
0.0
 0
LINE
 5
139
100
AcDbEntity
 8
Layer8
100
AcDbLine
 39
0.25
 370
106
 10
143.7406
 20
513.751891699219
 30
0.0
 11
143.7486
 21
513.763891699219
 31
0.0
 0
LINE
 5
13A
100
AcDbEntity
 8
Layer8
100
AcDbLine
 39
0.25
 370
106
 10
137.5094
 20
513.775791699219
 30
0.0
 11
137.5114
 21
513.773791699219
 31
0.0
 0
LINE
 5
13B
100
AcDbEntity
 8
Layer8
100
AcDbLine
 39
0.25
 370
106
 10
143.7576
 20
513.879991699219
 30
0.0
 11
143.7576
 21
515.065991699219
 31
0.0
 0
LINE
 5
13C
100
AcDbEntity
 8
Layer8
100
AcDbLine
 39
0.25
 370
106
 10
137.509
 20
515.065791699219
 30
0.0
 11
137.509
 21
513.879791699219
 31
0.0
 0
LINE
 5
13D
100
AcDbEntity
 8
Layer8
100
AcDbLine
 39
0.25
 370
106
 10
209.5201
 20
389.075991699219
 30
0.0
 11
209.5261
 21
388.994991699219
 31
0.0
 0
LINE
 5
13E
100
AcDbEntity
 8
Layer8
100
AcDbLine
 39
0.25
 370
106
 10
212.6507
 20
394.407491699219
 30
0.0
 11
212.6367
 21
394.437491699219
 31
0.0
 0
LINE
 5
13F
100
AcDbEntity
 8
Layer8
100
AcDbLine
 39
0.25
 370
106
 10
213.7758
 20
393.765991699219
 30
0.0
 11
212.7658
 21
394.299991699219
 31
0.0
 0
LINE
 5
140
100
AcDbEntity
 8
Layer8
100
AcDbLine
 39
0.25
 370
106
 10
209.6393
 20
388.884491699219
 30
0.0
 11
210.6493
 21
388.348491699219
 31
0.0
 0
LINE
 5
141
100
AcDbEntity
 8
Layer8
100
AcDbLine
 39
0.25
 370
106
 10
68.626
 20
394.435391699219
 30
0.0
 11
68.618
 21
394.407391699219
 31
0.0
 0
LINE
 5
142
100
AcDbEntity
 8
Layer8
100
AcDbLine
 39
0.25
 370
106
 10
71.7406
 20
388.994391699219
 30
0.0
 11
71.7526
 21
389.079391699219
 31
0.0
 0
LINE
 5
143
100
AcDbEntity
 8
Layer8
100
AcDbLine
 39
0.25
 370
106
 10
68.5015
 20
394.300591699219
 30
0.0
 11
67.4915
 21
393.766591699219
 31
0.0
 0
LINE
 5
144
100
AcDbEntity
 8
Layer8
100
AcDbLine
 39
0.25
 370
106
 10
70.6169
 20
388.349291699219
 30
0.0
 11
71.6269
 21
388.885291699219
 31
0.0
 0
LINE
 5
145
100
AcDbEntity
 8
Layer8
100
AcDbLine
 39
0.25
 370
106
 10
126.2864
 20
144.477391699219
 30
0.0
 11
126.2804
 21
144.477391699219
 31
0.0
 0
LINE
 5
146
100
AcDbEntity
 8
Layer8
100
AcDbLine
 39
0.25
 370
106
 10
154.9754
 20
144.477391699219
 30
0.0
 11
154.9794
 21
144.477391699219
 31
0.0
 0
LINE
 5
147
100
AcDbEntity
 8
Layer8
100
AcDbLine
 39
0.25
 370
106
 10
126.2724
 20
144.509391699219
 30
0.0
 11
126.2524
 21
144.509391699219
 31
0.0
 0
LINE
 5
148
100
AcDbEntity
 8
Layer8
100
AcDbLine
 39
0.25
 370
106
 10
126.2664
 20
146.127391699219
 30
0.0
 11
126.2464
 21
146.127391699219
 31
0.0
 0
LINE
 5
149
100
AcDbEntity
 8
Layer8
100
AcDbLine
 39
0.25
 370
106
 10
154.9934
 20
146.127391699219
 30
0.0
 11
155.0134
 21
146.127391699219
 31
0.0
 0
LINE
 5
14A
100
AcDbEntity
 8
Layer8
100
AcDbLine
 39
0.25
 370
106
 10
154.9874
 20
144.509391699219
 30
0.0
 11
155.0094
 21
144.509391699219
 31
0.0
 0
LINE
 5
14B
100
AcDbEntity
 8
Layer8
100
AcDbLine
 39
0.25
 370
106
 10
125.9644
 20
145.264391699219
 30
0.0
 11
125.9364
 21
145.264391699219
 31
0.0
 0
LINE
 5
14C
100
AcDbEntity
 8
Layer8
100
AcDbLine
 39
0.25
 370
106
 10
125.9644
 20
145.384391699219
 30
0.0
 11
125.9364
 21
145.384391699219
 31
0.0
 0
LINE
 5
14D
100
AcDbEntity
 8
Layer8
100
AcDbLine
 39
0.25
 370
106
 10
155.2984
 20
145.384391699219
 30
0.0
 11
155.3254
 21
145.384391699219
 31
0.0
 0
LINE
 5
14E
100
AcDbEntity
 8
Layer8
100
AcDbLine
 39
0.25
 370
106
 10
155.2984
 20
145.264391699219
 30
0.0
 11
155.3254
 21
145.264391699219
 31
0.0
 0
LINE
 5
14F
100
AcDbEntity
 8
Layer8
100
AcDbLine
 39
0.25
 370
106
 10
143.7444
 20
146.187391699219
 30
0.0
 11
153.4404
 21
146.187391699219
 31
0.0
 0
LINE
 5
150
100
AcDbEntity
 8
Layer8
100
AcDbLine
 39
0.25
 370
106
 10
137.5184
 20
146.187391699219
 30
0.0
 11
127.8204
 21
146.187391699219
 31
0.0
 0
LINE
 5
151
100
AcDbEntity
 8
Layer8
100
AcDbLine
 39
0.25
 370
106
 10
143.0444
 20
144.388391699219
 30
0.0
 11
145.7574
 21
144.388391699219
 31
0.0
 0
LINE
 5
152
100
AcDbEntity
 8
Layer8
100
AcDbLine
 39
0.25
 370
106
 10
138.2184
 20
144.388391699219
 30
0.0
 11
135.5044
 21
144.388391699219
 31
0.0
 0
ARC
 5
153
100
AcDbEntity
 8
Layer8
100
AcDbCircle
 39
0.25
 370
106
 10
81.0648920344591
 20
176.710635435516
 30
0.0
 40
22.219877425785
100
AcDbArc
 50
-160.140987479223
 51
-131.122912096953
 0
ARC
 5
154
100
AcDbEntity
 8
Layer8
100
AcDbCircle
 39
0.25
 370
106
 10
86.3815331875062
 20
176.303620223013
 30
0.0
 40
27.1703947867479
100
AcDbArc
 50
171.867133966307
 51
-164.76187560234
 0
ARC
 5
155
100
AcDbEntity
 8
Layer8
100
AcDbCircle
 39
0.25
 370
106
 10
131.702324571163
 20
170.137469217431
 30
0.0
 40
72.908347789931
100
AcDbArc
 50
155.140803191243
 51
172.108673473056
 0
LINE
 5
156
100
AcDbEntity
 8
Layer8
100
AcDbLine
 39
0.25
 370
106
 10
65.5494
 20
200.787391699219
 30
0.0
 11
68.1014
 21
205.986391699219
 31
0.0
 0
ARC
 5
157
100
AcDbEntity
 8
Layer8
100
AcDbCircle
 39
0.25
 370
106
 10
83.4578391612083
 20
179.486735319967
 30
0.0
 40
29.2005879612833
100
AcDbArc
 50
-160.381335619328
 51
-128.181402091687
 0
ARC
 5
158
100
AcDbEntity
 8
Layer8
100
AcDbCircle
 39
0.25
 370
106
 10
97.1434504706227
 20
198.935736611966
 30
0.0
 40
52.9635322988703
100
AcDbArc
 50
-126.813031288297
 51
-102.34784559108
 0
ARC
 5
159
100
AcDbEntity
 8
Layer8
100
AcDbCircle
 39
0.25
 370
106
 10
113.34791588635
 20
286.009489501787
 30
0.0
 40
141.51582173495
100
AcDbArc
 50
-101.217864458646
 51
-90.2828106019241
 0
LINE
 5
15A
100
AcDbEntity
 8
Layer8
100
AcDbLine
 39
0.25
 370
106
 10
112.6494
 20
144.495391699219
 30
0.0
 11
118.1774
 21
144.449391699219
 31
0.0
 0
ARC
 5
15B
100
AcDbEntity
 8
Layer8
100
AcDbCircle
 39
0.25
 370
106
 10
139.645312286676
 20
166.234109129529
 30
0.0
 40
85.5654959006121
100
AcDbArc
 50
151.608935482285
 51
164.240018841147
 0
LINE
 5
15C
100
AcDbEntity
 8
Layer8
100
AcDbLine
 39
0.25
 370
106
 10
57.2964
 20
189.474391699219
 30
0.0
 11
56.5474
 21
186.438391699219
 31
0.0
 0
ARC
 5
15D
100
AcDbEntity
 8
Layer8
100
AcDbCircle
 39
0.25
 370
106
 10
132.29396631135
 20
169.074484899669
 30
0.0
 40
76.075453373354
100
AcDbArc
 50
150.974339910158
 51
167.120819585452
 0
ARC
 5
15E
100
AcDbEntity
 8
Layer8
100
AcDbCircle
 39
0.25
 370
106
 10
102.776206344969
 20
175.38385323226
 30
0.0
 40
45.895964096775
100
AcDbArc
 50
166.585568609705
 51
-178.527417175273
 0
ARC
 5
15F
100
AcDbEntity
 8
Layer8
100
AcDbCircle
 39
0.25
 370
106
 10
76.0218993872322
 20
175.329376933067
 30
0.0
 40
19.159555594694
100
AcDbArc
 50
-176.63384671858
 51
-142.555062523935
 0
LINE
 5
160
100
AcDbEntity
 8
Layer8
100
AcDbLine
 39
0.25
 370
106
 10
60.8104
 20
163.680391699219
 30
0.0
 11
62.8204
 21
161.278391699219
 31
0.0
 0
LINE
 5
161
100
AcDbEntity
 8
Layer8
100
AcDbLine
 39
0.25
 370
106
 10
62.8204
 20
161.278391699219
 30
0.0
 11
64.3224
 21
159.790391699219
 31
0.0
 0
ARC
 5
162
100
AcDbEntity
 8
Layer8
100
AcDbCircle
 39
0.25
 370
106
 10
146.668096620781
 20
169.081209092153
 30
0.0
 40
76.0483523657267
100
AcDbArc
 50
12.878652176705
 51
29.0311964351598
 0
ARC
 5
163
100
AcDbEntity
 8
Layer8
100
AcDbCircle
 39
0.25
 370
106
 10
175.982350168048
 20
175.361420768979
 30
0.0
 40
46.0735801483945
100
AcDbArc
 50
-1.43899935949298
 51
13.3904319766744
 0
ARC
 5
164
100
AcDbEntity
 8
Layer8
100
AcDbCircle
 39
0.25
 370
106
 10
202.859814370301
 20
175.351319989404
 30
0.0
 40
19.2158442898646
100
AcDbArc
 50
-37.3988317071581
 51
-3.42182366719217
 0
LINE
 5
165
100
AcDbEntity
 8
Layer8
100
AcDbLine
 39
0.25
 370
106
 10
218.1254
 20
163.680391699219
 30
0.0
 11
216.1134
 21
161.278391699219
 31
0.0
 0
LINE
 5
166
100
AcDbEntity
 8
Layer8
100
AcDbLine
 39
0.25
 370
106
 10
216.1134
 20
161.278391699219
 30
0.0
 11
214.5034
 21
159.689391699219
 31
0.0
 0
ARC
 5
167
100
AcDbEntity
 8
Layer8
100
AcDbCircle
 39
0.25
 370
106
 10
139.90372697497
 20
165.780562368031
 30
0.0
 40
87.2888944952532
100
AcDbArc
 50
13.6131923807872
 51
28.1183979607749
 0
ARC
 5
168
100
AcDbEntity
 8
Layer8
100
AcDbCircle
 39
0.25
 370
106
 10
167.357774460897
 20
292.575762492975
 30
0.0
 40
148.188029211409
100
AcDbArc
 50
-91.6528837741722
 51
-81.2755204202779
 0
ARC
 5
169
100
AcDbEntity
 8
Layer8
100
AcDbCircle
 39
0.25
 370
106
 10
183.110678430702
 20
201.36963646792
 30
0.0
 40
55.6748616927613
100
AcDbArc
 50
-83.0625560624671
 51
-60.7608490738738
 0
ARC
 5
16A
100
AcDbEntity
 8
Layer8
100
AcDbCircle
 39
0.25
 370
106
 10
194.714853997344
 20
182.597833434358
 30
0.0
 40
33.6402726092042
100
AcDbArc
 50
-62.3901189345463
 51
-35.2544220311694
 0
ARC
 5
16B
100
AcDbEntity
 8
Layer8
100
AcDbCircle
 39
0.25
 370
106
 10
206.545409885493
 20
174.733676629787
 30
0.0
 40
19.4444769399634
100
AcDbArc
 50
-36.45333958333
 51
-5.24728897439677
 0
ARC
 5
16C
100
AcDbEntity
 8
Layer8
100
AcDbCircle
 39
0.25
 370
106
 10
202.485194708921
 20
176.726199744807
 30
0.0
 40
22.2615758101551
100
AcDbArc
 50
-48.9716973944407
 51
-19.8628411427229
 0
ARC
 5
16D
100
AcDbEntity
 8
Layer8
100
AcDbCircle
 39
0.25
 370
106
 10
199.65262600377
 20
175.971048587058
 30
0.0
 40
24.7256944179166
100
AcDbArc
 50
-15.9839261507128
 51
5.10086054290132
 0
ARC
 5
16E
100
AcDbEntity
 8
Layer8
100
AcDbCircle
 39
0.25
 370
106
 10
153.244001725402
 20
170.741176859998
 30
0.0
 40
71.4237233384324
100
AcDbArc
 50
5.96967440953174
 51
24.8772457851106
 0
LINE
 5
16F
100
AcDbEntity
 8
Layer8
100
AcDbLine
 39
0.25
 370
106
 10
218.0404
 20
200.787391699219
 30
0.0
 11
215.4894
 21
205.986391699219
 31
0.0
 0
LINE
 5
170
100
AcDbEntity
 8
Layer8
100
AcDbLine
 39
0.25
 370
106
 10
208.8524
 20
214.244391699219
 30
0.0
 11
208.8464
 21
214.212391699219
 31
0.0
 0
LINE
 5
171
100
AcDbEntity
 8
Layer8
100
AcDbLine
 39
0.25
 370
106
 10
210.7304
 20
210.840391699219
 30
0.0
 11
210.7454
 21
210.809391699219
 31
0.0
 0
LINE
 5
172
100
AcDbEntity
 8
Layer8
100
AcDbLine
 39
0.25
 370
106
 10
213.0464
 20
210.858391699219
 30
0.0
 11
213.0744
 21
210.809391699219
 31
0.0
 0
LINE
 5
173
100
AcDbEntity
 8
Layer8
100
AcDbLine
 39
0.25
 370
106
 10
213.1684
 20
214.088391699219
 30
0.0
 11
213.1644
 21
214.064391699219
 31
0.0
 0
LINE
 5
174
100
AcDbEntity
 8
Layer8
100
AcDbLine
 39
0.25
 370
106
 10
214.3134
 20
211.690391699219
 30
0.0
 11
214.3254
 21
211.663391699219
 31
0.0
 0
LINE
 5
175
100
AcDbEntity
 8
Layer8
100
AcDbLine
 39
0.25
 370
106
 10
214.0584
 20
211.323391699219
 30
0.0
 11
214.0844
 21
211.271391699219
 31
0.0
 0
LINE
 5
176
100
AcDbEntity
 8
Layer8
100
AcDbLine
 39
0.25
 370
106
 10
213.1514
 20
214.090391699219
 30
0.0
 11
213.1554
 21
214.113391699219
 31
0.0
 0
LINE
 5
177
100
AcDbEntity
 8
Layer8
100
AcDbLine
 39
0.25
 370
106
 10
212.6014
 20
215.157391699219
 30
0.0
 11
212.6134
 21
215.102391699219
 31
0.0
 0
LINE
 5
178
100
AcDbEntity
 8
Layer8
100
AcDbLine
 39
0.25
 370
106
 10
213.1014
 20
210.884391699219
 30
0.0
 11
213.1334
 21
210.827391699219
 31
0.0
 0
LINE
 5
179
100
AcDbEntity
 8
Layer8
100
AcDbLine
 39
0.25
 370
106
 10
213.9634
 20
211.267391699219
 30
0.0
 11
213.9954
 21
211.210391699219
 31
0.0
 0
LINE
 5
17A
100
AcDbEntity
 8
Layer8
100
AcDbLine
 39
0.25
 370
106
 10
212.4944
 20
215.210391699219
 30
0.0
 11
212.5304
 21
215.228391699219
 31
0.0
 0
LINE
 5
17B
100
AcDbEntity
 8
Layer8
100
AcDbLine
 39
0.25
 370
106
 10
212.5304
 20
215.228391699219
 30
0.0
 11
212.5504
 21
215.224391699219
 31
0.0
 0
LINE
 5
17C
100
AcDbEntity
 8
Layer8
100
AcDbLine
 39
0.25
 370
106
 10
208.8524
 20
214.244391699219
 30
0.0
 11
208.8324
 21
214.268391699219
 31
0.0
 0
LINE
 5
17D
100
AcDbEntity
 8
Layer8
100
AcDbLine
 39
0.25
 370
106
 10
208.8324
 20
214.268391699219
 30
0.0
 11
208.8264
 21
214.291391699219
 31
0.0
 0
LINE
 5
17E
100
AcDbEntity
 8
Layer8
100
AcDbLine
 39
0.25
 370
106
 10
210.8114
 20
216.139391699219
 30
0.0
 11
210.5974
 21
216.110391699219
 31
0.0
 0
LINE
 5
17F
100
AcDbEntity
 8
Layer8
100
AcDbLine
 39
0.25
 370
106
 10
210.5974
 20
216.110391699219
 30
0.0
 11
210.4114
 21
216.025391699219
 31
0.0
 0
ARC
 5
180
100
AcDbEntity
 8
Layer8
100
AcDbCircle
 39
0.25
 370
106
 10
208.502861705488
 20
211.59025687885
 30
0.0
 40
3.89310015129133
100
AcDbArc
 50
45.0478345636084
 51
68.8205572864818
 0
LINE
 5
181
100
AcDbEntity
 8
Layer8
100
AcDbLine
 39
0.25
 370
106
 10
142.9614
 20
215.206391699219
 30
0.0
 11
142.9984
 21
215.226391699219
 31
0.0
 0
LINE
 5
182
100
AcDbEntity
 8
Layer8
100
AcDbLine
 39
0.25
 370
106
 10
142.9984
 20
215.226391699219
 30
0.0
 11
143.0244
 21
215.222391699219
 31
0.0
 0
LINE
 5
183
100
AcDbEntity
 8
Layer8
100
AcDbLine
 39
0.25
 370
106
 10
143.0974
 20
215.102391699219
 30
0.0
 11
143.1074
 21
215.119391699219
 31
0.0
 0
LINE
 5
184
100
AcDbEntity
 8
Layer8
100
AcDbLine
 39
0.25
 370
106
 10
143.7654
 20
213.479391699219
 30
0.0
 11
143.7614
 21
213.511391699219
 31
0.0
 0
LINE
 5
185
100
AcDbEntity
 8
Layer8
100
AcDbLine
 39
0.25
 370
106
 10
143.7614
 20
213.511391699219
 30
0.0
 11
143.7224
 21
213.627391699219
 31
0.0
 0
LINE
 5
186
100
AcDbEntity
 8
Layer8
100
AcDbLine
 39
0.25
 370
106
 10
143.6514
 20
211.350391699219
 30
0.0
 11
143.6514
 21
211.346391699219
 31
0.0
 0
LINE
 5
187
100
AcDbEntity
 8
Layer8
100
AcDbLine
 39
0.25
 370
106
 10
137.6094
 20
211.350391699219
 30
0.0
 11
137.6094
 21
211.346391699219
 31
0.0
 0
LINE
 5
188
100
AcDbEntity
 8
Layer8
100
AcDbLine
 39
0.25
 370
106
 10
143.0164
 20
211.744391699219
 30
0.0
 11
143.0164
 21
211.722391699219
 31
0.0
 0
LINE
 5
189
100
AcDbEntity
 8
Layer8
100
AcDbLine
 39
0.25
 370
106
 10
138.2434
 20
211.744391699219
 30
0.0
 11
138.2434
 21
211.722391699219
 31
0.0
 0
LINE
 5
18A
100
AcDbEntity
 8
Layer8
100
AcDbLine
 39
0.25
 370
106
 10
142.9614
 20
211.760391699219
 30
0.0
 11
142.9614
 21
211.728391699219
 31
0.0
 0
LINE
 5
18B
100
AcDbEntity
 8
Layer8
100
AcDbLine
 39
0.25
 370
106
 10
138.3014
 20
211.760391699219
 30
0.0
 11
138.3014
 21
211.728391699219
 31
0.0
 0
LINE
 5
18C
100
AcDbEntity
 8
Layer8
100
AcDbLine
 39
0.25
 370
106
 10
72.4134
 20
214.214391699219
 30
0.0
 11
72.4094
 21
214.244391699219
 31
0.0
 0
LINE
 5
18D
100
AcDbEntity
 8
Layer8
100
AcDbLine
 39
0.25
 370
106
 10
70.5324
 20
210.840391699219
 30
0.0
 11
70.5164
 21
210.809391699219
 31
0.0
 0
LINE
 5
18E
100
AcDbEntity
 8
Layer8
100
AcDbLine
 39
0.25
 370
106
 10
68.2154
 20
210.858391699219
 30
0.0
 11
68.1884
 21
210.809391699219
 31
0.0
 0
LINE
 5
18F
100
AcDbEntity
 8
Layer8
100
AcDbLine
 39
0.25
 370
106
 10
68.0974
 20
214.064391699219
 30
0.0
 11
68.0934
 21
214.088391699219
 31
0.0
 0
LINE
 5
190
100
AcDbEntity
 8
Layer8
100
AcDbLine
 39
0.25
 370
106
 10
66.9514
 20
211.690391699219
 30
0.0
 11
66.9354
 21
211.663391699219
 31
0.0
 0
LINE
 5
191
100
AcDbEntity
 8
Layer8
100
AcDbLine
 39
0.25
 370
106
 10
67.2044
 20
211.323391699219
 30
0.0
 11
67.1784
 21
211.271391699219
 31
0.0
 0
LINE
 5
192
100
AcDbEntity
 8
Layer8
100
AcDbLine
 39
0.25
 370
106
 10
68.1074
 20
214.113391699219
 30
0.0
 11
68.1114
 21
214.090391699219
 31
0.0
 0
LINE
 5
193
100
AcDbEntity
 8
Layer8
100
AcDbLine
 39
0.25
 370
106
 10
68.6464
 20
215.102391699219
 30
0.0
 11
68.6604
 21
215.157391699219
 31
0.0
 0
LINE
 5
194
100
AcDbEntity
 8
Layer8
100
AcDbLine
 39
0.25
 370
106
 10
67.2964
 20
211.267391699219
 30
0.0
 11
67.2674
 21
211.210391699219
 31
0.0
 0
LINE
 5
195
100
AcDbEntity
 8
Layer8
100
AcDbLine
 39
0.25
 370
106
 10
68.1584
 20
210.884391699219
 30
0.0
 11
68.1294
 21
210.827391699219
 31
0.0
 0
LINE
 5
196
100
AcDbEntity
 8
Layer8
100
AcDbLine
 39
0.25
 370
106
 10
68.7104
 20
215.224391699219
 30
0.0
 11
68.7294
 21
215.228391699219
 31
0.0
 0
LINE
 5
197
100
AcDbEntity
 8
Layer8
100
AcDbLine
 39
0.25
 370
106
 10
68.7294
 20
215.228391699219
 30
0.0
 11
68.7674
 21
215.210391699219
 31
0.0
 0
LINE
 5
198
100
AcDbEntity
 8
Layer8
100
AcDbLine
 39
0.25
 370
106
 10
72.4094
 20
214.244391699219
 30
0.0
 11
72.4214
 21
214.256391699219
 31
0.0
 0
LINE
 5
199
100
AcDbEntity
 8
Layer8
100
AcDbLine
 39
0.25
 370
106
 10
72.4214
 20
214.256391699219
 30
0.0
 11
72.4334
 21
214.291391699219
 31
0.0
 0
ARC
 5
19A
100
AcDbEntity
 8
Layer8
100
AcDbCircle
 39
0.25
 370
106
 10
72.3505669345276
 20
212.205335475815
 30
0.0
 40
3.1741076314857
100
AcDbArc
 50
108.214865321147
 51
137.606162849908
 0
LINE
 5
19B
100
AcDbEntity
 8
Layer8
100
AcDbLine
 39
0.25
 370
106
 10
127.4664
 20
332.000391699219
 30
0.0
 11
124.0924
 21
332.000391699219
 31
0.0
 0
LINE
 5
19C
100
AcDbEntity
 8
Layer8
100
AcDbLine
 39
0.25
 370
106
 10
124.0474
 20
331.954391699219
 30
0.0
 11
127.5094
 21
331.954391699219
 31
0.0
 0
LINE
 5
19D
100
AcDbEntity
 8
Layer8
100
AcDbLine
 39
0.25
 370
106
 10
149.7444
 20
332.000391699219
 30
0.0
 11
146.3704
 21
332.000391699219
 31
0.0
 0
LINE
 5
19E
100
AcDbEntity
 8
Layer8
100
AcDbLine
 39
0.25
 370
106
 10
146.3254
 20
331.954391699219
 30
0.0
 11
149.7874
 21
331.954391699219
 31
0.0
 0
LINE
 5
19F
100
AcDbEntity
 8
Layer8
100
AcDbLine
 39
0.25
 370
106
 10
159.1954
 20
331.523391699219
 30
0.0
 11
122.0644
 21
331.523391699219
 31
0.0
 0
LINE
 5
1A0
100
AcDbEntity
 8
Layer8
100
AcDbLine
 39
0.25
 370
106
 10
127.3734
 20
332.077391699219
 30
0.0
 11
128.3104
 21
332.077391699219
 31
0.0
 0
LINE
 5
1A1
100
AcDbEntity
 8
Layer8
100
AcDbLine
 39
0.25
 370
106
 10
139.2854
 20
332.077391699219
 30
0.0
 11
141.9774
 21
332.077391699219
 31
0.0
 0
LINE
 5
1A2
100
AcDbEntity
 8
Layer8
100
AcDbLine
 39
0.25
 370
106
 10
152.9524
 20
332.077391699219
 30
0.0
 11
155.6434
 21
332.077391699219
 31
0.0
 0
LINE
 5
1A3
100
AcDbEntity
 8
Layer8
100
AcDbLine
 39
0.25
 370
106
 10
128.0154
 20
332.385391699219
 30
0.0
 11
125.9144
 21
332.385391699219
 31
0.0
 0
LINE
 5
1A4
100
AcDbEntity
 8
Layer8
100
AcDbLine
 39
0.25
 370
106
 10
141.6804
 20
332.385391699219
 30
0.0
 11
139.5794
 21
332.385391699219
 31
0.0
 0
LINE
 5
1A5
100
AcDbEntity
 8
Layer8
100
AcDbLine
 39
0.25
 370
106
 10
155.3474
 20
332.385391699219
 30
0.0
 11
153.2464
 21
332.385391699219
 31
0.0
 0
LINE
 5
1A6
100
AcDbEntity
 8
Layer8
100
AcDbLine
 39
0.25
 370
106
 10
126.2804
 20
144.477391699219
 30
0.0
 11
126.2864
 21
144.475391699219
 31
0.0
 0
LINE
 5
1A7
100
AcDbEntity
 8
Layer8
100
AcDbLine
 39
0.25
 370
106
 10
154.9794
 20
144.477391699219
 30
0.0
 11
154.9734
 21
144.475391699219
 31
0.0
 0
LINE
 5
1A8
100
AcDbEntity
 8
Layer8
100
AcDbLine
 39
0.25
 370
106
 10
126.2524
 20
144.509391699219
 30
0.0
 11
126.2804
 21
144.477391699219
 31
0.0
 0
LINE
 5
1A9
100
AcDbEntity
 8
Layer8
100
AcDbLine
 39
0.25
 370
106
 10
155.0094
 20
144.509391699219
 30
0.0
 11
154.9794
 21
144.477391699219
 31
0.0
 0
LINE
 5
1AA
100
AcDbEntity
 8
Layer8
100
AcDbLine
 39
0.25
 370
106
 10
126.2804
 20
146.159391699219
 30
0.0
 11
126.2624
 21
146.151391699219
 31
0.0
 0
LINE
 5
1AB
100
AcDbEntity
 8
Layer8
100
AcDbLine
 39
0.25
 370
106
 10
126.2624
 20
146.151391699219
 30
0.0
 11
126.2464
 21
146.127391699219
 31
0.0
 0
LINE
 5
1AC
100
AcDbEntity
 8
Layer8
100
AcDbLine
 39
0.25
 370
106
 10
154.9794
 20
146.159391699219
 30
0.0
 11
154.9934
 21
146.155391699219
 31
0.0
 0
LINE
 5
1AD
100
AcDbEntity
 8
Layer8
100
AcDbLine
 39
0.25
 370
106
 10
154.9934
 20
146.155391699219
 30
0.0
 11
155.0134
 21
146.127391699219
 31
0.0
 0
LINE
 5
1AE
100
AcDbEntity
 8
Layer8
100
AcDbLine
 39
0.25
 370
106
 10
125.9364
 20
145.264391699219
 30
0.0
 11
126.2524
 21
144.509391699219
 31
0.0
 0
LINE
 5
1AF
100
AcDbEntity
 8
Layer8
100
AcDbLine
 39
0.25
 370
106
 10
126.2464
 20
146.127391699219
 30
0.0
 11
125.9364
 21
145.384391699219
 31
0.0
 0
LINE
 5
1B0
100
AcDbEntity
 8
Layer8
100
AcDbLine
 39
0.25
 370
106
 10
155.0134
 20
146.127391699219
 30
0.0
 11
155.3254
 21
145.384391699219
 31
0.0
 0
LINE
 5
1B1
100
AcDbEntity
 8
Layer8
100
AcDbLine
 39
0.25
 370
106
 10
155.3254
 20
145.264391699219
 30
0.0
 11
155.0094
 21
144.509391699219
 31
0.0
 0
LINE
 5
1B2
100
AcDbEntity
 8
Layer8
100
AcDbLine
 39
0.25
 370
106
 10
125.9364
 20
145.384391699219
 30
0.0
 11
125.9244
 21
145.325391699219
 31
0.0
 0
LINE
 5
1B3
100
AcDbEntity
 8
Layer8
100
AcDbLine
 39
0.25
 370
106
 10
125.9244
 20
145.325391699219
 30
0.0
 11
125.9364
 21
145.264391699219
 31
0.0
 0
LINE
 5
1B4
100
AcDbEntity
 8
Layer8
100
AcDbLine
 39
0.25
 370
106
 10
155.3254
 20
145.384391699219
 30
0.0
 11
155.3354
 21
145.325391699219
 31
0.0
 0
LINE
 5
1B5
100
AcDbEntity
 8
Layer8
100
AcDbLine
 39
0.25
 370
106
 10
155.3354
 20
145.325391699219
 30
0.0
 11
155.3254
 21
145.264391699219
 31
0.0
 0
LINE
 5
1B6
100
AcDbEntity
 8
Layer8
100
AcDbLine
 39
0.25
 370
106
 10
126.3554
 20
144.386391699219
 30
0.0
 11
126.3244
 21
144.408391699219
 31
0.0
 0
LINE
 5
1B7
100
AcDbEntity
 8
Layer8
100
AcDbLine
 39
0.25
 370
106
 10
126.3244
 20
144.408391699219
 30
0.0
 11
126.2984
 21
144.449391699219
 31
0.0
 0
LINE
 5
1B8
100
AcDbEntity
 8
Layer8
100
AcDbLine
 39
0.25
 370
106
 10
154.9064
 20
144.386391699219
 30
0.0
 11
154.9384
 21
144.408391699219
 31
0.0
 0
LINE
 5
1B9
100
AcDbEntity
 8
Layer8
100
AcDbLine
 39
0.25
 370
106
 10
154.9384
 20
144.408391699219
 30
0.0
 11
154.9644
 21
144.449391699219
 31
0.0
 0
LINE
 5
1BA
100
AcDbEntity
 8
Layer8
100
AcDbLine
 39
0.25
 370
106
 10
127.8914
 20
146.254391699219
 30
0.0
 11
126.3634
 21
146.254391699219
 31
0.0
 0
LINE
 5
1BB
100
AcDbEntity
 8
Layer8
100
AcDbLine
 39
0.25
 370
106
 10
126.2924
 20
146.187391699219
 30
0.0
 11
126.3334
 21
146.244391699219
 31
0.0
 0
LINE
 5
1BC
100
AcDbEntity
 8
Layer8
100
AcDbLine
 39
0.25
 370
106
 10
126.3334
 20
146.244391699219
 30
0.0
 11
126.3634
 21
146.254391699219
 31
0.0
 0
LINE
 5
1BD
100
AcDbEntity
 8
Layer8
100
AcDbLine
 39
0.25
 370
106
 10
153.3714
 20
146.254391699219
 30
0.0
 11
154.8984
 21
146.254391699219
 31
0.0
 0
LINE
 5
1BE
100
AcDbEntity
 8
Layer8
100
AcDbLine
 39
0.25
 370
106
 10
154.9694
 20
146.187391699219
 30
0.0
 11
154.9384
 21
146.236391699219
 31
0.0
 0
LINE
 5
1BF
100
AcDbEntity
 8
Layer8
100
AcDbLine
 39
0.25
 370
106
 10
154.9384
 20
146.236391699219
 30
0.0
 11
154.8984
 21
146.254391699219
 31
0.0
 0
LINE
 5
1C0
100
AcDbEntity
 8
Layer8
100
AcDbLine
 39
0.25
 370
106
 10
126.2924
 20
146.187391699219
 30
0.0
 11
127.8204
 21
146.187391699219
 31
0.0
 0
LINE
 5
1C1
100
AcDbEntity
 8
Layer8
100
AcDbLine
 39
0.25
 370
106
 10
125.9804
 20
145.443391699219
 30
0.0
 11
126.2924
 21
146.187391699219
 31
0.0
 0
LINE
 5
1C2
100
AcDbEntity
 8
Layer8
100
AcDbLine
 39
0.25
 370
106
 10
127.8244
 20
144.451391699219
 30
0.0
 11
126.2984
 21
144.449391699219
 31
0.0
 0
LINE
 5
1C3
100
AcDbEntity
 8
Layer8
100
AcDbLine
 39
0.25
 370
106
 10
126.2984
 20
144.449391699219
 30
0.0
 11
125.9804
 21
145.204391699219
 31
0.0
 0
LINE
 5
1C4
100
AcDbEntity
 8
Layer8
100
AcDbLine
 39
0.25
 370
106
 10
155.2804
 20
145.443391699219
 30
0.0
 11
154.9694
 21
146.187391699219
 31
0.0
 0
LINE
 5
1C5
100
AcDbEntity
 8
Layer8
100
AcDbLine
 39
0.25
 370
106
 10
154.9694
 20
146.187391699219
 30
0.0
 11
153.4404
 21
146.187391699219
 31
0.0
 0
LINE
 5
1C6
100
AcDbEntity
 8
Layer8
100
AcDbLine
 39
0.25
 370
106
 10
153.4364
 20
144.451391699219
 30
0.0
 11
154.9644
 21
144.449391699219
 31
0.0
 0
LINE
 5
1C7
100
AcDbEntity
 8
Layer8
100
AcDbLine
 39
0.25
 370
106
 10
154.9644
 20
144.449391699219
 30
0.0
 11
155.2804
 21
145.204391699219
 31
0.0
 0
LINE
 5
1C8
100
AcDbEntity
 8
Layer8
100
AcDbLine
 39
0.25
 370
106
 10
125.9804
 20
145.204391699219
 30
0.0
 11
127.5074
 21
145.204391699219
 31
0.0
 0
LINE
 5
1C9
100
AcDbEntity
 8
Layer8
100
AcDbLine
 39
0.25
 370
106
 10
127.5074
 20
145.443391699219
 30
0.0
 11
125.9804
 21
145.443391699219
 31
0.0
 0
LINE
 5
1CA
100
AcDbEntity
 8
Layer8
100
AcDbLine
 39
0.25
 370
106
 10
125.9804
 20
145.204391699219
 30
0.0
 11
125.9644
 21
145.262391699219
 31
0.0
 0
LINE
 5
1CB
100
AcDbEntity
 8
Layer8
100
AcDbLine
 39
0.25
 370
106
 10
125.9644
 20
145.262391699219
 30
0.0
 11
125.9584
 21
145.325391699219
 31
0.0
 0
LINE
 5
1CC
100
AcDbEntity
 8
Layer8
100
AcDbLine
 39
0.25
 370
106
 10
125.9584
 20
145.325391699219
 30
0.0
 11
125.9644
 21
145.388391699219
 31
0.0
 0
LINE
 5
1CD
100
AcDbEntity
 8
Layer8
100
AcDbLine
 39
0.25
 370
106
 10
125.9644
 20
145.388391699219
 30
0.0
 11
125.9804
 21
145.443391699219
 31
0.0
 0
LINE
 5
1CE
100
AcDbEntity
 8
Layer8
100
AcDbLine
 39
0.25
 370
106
 10
155.2804
 20
145.204391699219
 30
0.0
 11
153.7524
 21
145.204391699219
 31
0.0
 0
LINE
 5
1CF
100
AcDbEntity
 8
Layer8
100
AcDbLine
 39
0.25
 370
106
 10
155.2804
 20
145.204391699219
 30
0.0
 11
155.2964
 21
145.262391699219
 31
0.0
 0
LINE
 5
1D0
100
AcDbEntity
 8
Layer8
100
AcDbLine
 39
0.25
 370
106
 10
155.2964
 20
145.262391699219
 30
0.0
 11
155.3024
 21
145.325391699219
 31
0.0
 0
LINE
 5
1D1
100
AcDbEntity
 8
Layer8
100
AcDbLine
 39
0.25
 370
106
 10
155.3024
 20
145.325391699219
 30
0.0
 11
155.2964
 21
145.388391699219
 31
0.0
 0
LINE
 5
1D2
100
AcDbEntity
 8
Layer8
100
AcDbLine
 39
0.25
 370
106
 10
155.2964
 20
145.388391699219
 30
0.0
 11
155.2804
 21
145.443391699219
 31
0.0
 0
LINE
 5
1D3
100
AcDbEntity
 8
Layer8
100
AcDbLine
 39
0.25
 370
106
 10
153.7524
 20
145.443391699219
 30
0.0
 11
155.2804
 21
145.443391699219
 31
0.0
 0
LINE
 5
1D4
100
AcDbEntity
 8
Layer8
100
AcDbLine
 39
0.25
 370
106
 10
140.6314
 20
143.839391699219
 30
0.0
 11
148.8194
 21
144.101391699219
 31
0.0
 0
LINE
 5
1D5
100
AcDbEntity
 8
Layer8
100
AcDbLine
 39
0.25
 370
106
 10
148.8194
 20
144.101391699219
 30
0.0
 11
153.7344
 21
144.028391699219
 31
0.0
 0
LINE
 5
1D6
100
AcDbEntity
 8
Layer8
100
AcDbLine
 39
0.25
 370
106
 10
153.7344
 20
144.028391699219
 30
0.0
 11
154.9064
 21
144.386391699219
 31
0.0
 0
LINE
 5
1D7
100
AcDbEntity
 8
Layer8
100
AcDbLine
 39
0.25
 370
106
 10
154.9064
 20
144.386391699219
 30
0.0
 11
153.3784
 21
144.386391699219
 31
0.0
 0
LINE
 5
1D8
100
AcDbEntity
 8
Layer8
100
AcDbLine
 39
0.25
 370
106
 10
140.6314
 20
143.839391699219
 30
0.0
 11
132.4424
 21
144.101391699219
 31
0.0
 0
LINE
 5
1D9
100
AcDbEntity
 8
Layer8
100
AcDbLine
 39
0.25
 370
106
 10
132.4424
 20
144.101391699219
 30
0.0
 11
127.5254
 21
144.028391699219
 31
0.0
 0
LINE
 5
1DA
100
AcDbEntity
 8
Layer8
100
AcDbLine
 39
0.25
 370
106
 10
126.3554
 20
144.386391699219
 30
0.0
 11
127.8834
 21
144.386391699219
 31
0.0
 0
LINE
 5
1DB
100
AcDbEntity
 8
Layer8
100
AcDbLine
 39
0.25
 370
106
 10
127.5254
 20
144.028391699219
 30
0.0
 11
126.3554
 21
144.386391699219
 31
0.0
 0
LINE
 5
1DC
100
AcDbEntity
 8
Layer8
100
AcDbLine
 39
0.25
 370
106
 10
127.8834
 20
144.386391699219
 30
0.0
 11
127.8574
 21
144.400391699219
 31
0.0
 0
LINE
 5
1DD
100
AcDbEntity
 8
Layer8
100
AcDbLine
 39
0.25
 370
106
 10
127.8574
 20
144.400391699219
 30
0.0
 11
127.8244
 21
144.451391699219
 31
0.0
 0
LINE
 5
1DE
100
AcDbEntity
 8
Layer8
100
AcDbLine
 39
0.25
 370
106
 10
127.8834
 20
144.386391699219
 30
0.0
 11
135.5044
 21
144.388391699219
 31
0.0
 0
LINE
 5
1DF
100
AcDbEntity
 8
Layer8
100
AcDbLine
 39
0.25
 370
106
 10
153.3784
 20
144.386391699219
 30
0.0
 11
153.4104
 21
144.408391699219
 31
0.0
 0
LINE
 5
1E0
100
AcDbEntity
 8
Layer8
100
AcDbLine
 39
0.25
 370
106
 10
153.4104
 20
144.408391699219
 30
0.0
 11
153.4364
 21
144.451391699219
 31
0.0
 0
LINE
 5
1E1
100
AcDbEntity
 8
Layer8
100
AcDbLine
 39
0.25
 370
106
 10
153.3784
 20
144.386391699219
 30
0.0
 11
145.7574
 21
144.388391699219
 31
0.0
 0
LINE
 5
1E2
100
AcDbEntity
 8
Layer8
100
AcDbLine
 39
0.25
 370
106
 10
127.8914
 20
146.254391699219
 30
0.0
 11
137.5064
 21
146.254391699219
 31
0.0
 0
LINE
 5
1E3
100
AcDbEntity
 8
Layer8
100
AcDbLine
 39
0.25
 370
106
 10
127.8204
 20
146.187391699219
 30
0.0
 11
127.8514
 21
146.236391699219
 31
0.0
 0
LINE
 5
1E4
100
AcDbEntity
 8
Layer8
100
AcDbLine
 39
0.25
 370
106
 10
127.8514
 20
146.236391699219
 30
0.0
 11
127.8914
 21
146.254391699219
 31
0.0
 0
LINE
 5
1E5
100
AcDbEntity
 8
Layer8
100
AcDbLine
 39
0.25
 370
106
 10
153.3714
 20
146.254391699219
 30
0.0
 11
143.7534
 21
146.254391699219
 31
0.0
 0
LINE
 5
1E6
100
AcDbEntity
 8
Layer8
100
AcDbLine
 39
0.25
 370
106
 10
153.4404
 20
146.187391699219
 30
0.0
 11
153.4104
 21
146.236391699219
 31
0.0
 0
LINE
 5
1E7
100
AcDbEntity
 8
Layer8
100
AcDbLine
 39
0.25
 370
106
 10
153.4104
 20
146.236391699219
 30
0.0
 11
153.3714
 21
146.254391699219
 31
0.0
 0
LINE
 5
1E8
100
AcDbEntity
 8
Layer8
100
AcDbLine
 39
0.25
 370
106
 10
135.5044
 20
144.388391699219
 30
0.0
 11
135.4454
 21
144.410391699219
 31
0.0
 0
LINE
 5
1E9
100
AcDbEntity
 8
Layer8
100
AcDbLine
 39
0.25
 370
106
 10
135.4454
 20
144.410391699219
 30
0.0
 11
135.3954
 21
144.453391699219
 31
0.0
 0
LINE
 5
1EA
100
AcDbEntity
 8
Layer8
100
AcDbLine
 39
0.25
 370
106
 10
145.8644
 20
144.453391699219
 30
0.0
 11
153.4364
 21
144.451391699219
 31
0.0
 0
LINE
 5
1EB
100
AcDbEntity
 8
Layer8
100
AcDbLine
 39
0.25
 370
106
 10
135.3954
 20
144.453391699219
 30
0.0
 11
127.8244
 21
144.451391699219
 31
0.0
 0
LINE
 5
1EC
100
AcDbEntity
 8
Layer8
100
AcDbLine
 39
0.25
 370
106
 10
135.3954
 20
144.453391699219
 30
0.0
 11
138.1704
 21
144.451391699219
 31
0.0
 0
LINE
 5
1ED
100
AcDbEntity
 8
Layer8
100
AcDbLine
 39
0.25
 370
106
 10
127.5074
 20
145.443391699219
 30
0.0
 11
137.5384
 21
145.443391699219
 31
0.0
 0
LINE
 5
1EE
100
AcDbEntity
 8
Layer8
100
AcDbLine
 39
0.25
 370
106
 10
127.5074
 20
145.204391699219
 30
0.0
 11
127.4864
 21
145.325391699219
 31
0.0
 0
LINE
 5
1EF
100
AcDbEntity
 8
Layer8
100
AcDbLine
 39
0.25
 370
106
 10
127.4864
 20
145.325391699219
 30
0.0
 11
127.4924
 21
145.388391699219
 31
0.0
 0
LINE
 5
1F0
100
AcDbEntity
 8
Layer8
100
AcDbLine
 39
0.25
 370
106
 10
127.4924
 20
145.388391699219
 30
0.0
 11
127.5074
 21
145.443391699219
 31
0.0
 0
LINE
 5
1F1
100
AcDbEntity
 8
Layer8
100
AcDbLine
 39
0.25
 370
106
 10
137.5384
 20
145.204391699219
 30
0.0
 11
127.5074
 21
145.204391699219
 31
0.0
 0
LINE
 5
1F2
100
AcDbEntity
 8
Layer8
100
AcDbLine
 39
0.25
 370
106
 10
145.7574
 20
144.388391699219
 30
0.0
 11
145.8174
 21
144.410391699219
 31
0.0
 0
LINE
 5
1F3
100
AcDbEntity
 8
Layer8
100
AcDbLine
 39
0.25
 370
106
 10
145.8174
 20
144.410391699219
 30
0.0
 11
145.8644
 21
144.453391699219
 31
0.0
 0
LINE
 5
1F4
100
AcDbEntity
 8
Layer8
100
AcDbLine
 39
0.25
 370
106
 10
145.8644
 20
144.453391699219
 30
0.0
 11
143.0894
 21
144.451391699219
 31
0.0
 0
LINE
 5
1F5
100
AcDbEntity
 8
Layer8
100
AcDbLine
 39
0.25
 370
106
 10
143.7224
 20
145.204391699219
 30
0.0
 11
153.7524
 21
145.204391699219
 31
0.0
 0
LINE
 5
1F6
100
AcDbEntity
 8
Layer8
100
AcDbLine
 39
0.25
 370
106
 10
153.7524
 20
145.204391699219
 30
0.0
 11
153.7744
 21
145.325391699219
 31
0.0
 0
LINE
 5
1F7
100
AcDbEntity
 8
Layer8
100
AcDbLine
 39
0.25
 370
106
 10
153.7744
 20
145.325391699219
 30
0.0
 11
153.7524
 21
145.443391699219
 31
0.0
 0
LINE
 5
1F8
100
AcDbEntity
 8
Layer8
100
AcDbLine
 39
0.25
 370
106
 10
153.7524
 20
145.443391699219
 30
0.0
 11
143.7224
 21
145.443391699219
 31
0.0
 0
LINE
 5
1F9
100
AcDbEntity
 8
Layer8
100
AcDbLine
 39
0.25
 370
106
 10
143.7654
 20
145.327391699219
 30
0.0
 11
143.7554
 21
145.388391699219
 31
0.0
 0
LINE
 5
1FA
100
AcDbEntity
 8
Layer8
100
AcDbLine
 39
0.25
 370
106
 10
143.7554
 20
145.388391699219
 30
0.0
 11
143.7224
 21
145.443391699219
 31
0.0
 0
LINE
 5
1FB
100
AcDbEntity
 8
Layer8
100
AcDbLine
 39
0.25
 370
106
 10
137.4944
 20
145.327391699219
 30
0.0
 11
137.5064
 21
145.388391699219
 31
0.0
 0
LINE
 5
1FC
100
AcDbEntity
 8
Layer8
100
AcDbLine
 39
0.25
 370
106
 10
137.5064
 20
145.388391699219
 30
0.0
 11
137.5384
 21
145.443391699219
 31
0.0
 0
LINE
 5
1FD
100
AcDbEntity
 8
Layer8
100
AcDbLine
 39
0.25
 370
106
 10
142.9734
 20
144.386391699219
 30
0.0
 11
143.0424
 21
144.410391699219
 31
0.0
 0
LINE
 5
1FE
100
AcDbEntity
 8
Layer8
100
AcDbLine
 39
0.25
 370
106
 10
145.7574
 20
144.388391699219
 30
0.0
 11
140.6314
 21
143.839391699219
 31
0.0
 0
LINE
 5
1FF
100
AcDbEntity
 8
Layer8
100
AcDbLine
 39
0.25
 370
106
 10
140.6314
 20
143.839391699219
 30
0.0
 11
140.6314
 21
143.963391699219
 31
0.0
 0
LINE
 5
200
100
AcDbEntity
 8
Layer8
100
AcDbLine
 39
0.25
 370
106
 10
135.5044
 20
144.388391699219
 30
0.0
 11
140.6314
 21
143.839391699219
 31
0.0
 0
LINE
 5
201
100
AcDbEntity
 8
Layer8
100
AcDbLine
 39
0.25
 370
106
 10
137.4944
 20
211.242391699219
 30
0.0
 11
137.5064
 21
211.273391699219
 31
0.0
 0
LINE
 5
202
100
AcDbEntity
 8
Layer8
100
AcDbLine
 39
0.25
 370
106
 10
137.5064
 20
211.273391699219
 30
0.0
 11
137.5384
 21
211.303391699219
 31
0.0
 0
LINE
 5
203
100
AcDbEntity
 8
Layer8
100
AcDbLine
 39
0.25
 370
106
 10
143.7224
 20
211.303391699219
 30
0.0
 11
143.7554
 21
211.273391699219
 31
0.0
 0
LINE
 5
204
100
AcDbEntity
 8
Layer8
100
AcDbLine
 39
0.25
 370
106
 10
143.7554
 20
211.273391699219
 30
0.0
 11
143.7654
 21
211.242391699219
 31
0.0
 0
LINE
 5
205
100
AcDbEntity
 8
Layer8
100
AcDbLine
 39
0.25
 370
106
 10
143.7654
 20
206.467391699219
 30
0.0
 11
143.7554
 21
206.498391699219
 31
0.0
 0
LINE
 5
206
100
AcDbEntity
 8
Layer8
100
AcDbLine
 39
0.25
 370
106
 10
143.7554
 20
206.498391699219
 30
0.0
 11
143.7224
 21
206.528391699219
 31
0.0
 0
LINE
 5
207
100
AcDbEntity
 8
Layer8
100
AcDbLine
 39
0.25
 370
106
 10
137.5384
 20
206.528391699219
 30
0.0
 11
137.5064
 21
206.498391699219
 31
0.0
 0
LINE
 5
208
100
AcDbEntity
 8
Layer8
100
AcDbLine
 39
0.25
 370
106
 10
137.5064
 20
206.498391699219
 30
0.0
 11
137.4944
 21
206.467391699219
 31
0.0
 0
LINE
 5
209
100
AcDbEntity
 8
Layer8
100
AcDbLine
 39
0.25
 370
106
 10
138.1724
 20
211.694391699219
 30
0.0
 11
137.5384
 21
211.303391699219
 31
0.0
 0
LINE
 5
20A
100
AcDbEntity
 8
Layer8
100
AcDbLine
 39
0.25
 370
106
 10
137.5384
 20
211.303391699219
 30
0.0
 11
137.5384
 21
206.528391699219
 31
0.0
 0
LINE
 5
20B
100
AcDbEntity
 8
Layer8
100
AcDbLine
 39
0.25
 370
106
 10
143.7224
 20
211.303391699219
 30
0.0
 11
143.0874
 21
211.694391699219
 31
0.0
 0
LINE
 5
20C
100
AcDbEntity
 8
Layer8
100
AcDbLine
 39
0.25
 370
106
 10
143.7224
 20
206.528391699219
 30
0.0
 11
143.7224
 21
211.303391699219
 31
0.0
 0
LINE
 5
20D
100
AcDbEntity
 8
Layer8
100
AcDbLine
 39
0.25
 370
106
 10
142.9754
 20
211.728391699219
 30
0.0
 11
143.0874
 21
211.694391699219
 31
0.0
 0
LINE
 5
20E
100
AcDbEntity
 8
Layer8
100
AcDbLine
 39
0.25
 370
106
 10
143.0874
 20
211.694391699219
 30
0.0
 11
143.0874
 21
206.919391699219
 31
0.0
 0
LINE
 5
20F
100
AcDbEntity
 8
Layer8
100
AcDbLine
 39
0.25
 370
106
 10
138.1724
 20
211.694391699219
 30
0.0
 11
138.2234
 21
211.716391699219
 31
0.0
 0
LINE
 5
210
100
AcDbEntity
 8
Layer8
100
AcDbLine
 39
0.25
 370
106
 10
138.2234
 20
211.716391699219
 30
0.0
 11
138.2874
 21
211.728391699219
 31
0.0
 0
LINE
 5
211
100
AcDbEntity
 8
Layer8
100
AcDbLine
 39
0.25
 370
106
 10
138.1724
 20
206.919391699219
 30
0.0
 11
138.1724
 21
211.694391699219
 31
0.0
 0
LINE
 5
212
100
AcDbEntity
 8
Layer8
100
AcDbLine
 39
0.25
 370
106
 10
140.6314
 20
211.914391699219
 30
0.0
 11
138.2874
 21
211.728391699219
 31
0.0
 0
LINE
 5
213
100
AcDbEntity
 8
Layer8
100
AcDbLine
 39
0.25
 370
106
 10
138.2874
 20
211.728391699219
 30
0.0
 11
138.2874
 21
206.953391699219
 31
0.0
 0
LINE
 5
214
100
AcDbEntity
 8
Layer8
100
AcDbLine
 39
0.25
 370
106
 10
142.9754
 20
206.953391699219
 30
0.0
 11
142.9754
 21
211.728391699219
 31
0.0
 0
LINE
 5
215
100
AcDbEntity
 8
Layer8
100
AcDbLine
 39
0.25
 370
106
 10
142.9754
 20
211.728391699219
 30
0.0
 11
140.6314
 21
211.914391699219
 31
0.0
 0
LINE
 5
216
100
AcDbEntity
 8
Layer8
100
AcDbLine
 39
0.25
 370
106
 10
143.7224
 20
145.204391699219
 30
0.0
 11
143.0874
 21
144.449391699219
 31
0.0
 0
LINE
 5
217
100
AcDbEntity
 8
Layer8
100
AcDbLine
 39
0.25
 370
106
 10
138.1724
 20
144.449391699219
 30
0.0
 11
137.5384
 21
145.204391699219
 31
0.0
 0
LINE
 5
218
100
AcDbEntity
 8
Layer8
100
AcDbLine
 39
0.25
 370
106
 10
137.5384
 20
206.528391699219
 30
0.0
 11
137.5064
 21
206.498391699219
 31
0.0
 0
LINE
 5
219
100
AcDbEntity
 8
Layer8
100
AcDbLine
 39
0.25
 370
106
 10
137.5064
 20
206.498391699219
 30
0.0
 11
137.4944
 21
206.465391699219
 31
0.0
 0
LINE
 5
21A
100
AcDbEntity
 8
Layer8
100
AcDbLine
 39
0.25
 370
106
 10
137.5384
 20
145.204391699219
 30
0.0
 11
137.5064
 21
145.262391699219
 31
0.0
 0
LINE
 5
21B
100
AcDbEntity
 8
Layer8
100
AcDbLine
 39
0.25
 370
106
 10
137.5064
 20
145.262391699219
 30
0.0
 11
137.4944
 21
145.327391699219
 31
0.0
 0
LINE
 5
21C
100
AcDbEntity
 8
Layer8
100
AcDbLine
 39
0.25
 370
106
 10
137.5384
 20
206.528391699219
 30
0.0
 11
137.5384
 21
145.204391699219
 31
0.0
 0
LINE
 5
21D
100
AcDbEntity
 8
Layer8
100
AcDbLine
 39
0.25
 370
106
 10
143.7654
 20
206.467391699219
 30
0.0
 11
143.7554
 21
206.498391699219
 31
0.0
 0
LINE
 5
21E
100
AcDbEntity
 8
Layer8
100
AcDbLine
 39
0.25
 370
106
 10
143.7554
 20
206.498391699219
 30
0.0
 11
143.7224
 21
206.528391699219
 31
0.0
 0
LINE
 5
21F
100
AcDbEntity
 8
Layer8
100
AcDbLine
 39
0.25
 370
106
 10
143.7224
 20
145.204391699219
 30
0.0
 11
143.7224
 21
206.528391699219
 31
0.0
 0
LINE
 5
220
100
AcDbEntity
 8
Layer8
100
AcDbLine
 39
0.25
 370
106
 10
143.7654
 20
145.327391699219
 30
0.0
 11
143.7554
 21
145.262391699219
 31
0.0
 0
LINE
 5
221
100
AcDbEntity
 8
Layer8
100
AcDbLine
 39
0.25
 370
106
 10
143.7554
 20
145.262391699219
 30
0.0
 11
143.7224
 21
145.204391699219
 31
0.0
 0
LINE
 5
222
100
AcDbEntity
 8
Layer8
100
AcDbLine
 39
0.25
 370
106
 10
142.9754
 20
144.386391699219
 30
0.0
 11
140.6314
 21
144.024391699219
 31
0.0
 0
LINE
 5
223
100
AcDbEntity
 8
Layer8
100
AcDbLine
 39
0.25
 370
106
 10
140.6314
 20
144.024391699219
 30
0.0
 11
138.2874
 21
144.386391699219
 31
0.0
 0
LINE
 5
224
100
AcDbEntity
 8
Layer8
100
AcDbLine
 39
0.25
 370
106
 10
138.1724
 20
144.449391699219
 30
0.0
 11
138.2374
 21
144.400391699219
 31
0.0
 0
LINE
 5
225
100
AcDbEntity
 8
Layer8
100
AcDbLine
 39
0.25
 370
106
 10
138.2374
 20
144.400391699219
 30
0.0
 11
138.2874
 21
144.386391699219
 31
0.0
 0
LINE
 5
226
100
AcDbEntity
 8
Layer8
100
AcDbLine
 39
0.25
 370
106
 10
138.2874
 20
206.953391699219
 30
0.0
 11
138.2874
 21
144.386391699219
 31
0.0
 0
LINE
 5
227
100
AcDbEntity
 8
Layer8
100
AcDbLine
 39
0.25
 370
106
 10
138.2874
 20
206.953391699219
 30
0.0
 11
138.2084
 21
206.937391699219
 31
0.0
 0
LINE
 5
228
100
AcDbEntity
 8
Layer8
100
AcDbLine
 39
0.25
 370
106
 10
138.2084
 20
206.937391699219
 30
0.0
 11
138.1724
 21
206.919391699219
 31
0.0
 0
LINE
 5
229
100
AcDbEntity
 8
Layer8
100
AcDbLine
 39
0.25
 370
106
 10
138.1724
 20
144.449391699219
 30
0.0
 11
138.1724
 21
206.919391699219
 31
0.0
 0
LINE
 5
22A
100
AcDbEntity
 8
Layer8
100
AcDbLine
 39
0.25
 370
106
 10
142.9754
 20
144.386391699219
 30
0.0
 11
143.0384
 21
144.408391699219
 31
0.0
 0
LINE
 5
22B
100
AcDbEntity
 8
Layer8
100
AcDbLine
 39
0.25
 370
106
 10
143.0384
 20
144.408391699219
 30
0.0
 11
143.0874
 21
144.449391699219
 31
0.0
 0
LINE
 5
22C
100
AcDbEntity
 8
Layer8
100
AcDbLine
 39
0.25
 370
106
 10
143.0874
 20
206.919391699219
 30
0.0
 11
143.0874
 21
144.449391699219
 31
0.0
 0
LINE
 5
22D
100
AcDbEntity
 8
Layer8
100
AcDbLine
 39
0.25
 370
106
 10
143.0874
 20
206.919391699219
 30
0.0
 11
143.0524
 21
206.937391699219
 31
0.0
 0
LINE
 5
22E
100
AcDbEntity
 8
Layer8
100
AcDbLine
 39
0.25
 370
106
 10
143.0524
 20
206.937391699219
 30
0.0
 11
142.9754
 21
206.953391699219
 31
0.0
 0
LINE
 5
22F
100
AcDbEntity
 8
Layer8
100
AcDbLine
 39
0.25
 370
106
 10
142.9754
 20
144.386391699219
 30
0.0
 11
142.9754
 21
206.953391699219
 31
0.0
 0
LINE
 5
230
100
AcDbEntity
 8
Layer8
100
AcDbLine
 39
0.25
 370
106
 10
68.1274
 20
205.996391699219
 30
0.0
 11
70.5834
 21
210.759391699219
 31
0.0
 0
LINE
 5
231
100
AcDbEntity
 8
Layer8
100
AcDbLine
 39
0.25
 370
106
 10
67.6524
 20
205.986391699219
 30
0.0
 11
70.1314
 21
210.754391699219
 31
0.0
 0
LINE
 5
232
100
AcDbEntity
 8
Layer8
100
AcDbLine
 39
0.25
 370
106
 10
66.2214
 20
205.986391699219
 30
0.0
 11
68.7064
 21
210.759391699219
 31
0.0
 0
LINE
 5
233
100
AcDbEntity
 8
Layer8
100
AcDbLine
 39
0.25
 370
106
 10
65.7734
 20
205.986391699219
 30
0.0
 11
65.7194
 21
205.994391699219
 31
0.0
 0
LINE
 5
234
100
AcDbEntity
 8
Layer8
100
AcDbLine
 39
0.25
 370
106
 10
65.7194
 20
205.994391699219
 30
0.0
 11
65.6524
 21
206.020391699219
 31
0.0
 0
LINE
 5
235
100
AcDbEntity
 8
Layer8
100
AcDbLine
 39
0.25
 370
106
 10
68.2574
 20
210.759391699219
 30
0.0
 11
65.7734
 21
205.986391699219
 31
0.0
 0
LINE
 5
236
100
AcDbEntity
 8
Layer8
100
AcDbLine
 39
0.25
 370
106
 10
66.8564
 20
211.694391699219
 30
0.0
 11
64.3714
 21
206.919391699219
 31
0.0
 0
LINE
 5
237
100
AcDbEntity
 8
Layer8
100
AcDbLine
 39
0.25
 370
106
 10
64.6134
 20
206.528391699219
 30
0.0
 11
67.0994
 21
211.303391699219
 31
0.0
 0
LINE
 5
238
100
AcDbEntity
 8
Layer8
100
AcDbLine
 39
0.25
 370
106
 10
64.7904
 20
206.405391699219
 30
0.0
 11
64.6134
 21
206.528391699219
 31
0.0
 0
LINE
 5
239
100
AcDbEntity
 8
Layer8
100
AcDbLine
 39
0.25
 370
106
 10
65.6524
 20
206.020391699219
 30
0.0
 11
68.1364
 21
210.795391699219
 31
0.0
 0
LINE
 5
23A
100
AcDbEntity
 8
Layer8
100
AcDbLine
 39
0.25
 370
106
 10
67.2754
 20
211.180391699219
 30
0.0
 11
64.7904
 21
206.403391699219
 31
0.0
 0
LINE
 5
23B
100
AcDbEntity
 8
Layer8
100
AcDbLine
 39
0.25
 370
106
 10
66.8664
 20
211.728391699219
 30
0.0
 11
66.9194
 21
211.738391699219
 31
0.0
 0
LINE
 5
23C
100
AcDbEntity
 8
Layer8
100
AcDbLine
 39
0.25
 370
106
 10
66.8664
 20
211.728391699219
 30
0.0
 11
66.8504
 21
211.716391699219
 31
0.0
 0
LINE
 5
23D
100
AcDbEntity
 8
Layer8
100
AcDbLine
 39
0.25
 370
106
 10
66.8504
 20
211.716391699219
 30
0.0
 11
66.8564
 21
211.694391699219
 31
0.0
 0
LINE
 5
23E
100
AcDbEntity
 8
Layer8
100
AcDbLine
 39
0.25
 370
106
 10
67.0994
 20
211.303391699219
 30
0.0
 11
66.8564
 21
211.694391699219
 31
0.0
 0
LINE
 5
23F
100
AcDbEntity
 8
Layer8
100
AcDbLine
 39
0.25
 370
106
 10
67.0994
 20
211.303391699219
 30
0.0
 11
67.2754
 21
211.180391699219
 31
0.0
 0
LINE
 5
240
100
AcDbEntity
 8
Layer8
100
AcDbLine
 39
0.25
 370
106
 10
68.1364
 20
210.795391699219
 30
0.0
 11
67.2754
 21
211.180391699219
 31
0.0
 0
LINE
 5
241
100
AcDbEntity
 8
Layer8
100
AcDbLine
 39
0.25
 370
106
 10
68.1364
 20
210.795391699219
 30
0.0
 11
68.2574
 21
210.759391699219
 31
0.0
 0
LINE
 5
242
100
AcDbEntity
 8
Layer8
100
AcDbLine
 39
0.25
 370
106
 10
68.7064
 20
210.759391699219
 30
0.0
 11
68.2574
 21
210.759391699219
 31
0.0
 0
LINE
 5
243
100
AcDbEntity
 8
Layer8
100
AcDbLine
 39
0.25
 370
106
 10
68.6744
 20
210.809391699219
 30
0.0
 11
68.7064
 21
210.759391699219
 31
0.0
 0
LINE
 5
244
100
AcDbEntity
 8
Layer8
100
AcDbLine
 39
0.25
 370
106
 10
70.5834
 20
210.759391699219
 30
0.0
 11
70.1354
 21
210.759391699219
 31
0.0
 0
LINE
 5
245
100
AcDbEntity
 8
Layer8
100
AcDbLine
 39
0.25
 370
106
 10
70.5834
 20
210.759391699219
 30
0.0
 11
70.6114
 21
210.769391699219
 31
0.0
 0
LINE
 5
246
100
AcDbEntity
 8
Layer8
100
AcDbLine
 39
0.25
 370
106
 10
70.6114
 20
210.769391699219
 30
0.0
 11
70.6074
 21
210.795391699219
 31
0.0
 0
LINE
 5
247
100
AcDbEntity
 8
Layer8
100
AcDbLine
 39
0.25
 370
106
 10
70.5774
 20
210.840391699219
 30
0.0
 11
70.6074
 21
210.795391699219
 31
0.0
 0
ARC
 5
248
100
AcDbEntity
 8
Layer8
100
AcDbCircle
 39
0.25
 370
106
 10
108.363837132673
 20
230.733740526047
 30
0.0
 40
84.2674133346172
100
AcDbArc
 50
-108.966673414775
 51
-89.7120065054066
 0
ARC
 5
249
100
AcDbEntity
 8
Layer8
100
AcDbCircle
 39
0.25
 370
106
 10
92.0206665598708
 20
186.64857490547
 30
0.0
 40
37.2809523652783
100
AcDbArc
 50
-139.489607749454
 51
-107.23377019851
 0
ARC
 5
24A
100
AcDbEntity
 8
Layer8
100
AcDbCircle
 39
0.25
 370
106
 10
81.3879085816435
 20
176.592281168086
 30
0.0
 40
22.676603069841
100
AcDbArc
 50
169.15385402414
 51
-141.356601804011
 0
ARC
 5
24B
100
AcDbEntity
 8
Layer8
100
AcDbCircle
 39
0.25
 370
106
 10
138.671774531697
 20
167.846697605114
 30
0.0
 40
80.6125785747194
100
AcDbArc
 50
151.762767595822
 51
170.710519854579
 0
LINE
 5
24C
100
AcDbEntity
 8
Layer8
100
AcDbLine
 39
0.25
 370
106
 10
120.1224
 20
146.254391699219
 30
0.0
 11
118.7564
 21
146.262391699219
 31
0.0
 0
LINE
 5
24D
100
AcDbEntity
 8
Layer8
100
AcDbLine
 39
0.25
 370
106
 10
67.6524
 20
205.986391699219
 30
0.0
 11
67.6484
 21
205.988391699219
 31
0.0
 0
ARC
 5
24E
100
AcDbEntity
 8
Layer8
100
AcDbCircle
 39
0.25
 370
106
 10
106.911174791737
 20
230.630665253843
 30
0.0
 40
84.1622442925284
100
AcDbArc
 50
-108.974246162842
 51
-89.7248114324169
 0
ARC
 5
24F
100
AcDbEntity
 8
Layer8
100
AcDbCircle
 39
0.25
 370
106
 10
90.6395274083074
 20
186.726251031188
 30
0.0
 40
37.3693278135872
100
AcDbArc
 50
-139.448720589888
 51
-107.268572833017
 0
ARC
 5
250
100
AcDbEntity
 8
Layer8
100
AcDbCircle
 39
0.25
 370
106
 10
79.965063136899
 20
176.591881094594
 30
0.0
 40
22.6827229759068
100
AcDbArc
 50
169.155786869752
 51
-141.370254049425
 0
ARC
 5
251
100
AcDbEntity
 8
Layer8
100
AcDbCircle
 39
0.25
 370
106
 10
137.37821104822
 20
167.806351583586
 30
0.0
 40
80.7527536483027
100
AcDbArc
 50
151.783684089428
 51
170.69778084348
 0
LINE
 5
252
100
AcDbEntity
 8
Layer8
100
AcDbLine
 39
0.25
 370
106
 10
118.6934
 20
146.254391699219
 30
0.0
 11
107.4114
 21
146.465391699219
 31
0.0
 0
ARC
 5
253
100
AcDbEntity
 8
Layer8
100
AcDbCircle
 39
0.25
 370
106
 10
106.194839693141
 20
228.921884628454
 30
0.0
 40
84.3580017238244
100
AcDbArc
 50
-104.255213554782
 51
-95.6201609338245
 0
LINE
 5
254
100
AcDbEntity
 8
Layer8
100
AcDbLine
 39
0.25
 370
106
 10
119.4084
 20
144.024391699219
 30
0.0
 11
107.9874
 21
144.240391699219
 31
0.0
 0
LINE
 5
255
100
AcDbEntity
 8
Layer8
100
AcDbLine
 39
0.25
 370
106
 10
107.9874
 20
144.240391699219
 30
0.0
 11
97.9334
 21
144.969391699219
 31
0.0
 0
LINE
 5
256
100
AcDbEntity
 8
Layer8
100
AcDbLine
 39
0.25
 370
106
 10
85.4224
 20
147.161391699219
 30
0.0
 11
81.7384
 21
148.234391699219
 31
0.0
 0
LINE
 5
257
100
AcDbEntity
 8
Layer8
100
AcDbLine
 39
0.25
 370
106
 10
98.7274
 20
145.924391699219
 30
0.0
 11
93.5814
 21
146.511391699219
 31
0.0
 0
ARC
 5
258
100
AcDbEntity
 8
Layer8
100
AcDbCircle
 39
0.25
 370
106
 10
113.637858536685
 20
174.331348334316
 30
0.0
 40
54.4491788315855
100
AcDbArc
 50
163.427947177579
 51
175.953732301794
 0
LINE
 5
259
100
AcDbEntity
 8
Layer8
100
AcDbLine
 39
0.25
 370
106
 10
65.0434
 20
199.599391699219
 30
0.0
 11
62.6464
 21
193.596391699219
 31
0.0
 0
LINE
 5
25A
100
AcDbEntity
 8
Layer8
100
AcDbLine
 39
0.25
 370
106
 10
62.6464
 20
193.596391699219
 30
0.0
 11
61.4504
 21
189.861391699219
 31
0.0
 0
LINE
 5
25B
100
AcDbEntity
 8
Layer8
100
AcDbLine
 39
0.25
 370
106
 10
59.3244
 20
178.173391699219
 30
0.0
 11
59.2354
 21
174.194391699219
 31
0.0
 0
LINE
 5
25C
100
AcDbEntity
 8
Layer8
100
AcDbLine
 39
0.25
 370
106
 10
59.2354
 20
174.194391699219
 30
0.0
 11
59.3894
 21
172.473391699219
 31
0.0
 0
LINE
 5
25D
100
AcDbEntity
 8
Layer8
100
AcDbLine
 39
0.25
 370
106
 10
59.3894
 20
172.473391699219
 30
0.0
 11
59.7054
 21
170.775391699219
 31
0.0
 0
LINE
 5
25E
100
AcDbEntity
 8
Layer8
100
AcDbLine
 39
0.25
 370
106
 10
59.7054
 20
170.775391699219
 30
0.0
 11
60.5334
 21
168.265391699219
 31
0.0
 0
LINE
 5
25F
100
AcDbEntity
 8
Layer8
100
AcDbLine
 39
0.25
 370
106
 10
68.1274
 20
205.994391699219
 30
0.0
 11
68.1014
 21
205.986391699219
 31
0.0
 0
ARC
 5
260
100
AcDbEntity
 8
Layer8
100
AcDbCircle
 39
0.25
 370
106
 10
116.633951772876
 20
297.394312864061
 30
0.0
 40
151.191174988356
100
AcDbArc
 50
-99.0238051388024
 51
-88.5080653060721
 0
ARC
 5
261
100
AcDbEntity
 8
Layer8
100
AcDbCircle
 39
0.25
 370
106
 10
101.546823084128
 20
205.565622349425
 30
0.0
 40
58.1348155316721
100
AcDbArc
 50
-115.099638556249
 51
-98.5334347127157
 0
ARC
 5
262
100
AcDbEntity
 8
Layer8
100
AcDbCircle
 39
0.25
 370
106
 10
93.6159103005392
 20
188.921867094302
 30
0.0
 40
39.6986491649102
100
AcDbArc
 50
-133.178056828863
 51
-114.923801946045
 0
ARC
 5
263
100
AcDbEntity
 8
Layer8
100
AcDbCircle
 39
0.25
 370
106
 10
99.8043915370132
 20
175.820433112965
 30
0.0
 40
44.5410862168026
100
AcDbArc
 50
166.208716605786
 51
-176.520783435861
 0
LINE
 5
264
100
AcDbEntity
 8
Layer8
100
AcDbLine
 39
0.25
 370
106
 10
55.3454
 20
173.117391699219
 30
0.0
 11
55.5694
 21
171.388391699219
 31
0.0
 0
LINE
 5
265
100
AcDbEntity
 8
Layer8
100
AcDbLine
 39
0.25
 370
106
 10
55.5694
 20
171.388391699219
 30
0.0
 11
55.9524
 21
169.682391699219
 31
0.0
 0
LINE
 5
266
100
AcDbEntity
 8
Layer8
100
AcDbLine
 39
0.25
 370
106
 10
64.3714
 20
206.919391699219
 30
0.0
 11
64.3654
 21
206.943391699219
 31
0.0
 0
ARC
 5
267
100
AcDbEntity
 8
Layer8
100
AcDbCircle
 39
0.25
 370
106
 10
141.892419973996
 20
165.597185986257
 30
0.0
 40
87.8538215923594
100
AcDbArc
 50
151.917733330642
 51
166.351635480564
 0
ARC
 5
268
100
AcDbEntity
 8
Layer8
100
AcDbCircle
 39
0.25
 370
106
 10
113.942934688992
 20
292.46065280503
 30
0.0
 40
148.136435344407
100
AcDbArc
 50
-98.7247672161201
 51
-88.3399272756627
 0
ARC
 5
269
100
AcDbEntity
 8
Layer8
100
AcDbCircle
 39
0.25
 370
106
 10
99.5129082902176
 20
205.766706469936
 30
0.0
 40
60.2670835441278
100
AcDbArc
 50
-115.114957114904
 51
-97.6669533412059
 0
ARC
 5
26A
100
AcDbEntity
 8
Layer8
100
AcDbCircle
 39
0.25
 370
106
 10
88.9717036857713
 20
185.213220217774
 30
0.0
 40
37.191762092555
100
AcDbArc
 50
-139.934761345804
 51
-113.850089065609
 0
ARC
 5
26B
100
AcDbEntity
 8
Layer8
100
AcDbCircle
 39
0.25
 370
106
 10
75.7410089499519
 20
174.976191034589
 30
0.0
 40
20.4883303480034
100
AcDbArc
 50
-169.880604525305
 51
-138.028478484421
 0
LINE
 5
26C
100
AcDbEntity
 8
Layer8
100
AcDbLine
 39
0.25
 370
106
 10
64.7904
 20
206.403391699219
 30
0.0
 11
64.6134
 21
206.528391699219
 31
0.0
 0
ARC
 5
26D
100
AcDbEntity
 8
Layer8
100
AcDbCircle
 39
0.25
 370
106
 10
113.287465532578
 20
287.475067520871
 30
0.0
 40
142.344181740111
100
AcDbArc
 50
-99.2537913337546
 51
-88.158602220478
 0
ARC
 5
26E
100
AcDbEntity
 8
Layer8
100
AcDbCircle
 39
0.25
 370
106
 10
96.1934090911183
 20
196.95542967496
 30
0.0
 40
50.3070402710519
100
AcDbArc
 50
-125.10723451985
 51
-96.6158924349769
 0
ARC
 5
26F
100
AcDbEntity
 8
Layer8
100
AcDbCircle
 39
0.25
 370
106
 10
81.6505976273113
 20
178.546917051394
 30
0.0
 40
26.9156724596466
100
AcDbArc
 50
-154.810846506912
 51
-122.316987785436
 0
ARC
 5
270
100
AcDbEntity
 8
Layer8
100
AcDbCircle
 39
0.25
 370
106
 10
78.7089623589398
 20
175.915021769427
 30
0.0
 40
23.1611728684193
100
AcDbArc
 50
173.10284108587
 51
-157.606439645362
 0
ARC
 5
271
100
AcDbEntity
 8
Layer8
100
AcDbCircle
 39
0.25
 370
106
 10
136.195920331882
 20
168.304815243589
 30
0.0
 40
81.1486229958562
100
AcDbArc
 50
151.898710633975
 51
172.642723629652
 0
ARC
 5
272
100
AcDbEntity
 8
Layer8
100
AcDbCircle
 39
0.25
 370
106
 10
128.430556461283
 20
170.502805541265
 30
0.0
 40
73.0679245695491
100
AcDbArc
 50
150.571853303942
 51
169.243884531101
 0
ARC
 5
273
100
AcDbEntity
 8
Layer8
100
AcDbCircle
 39
0.25
 370
106
 10
91.9640126782357
 20
176.163188307963
 30
0.0
 40
36.2070930320089
100
AcDbArc
 50
167.273701571934
 51
-174.553253916764
 0
ARC
 5
274
100
AcDbEntity
 8
Layer8
100
AcDbCircle
 39
0.25
 370
106
 10
79.9475294049237
 20
177.216305719111
 30
0.0
 40
24.4430414504204
100
AcDbArc
 50
-169.415301274965
 51
-130.872939984597
 0
ARC
 5
275
100
AcDbEntity
 8
Layer8
100
AcDbCircle
 39
0.25
 370
106
 10
97.0902141591443
 20
199.289766177346
 30
0.0
 40
52.3730296818511
100
AcDbArc
 50
-129.251581134542
 51
-103.25213014246
 0
ARC
 5
276
100
AcDbEntity
 8
Layer8
100
AcDbCircle
 39
0.25
 370
106
 10
115.407335848996
 20
306.127393032041
 30
0.0
 40
160.702740223009
100
AcDbArc
 50
-100.876320655894
 51
-89.1250119083901
 0
LINE
 5
277
100
AcDbEntity
 8
Layer8
100
AcDbLine
 39
0.25
 370
106
 10
118.2344
 20
144.386391699219
 30
0.0
 11
119.4084
 21
144.024391699219
 31
0.0
 0
LINE
 5
278
100
AcDbEntity
 8
Layer8
100
AcDbLine
 39
0.25
 370
106
 10
119.4084
 20
144.024391699219
 30
0.0
 11
127.4464
 21
144.024391699219
 31
0.0
 0
LINE
 5
279
100
AcDbEntity
 8
Layer8
100
AcDbLine
 39
0.25
 370
106
 10
118.2344
 20
144.386391699219
 30
0.0
 11
118.2104
 21
144.400391699219
 31
0.0
 0
LINE
 5
27A
100
AcDbEntity
 8
Layer8
100
AcDbLine
 39
0.25
 370
106
 10
118.2104
 20
144.400391699219
 30
0.0
 11
118.1774
 21
144.449391699219
 31
0.0
 0
LINE
 5
27B
100
AcDbEntity
 8
Layer8
100
AcDbLine
 39
0.25
 370
106
 10
126.2744
 20
144.386391699219
 30
0.0
 11
118.2344
 21
144.386391699219
 31
0.0
 0
LINE
 5
27C
100
AcDbEntity
 8
Layer8
100
AcDbLine
 39
0.25
 370
106
 10
118.1774
 20
144.449391699219
 30
0.0
 11
126.2174
 21
144.449391699219
 31
0.0
 0
LINE
 5
27D
100
AcDbEntity
 8
Layer8
100
AcDbLine
 39
0.25
 370
106
 10
127.4464
 20
144.024391699219
 30
0.0
 11
127.4924
 21
144.038391699219
 31
0.0
 0
LINE
 5
27E
100
AcDbEntity
 8
Layer8
100
AcDbLine
 39
0.25
 370
106
 10
126.3634
 20
146.254391699219
 30
0.0
 11
126.2844
 21
146.254391699219
 31
0.0
 0
LINE
 5
27F
100
AcDbEntity
 8
Layer8
100
AcDbLine
 39
0.25
 370
106
 10
126.2114
 20
146.187391699219
 30
0.0
 11
125.9014
 21
145.443391699219
 31
0.0
 0
LINE
 5
280
100
AcDbEntity
 8
Layer8
100
AcDbLine
 39
0.25
 370
106
 10
125.9014
 20
145.204391699219
 30
0.0
 11
126.2504
 21
144.400391699219
 31
0.0
 0
LINE
 5
281
100
AcDbEntity
 8
Layer8
100
AcDbLine
 39
0.25
 370
106
 10
126.2504
 20
144.400391699219
 30
0.0
 11
127.4464
 21
144.024391699219
 31
0.0
 0
LINE
 5
282
100
AcDbEntity
 8
Layer8
100
AcDbLine
 39
0.25
 370
106
 10
125.9014
 20
145.443391699219
 30
0.0
 11
125.8834
 21
145.388391699219
 31
0.0
 0
LINE
 5
283
100
AcDbEntity
 8
Layer8
100
AcDbLine
 39
0.25
 370
106
 10
125.8834
 20
145.388391699219
 30
0.0
 11
125.8794
 21
145.325391699219
 31
0.0
 0
LINE
 5
284
100
AcDbEntity
 8
Layer8
100
AcDbLine
 39
0.25
 370
106
 10
125.8794
 20
145.325391699219
 30
0.0
 11
125.8834
 21
145.262391699219
 31
0.0
 0
LINE
 5
285
100
AcDbEntity
 8
Layer8
100
AcDbLine
 39
0.25
 370
106
 10
125.8834
 20
145.262391699219
 30
0.0
 11
125.9014
 21
145.204391699219
 31
0.0
 0
LINE
 5
286
100
AcDbEntity
 8
Layer8
100
AcDbLine
 39
0.25
 370
106
 10
117.8614
 20
145.443391699219
 30
0.0
 11
125.9014
 21
145.443391699219
 31
0.0
 0
LINE
 5
287
100
AcDbEntity
 8
Layer8
100
AcDbLine
 39
0.25
 370
106
 10
117.8614
 20
145.443391699219
 30
0.0
 11
117.8454
 21
145.388391699219
 31
0.0
 0
LINE
 5
288
100
AcDbEntity
 8
Layer8
100
AcDbLine
 39
0.25
 370
106
 10
117.8454
 20
145.388391699219
 30
0.0
 11
117.8394
 21
145.325391699219
 31
0.0
 0
LINE
 5
289
100
AcDbEntity
 8
Layer8
100
AcDbLine
 39
0.25
 370
106
 10
117.8394
 20
145.325391699219
 30
0.0
 11
117.8454
 21
145.262391699219
 31
0.0
 0
LINE
 5
28A
100
AcDbEntity
 8
Layer8
100
AcDbLine
 39
0.25
 370
106
 10
117.8454
 20
145.262391699219
 30
0.0
 11
117.8614
 21
145.204391699219
 31
0.0
 0
LINE
 5
28B
100
AcDbEntity
 8
Layer8
100
AcDbLine
 39
0.25
 370
106
 10
125.9014
 20
145.204391699219
 30
0.0
 11
117.8614
 21
145.204391699219
 31
0.0
 0
LINE
 5
28C
100
AcDbEntity
 8
Layer8
100
AcDbLine
 39
0.25
 370
106
 10
118.2444
 20
146.254391699219
 30
0.0
 11
126.2844
 21
146.254391699219
 31
0.0
 0
ARC
 5
28D
100
AcDbEntity
 8
Layer8
100
AcDbCircle
 39
0.25
 370
106
 10
94.2438668982843
 20
193.452550557683
 30
0.0
 40
45.0381518310602
100
AcDbArc
 50
-131.633109480948
 51
-108.753261216297
 0
ARC
 5
28E
100
AcDbEntity
 8
Layer8
100
AcDbCircle
 39
0.25
 370
106
 10
109.017039803079
 20
247.671050303182
 30
0.0
 40
101.186326903531
100
AcDbArc
 50
-106.803888411594
 51
-92.6433773164287
 0
LINE
 5
28F
100
AcDbEntity
 8
Layer8
100
AcDbLine
 39
0.25
 370
106
 10
104.3504
 20
146.592391699219
 30
0.0
 11
109.8864
 21
146.362391699219
 31
0.0
 0
LINE
 5
290
100
AcDbEntity
 8
Layer8
100
AcDbLine
 39
0.25
 370
106
 10
109.8864
 20
146.362391699219
 30
0.0
 11
118.2444
 21
146.254391699219
 31
0.0
 0
LINE
 5
291
100
AcDbEntity
 8
Layer8
100
AcDbLine
 39
0.25
 370
106
 10
65.7734
 20
205.986391699219
 30
0.0
 11
65.7194
 21
205.994391699219
 31
0.0
 0
LINE
 5
292
100
AcDbEntity
 8
Layer8
100
AcDbLine
 39
0.25
 370
106
 10
65.7194
 20
205.994391699219
 30
0.0
 11
65.6524
 21
206.020391699219
 31
0.0
 0
ARC
 5
293
100
AcDbEntity
 8
Layer8
100
AcDbCircle
 39
0.25
 370
106
 10
114.257251714057
 20
297.672138268117
 30
0.0
 40
151.535357789662
100
AcDbArc
 50
-99.0216293328475
 51
-88.5191327265493
 0
ARC
 5
294
100
AcDbEntity
 8
Layer8
100
AcDbCircle
 39
0.25
 370
106
 10
96.8833221218051
 20
198.339145563168
 30
0.0
 40
50.7315321868414
100
AcDbArc
 50
-122.704969821478
 51
-97.2336686619453
 0
ARC
 5
295
100
AcDbEntity
 8
Layer8
100
AcDbCircle
 39
0.25
 370
106
 10
82.3733163488095
 20
178.839229836622
 30
0.0
 40
26.5359351974199
100
AcDbArc
 50
-155.047001893495
 51
-119.089009660079
 0
ARC
 5
296
100
AcDbEntity
 8
Layer8
100
AcDbCircle
 39
0.25
 370
106
 10
82.2799776510512
 20
176.428570067705
 30
0.0
 40
25.5247076723307
100
AcDbArc
 50
171.595246218411
 51
-159.870440831281
 0
ARC
 5
297
100
AcDbEntity
 8
Layer8
100
AcDbCircle
 39
0.25
 370
106
 10
136.620636932902
 20
167.988883556749
 30
0.0
 40
80.5163726515006
100
AcDbArc
 50
151.81337476314
 51
171.306093383783
 0
LINE
 5
298
100
AcDbEntity
 8
Layer8
100
AcDbLine
 39
0.25
 370
106
 10
126.2114
 20
146.187391699219
 30
0.0
 11
118.1734
 21
146.187391699219
 31
0.0
 0
LINE
 5
299
100
AcDbEntity
 8
Layer8
100
AcDbLine
 39
0.25
 370
106
 10
126.2844
 20
146.254391699219
 30
0.0
 11
126.2524
 21
146.244391699219
 31
0.0
 0
LINE
 5
29A
100
AcDbEntity
 8
Layer8
100
AcDbLine
 39
0.25
 370
106
 10
126.2524
 20
146.244391699219
 30
0.0
 11
126.2114
 21
146.187391699219
 31
0.0
 0
LINE
 5
29B
100
AcDbEntity
 8
Layer8
100
AcDbLine
 39
0.25
 370
106
 10
213.1614
 20
205.986391699219
 30
0.0
 11
213.1334
 21
205.996391699219
 31
0.0
 0
LINE
 5
29C
100
AcDbEntity
 8
Layer8
100
AcDbLine
 39
0.25
 370
106
 10
210.6764
 20
210.759391699219
 30
0.0
 11
213.1614
 21
205.986391699219
 31
0.0
 0
LINE
 5
29D
100
AcDbEntity
 8
Layer8
100
AcDbLine
 39
0.25
 370
106
 10
213.6094
 20
205.986391699219
 30
0.0
 11
211.1294
 21
210.754391699219
 31
0.0
 0
LINE
 5
29E
100
AcDbEntity
 8
Layer8
100
AcDbLine
 39
0.25
 370
106
 10
215.0384
 20
205.986391699219
 30
0.0
 11
212.5544
 21
210.759391699219
 31
0.0
 0
LINE
 5
29F
100
AcDbEntity
 8
Layer8
100
AcDbLine
 39
0.25
 370
106
 10
215.4894
 20
205.986391699219
 30
0.0
 11
213.0024
 21
210.759391699219
 31
0.0
 0
LINE
 5
2A0
100
AcDbEntity
 8
Layer8
100
AcDbLine
 39
0.25
 370
106
 10
215.6074
 20
206.020391699219
 30
0.0
 11
215.5404
 21
205.994391699219
 31
0.0
 0
LINE
 5
2A1
100
AcDbEntity
 8
Layer8
100
AcDbLine
 39
0.25
 370
106
 10
215.5404
 20
205.994391699219
 30
0.0
 11
215.4894
 21
205.986391699219
 31
0.0
 0
LINE
 5
2A2
100
AcDbEntity
 8
Layer8
100
AcDbLine
 39
0.25
 370
106
 10
216.8904
 20
206.919391699219
 30
0.0
 11
214.4064
 21
211.694391699219
 31
0.0
 0
LINE
 5
2A3
100
AcDbEntity
 8
Layer8
100
AcDbLine
 39
0.25
 370
106
 10
216.6474
 20
206.528391699219
 30
0.0
 11
216.4694
 21
206.405391699219
 31
0.0
 0
LINE
 5
2A4
100
AcDbEntity
 8
Layer8
100
AcDbLine
 39
0.25
 370
106
 10
214.1634
 20
211.303391699219
 30
0.0
 11
216.6474
 21
206.528391699219
 31
0.0
 0
LINE
 5
2A5
100
AcDbEntity
 8
Layer8
100
AcDbLine
 39
0.25
 370
106
 10
213.1254
 20
210.795391699219
 30
0.0
 11
215.6074
 21
206.020391699219
 31
0.0
 0
LINE
 5
2A6
100
AcDbEntity
 8
Layer8
100
AcDbLine
 39
0.25
 370
106
 10
216.4694
 20
206.403391699219
 30
0.0
 11
213.9874
 21
211.180391699219
 31
0.0
 0
LINE
 5
2A7
100
AcDbEntity
 8
Layer8
100
AcDbLine
 39
0.25
 370
106
 10
214.4064
 20
211.694391699219
 30
0.0
 11
214.1634
 21
211.303391699219
 31
0.0
 0
LINE
 5
2A8
100
AcDbEntity
 8
Layer8
100
AcDbLine
 39
0.25
 370
106
 10
214.4064
 20
211.694391699219
 30
0.0
 11
214.4104
 21
211.716391699219
 31
0.0
 0
LINE
 5
2A9
100
AcDbEntity
 8
Layer8
100
AcDbLine
 39
0.25
 370
106
 10
214.4104
 20
211.716391699219
 30
0.0
 11
214.3964
 21
211.728391699219
 31
0.0
 0
LINE
 5
2AA
100
AcDbEntity
 8
Layer8
100
AcDbLine
 39
0.25
 370
106
 10
214.3424
 20
211.738391699219
 30
0.0
 11
214.3964
 21
211.728391699219
 31
0.0
 0
LINE
 5
2AB
100
AcDbEntity
 8
Layer8
100
AcDbLine
 39
0.25
 370
106
 10
210.6544
 20
210.795391699219
 30
0.0
 11
210.6824
 21
210.840391699219
 31
0.0
 0
LINE
 5
2AC
100
AcDbEntity
 8
Layer8
100
AcDbLine
 39
0.25
 370
106
 10
210.6544
 20
210.795391699219
 30
0.0
 11
210.6514
 21
210.769391699219
 31
0.0
 0
LINE
 5
2AD
100
AcDbEntity
 8
Layer8
100
AcDbLine
 39
0.25
 370
106
 10
210.6514
 20
210.769391699219
 30
0.0
 11
210.6764
 21
210.759391699219
 31
0.0
 0
LINE
 5
2AE
100
AcDbEntity
 8
Layer8
100
AcDbLine
 39
0.25
 370
106
 10
211.1254
 20
210.759391699219
 30
0.0
 11
210.6764
 21
210.759391699219
 31
0.0
 0
LINE
 5
2AF
100
AcDbEntity
 8
Layer8
100
AcDbLine
 39
0.25
 370
106
 10
212.5544
 20
210.759391699219
 30
0.0
 11
212.5874
 21
210.809391699219
 31
0.0
 0
LINE
 5
2B0
100
AcDbEntity
 8
Layer8
100
AcDbLine
 39
0.25
 370
106
 10
213.0024
 20
210.759391699219
 30
0.0
 11
212.5544
 21
210.759391699219
 31
0.0
 0
LINE
 5
2B1
100
AcDbEntity
 8
Layer8
100
AcDbLine
 39
0.25
 370
106
 10
213.0024
 20
210.759391699219
 30
0.0
 11
213.0564
 21
210.769391699219
 31
0.0
 0
LINE
 5
2B2
100
AcDbEntity
 8
Layer8
100
AcDbLine
 39
0.25
 370
106
 10
213.0564
 20
210.769391699219
 30
0.0
 11
213.1254
 21
210.795391699219
 31
0.0
 0
LINE
 5
2B3
100
AcDbEntity
 8
Layer8
100
AcDbLine
 39
0.25
 370
106
 10
213.9874
 20
211.180391699219
 30
0.0
 11
213.1254
 21
210.795391699219
 31
0.0
 0
LINE
 5
2B4
100
AcDbEntity
 8
Layer8
100
AcDbLine
 39
0.25
 370
106
 10
213.9874
 20
211.180391699219
 30
0.0
 11
214.1634
 21
211.303391699219
 31
0.0
 0
LINE
 5
2B5
100
AcDbEntity
 8
Layer8
100
AcDbLine
 39
0.25
 370
106
 10
213.6094
 20
205.986391699219
 30
0.0
 11
213.1614
 21
205.986391699219
 31
0.0
 0
LINE
 5
2B6
100
AcDbEntity
 8
Layer8
100
AcDbLine
 39
0.25
 370
106
 10
213.6134
 20
205.988391699219
 30
0.0
 11
213.6094
 21
205.986391699219
 31
0.0
 0
ARC
 5
2B7
100
AcDbEntity
 8
Layer8
100
AcDbCircle
 39
0.25
 370
106
 10
172.902529053724
 20
230.705976036302
 30
0.0
 40
84.2396722785801
100
AcDbArc
 50
-90.2911940752242
 51
-71.0301260046046
 0
ARC
 5
2B8
100
AcDbEntity
 8
Layer8
100
AcDbCircle
 39
0.25
 370
106
 10
189.1906756287
 20
186.727702640702
 30
0.0
 40
37.3714849575994
100
AcDbArc
 50
-72.7282857754871
 51
-40.551378661766
 0
ARC
 5
2B9
100
AcDbEntity
 8
Layer8
100
AcDbCircle
 39
0.25
 370
106
 10
199.901337564346
 20
176.582115924272
 30
0.0
 40
22.6496010880207
100
AcDbArc
 50
-38.6650908387326
 51
10.8854179406678
 0
ARC
 5
2BA
100
AcDbEntity
 8
Layer8
100
AcDbCircle
 39
0.25
 370
106
 10
142.452588951785
 20
167.806351583587
 30
0.0
 40
80.7527536482969
100
AcDbArc
 50
9.30221915652468
 51
28.2163159105788
 0
LINE
 5
2BB
100
AcDbEntity
 8
Layer8
100
AcDbLine
 39
0.25
 370
106
 10
161.1384
 20
146.254391699219
 30
0.0
 11
162.5034
 21
146.262391699219
 31
0.0
 0
LINE
 5
2BC
100
AcDbEntity
 8
Layer8
100
AcDbLine
 39
0.25
 370
106
 10
215.4894
 20
205.986391699219
 30
0.0
 11
215.0384
 21
205.986391699219
 31
0.0
 0
ARC
 5
2BD
100
AcDbEntity
 8
Layer8
100
AcDbCircle
 39
0.25
 370
106
 10
174.355291343303
 20
230.602591822107
 30
0.0
 40
84.1341792061979
100
AcDbArc
 50
-90.2764150235135
 51
-71.0225427065096
 0
ARC
 5
2BE
100
AcDbEntity
 8
Layer8
100
AcDbCircle
 39
0.25
 370
106
 10
190.619675628697
 20
186.727702640706
 30
0.0
 40
37.3714849576047
100
AcDbArc
 50
-72.7282857754852
 51
-40.5513786617687
 0
ARC
 5
2BF
100
AcDbEntity
 8
Layer8
100
AcDbCircle
 39
0.25
 370
106
 10
201.312714181013
 20
176.588889916538
 30
0.0
 40
22.6675945124124
100
AcDbArc
 50
-38.6506293861492
 51
10.8592367917923
 0
ARC
 5
2C0
100
AcDbEntity
 8
Layer8
100
AcDbCircle
 39
0.25
 370
106
 10
144.019025468314
 20
167.846697605118
 30
0.0
 40
80.6125785747078
100
AcDbArc
 50
9.28948014542511
 51
28.2372324041848
 0
LINE
 5
2C1
100
AcDbEntity
 8
Layer8
100
AcDbLine
 39
0.25
 370
106
 10
162.5674
 20
146.254391699219
 30
0.0
 11
173.8444
 21
146.465391699219
 31
0.0
 0
ARC
 5
2C2
100
AcDbEntity
 8
Layer8
100
AcDbCircle
 39
0.25
 370
106
 10
175.034806043626
 20
229.109190778668
 30
0.0
 40
84.5474594748734
100
AcDbArc
 50
-84.37125898739
 51
-75.754923365538
 0
LINE
 5
2C3
100
AcDbEntity
 8
Layer8
100
AcDbLine
 39
0.25
 370
106
 10
161.8534
 20
144.024391699219
 30
0.0
 11
173.2734
 21
144.240391699219
 31
0.0
 0
LINE
 5
2C4
100
AcDbEntity
 8
Layer8
100
AcDbLine
 39
0.25
 370
106
 10
173.2734
 20
144.240391699219
 30
0.0
 11
183.3274
 21
144.969391699219
 31
0.0
 0
LINE
 5
2C5
100
AcDbEntity
 8
Layer8
100
AcDbLine
 39
0.25
 370
106
 10
195.8394
 20
147.161391699219
 30
0.0
 11
199.5234
 21
148.234391699219
 31
0.0
 0
LINE
 5
2C6
100
AcDbEntity
 8
Layer8
100
AcDbLine
 39
0.25
 370
106
 10
182.5304
 20
145.924391699219
 30
0.0
 11
187.6874
 21
146.513391699219
 31
0.0
 0
LINE
 5
2C7
100
AcDbEntity
 8
Layer8
100
AcDbLine
 39
0.25
 370
106
 10
216.8904
 20
206.919391699219
 30
0.0
 11
216.6474
 21
206.528391699219
 31
0.0
 0
ARC
 5
2C8
100
AcDbEntity
 8
Layer8
100
AcDbCircle
 39
0.25
 370
106
 10
184.719140158004
 20
193.423946424231
 30
0.0
 40
45.0013590553705
100
AcDbArc
 50
-71.2714482818257
 51
-48.558695192144
 0
ARC
 5
2C9
100
AcDbEntity
 8
Layer8
100
AcDbCircle
 39
0.25
 370
106
 10
169.91765704604
 20
247.65887342794
 30
0.0
 40
101.174121623735
100
AcDbArc
 50
-87.3568120040605
 51
-73.1951463482832
 0
LINE
 5
2CA
100
AcDbEntity
 8
Layer8
100
AcDbLine
 39
0.25
 370
106
 10
174.5834
 20
146.592391699219
 30
0.0
 11
169.0474
 21
146.362391699219
 31
0.0
 0
LINE
 5
2CB
100
AcDbEntity
 8
Layer8
100
AcDbLine
 39
0.25
 370
106
 10
169.0474
 20
146.362391699219
 30
0.0
 11
160.6894
 21
146.254391699219
 31
0.0
 0
LINE
 5
2CC
100
AcDbEntity
 8
Layer8
100
AcDbLine
 39
0.25
 370
106
 10
213.1614
 20
205.986391699219
 30
0.0
 11
213.1354
 21
205.994391699219
 31
0.0
 0
ARC
 5
2CD
100
AcDbEntity
 8
Layer8
100
AcDbCircle
 39
0.25
 370
106
 10
205.441450357443
 20
174.722004364861
 30
0.0
 40
16.5940869850598
100
AcDbArc
 50
-23.0704853223727
 51
-1.79440303843229
 0
ARC
 5
2CE
100
AcDbEntity
 8
Layer8
100
AcDbCircle
 39
0.25
 370
106
 10
163.718875151918
 20
173.934003675657
 30
0.0
 40
58.3091425257707
100
AcDbArc
 50
0.263724600548262
 51
19.7111185494796
 0
LINE
 5
2CF
100
AcDbEntity
 8
Layer8
100
AcDbLine
 39
0.25
 370
106
 10
218.6114
 20
193.600391699219
 30
0.0
 11
216.2104
 21
199.618391699219
 31
0.0
 0
ARC
 5
2D0
100
AcDbEntity
 8
Layer8
100
AcDbCircle
 39
0.25
 370
106
 10
197.769750182555
 20
179.439948361572
 30
0.0
 40
29.2111655649095
100
AcDbArc
 50
-51.8119300241658
 51
-19.3703549042077
 0
ARC
 5
2D1
100
AcDbEntity
 8
Layer8
100
AcDbCircle
 39
0.25
 370
106
 10
184.032642739058
 20
198.981175678631
 30
0.0
 40
53.0787190046627
100
AcDbArc
 50
-77.6366014135093
 51
-53.19817737792
 0
ARC
 5
2D2
100
AcDbEntity
 8
Layer8
100
AcDbCircle
 39
0.25
 370
106
 10
167.800184323853
 20
286.559173993645
 30
0.0
 40
142.130767539926
100
AcDbArc
 50
-89.6971683971708
 51
-78.8038882458408
 0
LINE
 5
2D3
100
AcDbEntity
 8
Layer8
100
AcDbLine
 39
0.25
 370
106
 10
168.5514
 20
144.430391699219
 30
0.0
 11
163.0254
 21
144.386391699219
 31
0.0
 0
ARC
 5
2D4
100
AcDbEntity
 8
Layer8
100
AcDbCircle
 39
0.25
 370
106
 10
141.69652385719
 20
166.300995187701
 30
0.0
 40
85.4706532909813
100
AcDbArc
 50
15.7445700617953
 51
28.4003693325317
 0
LINE
 5
2D5
100
AcDbEntity
 8
Layer8
100
AcDbLine
 39
0.25
 370
106
 10
223.9604
 20
189.493391699219
 30
0.0
 11
224.7404
 21
186.327391699219
 31
0.0
 0
LINE
 5
2D6
100
AcDbEntity
 8
Layer8
100
AcDbLine
 39
0.25
 370
106
 10
216.8944
 20
206.943391699219
 30
0.0
 11
216.8904
 21
206.919391699219
 31
0.0
 0
ARC
 5
2D7
100
AcDbEntity
 8
Layer8
100
AcDbCircle
 39
0.25
 370
106
 10
175.50476032914
 20
175.288159901495
 30
0.0
 40
50.4575930812742
100
AcDbArc
 50
-2.6498575157724
 51
12.6351983749243
 0
LINE
 5
2D8
100
AcDbEntity
 8
Layer8
100
AcDbLine
 39
0.25
 370
106
 10
216.6474
 20
206.528391699219
 30
0.0
 11
216.4694
 21
206.403391699219
 31
0.0
 0
ARC
 5
2D9
100
AcDbEntity
 8
Layer8
100
AcDbCircle
 39
0.25
 370
106
 10
167.958714841424
 20
287.8442366401
 30
0.0
 40
142.473815108953
100
AcDbArc
 50
-91.8338394630621
 51
-80.7617837702904
 0
ARC
 5
2DA
100
AcDbEntity
 8
Layer8
100
AcDbCircle
 39
0.25
 370
106
 10
184.220224499257
 20
199.427986133034
 30
0.0
 40
52.6265084576692
100
AcDbArc
 50
-82.783182345473
 51
-58.7386012363047
 0
ARC
 5
2DB
100
AcDbEntity
 8
Layer8
100
AcDbCircle
 39
0.25
 370
106
 10
198.635071642046
 20
179.088523473108
 30
0.0
 40
27.8158462908348
100
AcDbArc
 50
-62.3805737592752
 51
-25.2927348359677
 0
ARC
 5
2DC
100
AcDbEntity
 8
Layer8
100
AcDbCircle
 39
0.25
 370
106
 10
202.641464267664
 20
175.912373404124
 30
0.0
 40
22.8659720273305
100
AcDbArc
 50
-22.384924243933
 51
6.95041384116804
 0
ARC
 5
2DD
100
AcDbEntity
 8
Layer8
100
AcDbCircle
 39
0.25
 370
106
 10
147.113590060236
 20
168.932804043552
 30
0.0
 40
78.830662255633
100
AcDbArc
 50
7.10219833427627
 51
28.3808458745666
 0
ARC
 5
2DE
100
AcDbEntity
 8
Layer8
100
AcDbCircle
 39
0.25
 370
106
 10
158.538215959109
 20
172.612731011001
 30
0.0
 40
67.2826077810343
100
AcDbArc
 50
5.18603172774547
 51
30.2701456843578
 0
ARC
 5
2DF
100
AcDbEntity
 8
Layer8
100
AcDbCircle
 39
0.25
 370
106
 10
203.988475186561
 20
175.842438623926
 30
0.0
 40
21.7447612945263
100
AcDbArc
 50
-42.0495221229667
 51
7.53639069053976
 0
ARC
 5
2E0
100
AcDbEntity
 8
Layer8
100
AcDbCircle
 39
0.25
 370
106
 10
186.832963279824
 20
193.583038545404
 30
0.0
 40
46.3965785307287
100
AcDbArc
 50
-74.9666054024787
 51
-44.1286803440691
 0
ARC
 5
2E1
100
AcDbEntity
 8
Layer8
100
AcDbCircle
 39
0.25
 370
106
 10
171.103450320896
 20
259.445106806074
 30
0.0
 40
114.100149360317
100
AcDbArc
 50
-88.7435367245496
 51
-75.9168571585743
 0
LINE
 5
2E2
100
AcDbEntity
 8
Layer8
100
AcDbLine
 39
0.25
 370
106
 10
173.6054
 20
145.372391699219
 30
0.0
 11
163.3994
 21
145.204391699219
 31
0.0
 0
LINE
 5
2E3
100
AcDbEntity
 8
Layer8
100
AcDbLine
 39
0.25
 370
106
 10
161.8534
 20
144.024391699219
 30
0.0
 11
163.0254
 21
144.386391699219
 31
0.0
 0
LINE
 5
2E4
100
AcDbEntity
 8
Layer8
100
AcDbLine
 39
0.25
 370
106
 10
161.8534
 20
144.024391699219
 30
0.0
 11
153.8134
 21
144.024391699219
 31
0.0
 0
LINE
 5
2E5
100
AcDbEntity
 8
Layer8
100
AcDbLine
 39
0.25
 370
106
 10
163.0254
 20
144.386391699219
 30
0.0
 11
154.9854
 21
144.386391699219
 31
0.0
 0
LINE
 5
2E6
100
AcDbEntity
 8
Layer8
100
AcDbLine
 39
0.25
 370
106
 10
163.0834
 20
144.449391699219
 30
0.0
 11
163.0574
 21
144.408391699219
 31
0.0
 0
LINE
 5
2E7
100
AcDbEntity
 8
Layer8
100
AcDbLine
 39
0.25
 370
106
 10
163.0574
 20
144.408391699219
 30
0.0
 11
163.0254
 21
144.386391699219
 31
0.0
 0
LINE
 5
2E8
100
AcDbEntity
 8
Layer8
100
AcDbLine
 39
0.25
 370
106
 10
155.0434
 20
144.449391699219
 30
0.0
 11
163.0834
 21
144.449391699219
 31
0.0
 0
LINE
 5
2E9
100
AcDbEntity
 8
Layer8
100
AcDbLine
 39
0.25
 370
106
 10
153.8134
 20
144.024391699219
 30
0.0
 11
155.0114
 21
144.400391699219
 31
0.0
 0
LINE
 5
2EA
100
AcDbEntity
 8
Layer8
100
AcDbLine
 39
0.25
 370
106
 10
155.0114
 20
144.400391699219
 30
0.0
 11
155.3614
 21
145.204391699219
 31
0.0
 0
LINE
 5
2EB
100
AcDbEntity
 8
Layer8
100
AcDbLine
 39
0.25
 370
106
 10
155.3614
 20
145.443391699219
 30
0.0
 11
155.0494
 21
146.187391699219
 31
0.0
 0
LINE
 5
2EC
100
AcDbEntity
 8
Layer8
100
AcDbLine
 39
0.25
 370
106
 10
154.9774
 20
146.254391699219
 30
0.0
 11
154.8984
 21
146.254391699219
 31
0.0
 0
LINE
 5
2ED
100
AcDbEntity
 8
Layer8
100
AcDbLine
 39
0.25
 370
106
 10
153.7684
 20
144.038391699219
 30
0.0
 11
153.8134
 21
144.024391699219
 31
0.0
 0
LINE
 5
2EE
100
AcDbEntity
 8
Layer8
100
AcDbLine
 39
0.25
 370
106
 10
155.3614
 20
145.204391699219
 30
0.0
 11
155.3774
 21
145.262391699219
 31
0.0
 0
LINE
 5
2EF
100
AcDbEntity
 8
Layer8
100
AcDbLine
 39
0.25
 370
106
 10
155.3774
 20
145.262391699219
 30
0.0
 11
155.3834
 21
145.325391699219
 31
0.0
 0
LINE
 5
2F0
100
AcDbEntity
 8
Layer8
100
AcDbLine
 39
0.25
 370
106
 10
155.3834
 20
145.325391699219
 30
0.0
 11
155.3774
 21
145.388391699219
 31
0.0
 0
LINE
 5
2F1
100
AcDbEntity
 8
Layer8
100
AcDbLine
 39
0.25
 370
106
 10
155.3774
 20
145.388391699219
 30
0.0
 11
155.3614
 21
145.443391699219
 31
0.0
 0
LINE
 5
2F2
100
AcDbEntity
 8
Layer8
100
AcDbLine
 39
0.25
 370
106
 10
163.3994
 20
145.204391699219
 30
0.0
 11
155.3614
 21
145.204391699219
 31
0.0
 0
LINE
 5
2F3
100
AcDbEntity
 8
Layer8
100
AcDbLine
 39
0.25
 370
106
 10
163.3994
 20
145.204391699219
 30
0.0
 11
163.4174
 21
145.262391699219
 31
0.0
 0
LINE
 5
2F4
100
AcDbEntity
 8
Layer8
100
AcDbLine
 39
0.25
 370
106
 10
163.4174
 20
145.262391699219
 30
0.0
 11
163.4234
 21
145.325391699219
 31
0.0
 0
LINE
 5
2F5
100
AcDbEntity
 8
Layer8
100
AcDbLine
 39
0.25
 370
106
 10
163.4234
 20
145.325391699219
 30
0.0
 11
163.4174
 21
145.388391699219
 31
0.0
 0
LINE
 5
2F6
100
AcDbEntity
 8
Layer8
100
AcDbLine
 39
0.25
 370
106
 10
163.4174
 20
145.388391699219
 30
0.0
 11
163.3994
 21
145.443391699219
 31
0.0
 0
LINE
 5
2F7
100
AcDbEntity
 8
Layer8
100
AcDbLine
 39
0.25
 370
106
 10
155.3614
 20
145.443391699219
 30
0.0
 11
163.3994
 21
145.443391699219
 31
0.0
 0
LINE
 5
2F8
100
AcDbEntity
 8
Layer8
100
AcDbLine
 39
0.25
 370
106
 10
163.0884
 20
146.187391699219
 30
0.0
 11
155.0494
 21
146.187391699219
 31
0.0
 0
ARC
 5
2F9
100
AcDbEntity
 8
Layer8
100
AcDbCircle
 39
0.25
 370
106
 10
157.581448358832
 20
172.300373995562
 30
0.0
 40
67.1122243544201
100
AcDbArc
 50
6.72147763184726
 51
30.1617106146141
 0
ARC
 5
2FA
100
AcDbEntity
 8
Layer8
100
AcDbCircle
 39
0.25
 370
106
 10
202.182913379388
 20
176.437782567046
 30
0.0
 40
22.3606904609887
100
AcDbArc
 50
-47.9852952650224
 51
9.57023228127163
 0
ARC
 5
2FB
100
AcDbEntity
 8
Layer8
100
AcDbCircle
 39
0.25
 370
106
 10
184.294885333328
 20
198.428038854697
 30
0.0
 40
50.6918209150866
100
AcDbArc
 50
-76.4200789006475
 51
-49.5997970937462
 0
ARC
 5
2FC
100
AcDbEntity
 8
Layer8
100
AcDbCircle
 39
0.25
 370
106
 10
165.134314482613
 20
309.62749146159
 30
0.0
 40
163.452904459982
100
AcDbArc
 50
-90.7171810534515
 51
-79.0447045055432
 0
LINE
 5
2FD
100
AcDbEntity
 8
Layer8
100
AcDbLine
 39
0.25
 370
106
 10
215.6074
 20
206.020391699219
 30
0.0
 11
215.5404
 21
205.994391699219
 31
0.0
 0
LINE
 5
2FE
100
AcDbEntity
 8
Layer8
100
AcDbLine
 39
0.25
 370
106
 10
215.5404
 20
205.994391699219
 30
0.0
 11
215.4894
 21
205.986391699219
 31
0.0
 0
ARC
 5
2FF
100
AcDbEntity
 8
Layer8
100
AcDbCircle
 39
0.25
 370
106
 10
166.957546016339
 20
297.30775029715
 30
0.0
 40
151.10479032423
100
AcDbArc
 50
-91.4949490239688
 51
-80.9731805311674
 0
ARC
 5
300
100
AcDbEntity
 8
Layer8
100
AcDbCircle
 39
0.25
 370
106
 10
182.009441529595
 20
205.678631998413
 30
0.0
 40
58.2509580821522
100
AcDbArc
 50
-81.4543299582131
 51
-64.9185333643143
 0
ARC
 5
301
100
AcDbEntity
 8
Layer8
100
AcDbCircle
 39
0.25
 370
106
 10
189.890296274763
 20
189.058599104746
 30
0.0
 40
39.857456845025
100
AcDbArc
 50
-65.0513565642947
 51
-46.9500869700775
 0
LINE
 5
302
100
AcDbEntity
 8
Layer8
100
AcDbLine
 39
0.25
 370
106
 10
154.9774
 20
146.254391699219
 30
0.0
 11
163.0154
 21
146.254391699219
 31
0.0
 0
LINE
 5
303
100
AcDbEntity
 8
Layer8
100
AcDbLine
 39
0.25
 370
106
 10
155.0494
 20
146.187391699219
 30
0.0
 11
155.0174
 21
146.236391699219
 31
0.0
 0
LINE
 5
304
100
AcDbEntity
 8
Layer8
100
AcDbLine
 39
0.25
 370
106
 10
155.0174
 20
146.236391699219
 30
0.0
 11
154.9774
 21
146.254391699219
 31
0.0
 0
LINE
 5
305
100
AcDbEntity
 8
Layer8
100
AcDbLine
 39
0.25
 370
106
 10
70.0324
 20
210.811391699219
 30
0.0
 11
70.1374
 21
210.763391699219
 31
0.0
 0
LINE
 5
306
100
AcDbEntity
 8
Layer8
100
AcDbLine
 39
0.25
 370
106
 10
68.7084
 20
210.763391699219
 30
0.0
 11
68.6764
 21
210.811391699219
 31
0.0
 0
LINE
 5
307
100
AcDbEntity
 8
Layer8
100
AcDbLine
 39
0.25
 370
106
 10
70.1314
 20
210.754391699219
 30
0.0
 11
70.1374
 21
210.763391699219
 31
0.0
 0
LINE
 5
308
100
AcDbEntity
 8
Layer8
100
AcDbLine
 39
0.25
 370
106
 10
70.1374
 20
210.763391699219
 30
0.0
 11
68.7084
 21
210.763391699219
 31
0.0
 0
LINE
 5
309
100
AcDbEntity
 8
Layer8
100
AcDbLine
 39
0.25
 370
106
 10
68.7024
 20
210.754391699219
 30
0.0
 11
68.7084
 21
210.763391699219
 31
0.0
 0
ARC
 5
30A
100
AcDbEntity
 8
Layer8
100
AcDbCircle
 39
0.25
 370
106
 10
108.333822502372
 20
230.51648755498
 30
0.0
 40
84.0503197300125
100
AcDbArc
 50
-108.995901392734
 51
-89.6908018610821
 0
ARC
 5
30B
100
AcDbEntity
 8
Layer8
100
AcDbCircle
 39
0.25
 370
106
 10
92.0634487013371
 20
186.719816618821
 30
0.0
 40
37.3597660464736
100
AcDbArc
 50
-139.449160671324
 51
-107.264974934422
 0
ARC
 5
30C
100
AcDbEntity
 8
Layer8
100
AcDbCircle
 39
0.25
 370
106
 10
81.3572343822492
 20
176.578934982193
 30
0.0
 40
22.6443124293093
100
AcDbArc
 50
169.114119089239
 51
-141.334509803823
 0
ARC
 5
30D
100
AcDbEntity
 8
Layer8
100
AcDbCircle
 39
0.25
 370
106
 10
139.790323298756
 20
167.487810195937
 30
0.0
 40
81.7699746867641
100
AcDbArc
 50
151.909569670041
 51
170.591177601642
 0
LINE
 5
30E
100
AcDbEntity
 8
Layer8
100
AcDbLine
 39
0.25
 370
106
 10
120.1224
 20
146.254391699219
 30
0.0
 11
118.7564
 21
146.262391699219
 31
0.0
 0
ARC
 5
30F
100
AcDbEntity
 8
Layer8
100
AcDbCircle
 39
0.25
 370
106
 10
114.435018316007
 20
292.529293007937
 30
0.0
 40
146.336873574099
100
AcDbArc
 50
-99.1595871806498
 51
-88.3324657687505
 0
ARC
 5
310
100
AcDbEntity
 8
Layer8
100
AcDbCircle
 39
0.25
 370
106
 10
97.3812336236138
 20
198.266295633716
 30
0.0
 40
50.5942844777291
100
AcDbArc
 50
-123.035400247517
 51
-97.0855130091266
 0
ARC
 5
311
100
AcDbEntity
 8
Layer8
100
AcDbCircle
 39
0.25
 370
106
 10
82.3805549459533
 20
178.373772737746
 30
0.0
 40
25.7981221684583
100
AcDbArc
 50
-158.54931323475
 51
-119.188022030411
 0
ARC
 5
312
100
AcDbEntity
 8
Layer8
100
AcDbCircle
 39
0.25
 370
106
 10
92.3080904631174
 20
176.946938208757
 30
0.0
 40
34.8705536442099
100
AcDbArc
 50
167.168093510577
 51
-166.724337152097
 0
ARC
 5
313
100
AcDbEntity
 8
Layer8
100
AcDbCircle
 39
0.25
 370
106
 10
144.44663424581
 20
164.808751078199
 30
0.0
 40
88.4031379366747
100
AcDbArc
 50
152.235457551348
 51
167.002486693043
 0
LINE
 5
314
100
AcDbEntity
 8
Layer8
100
AcDbLine
 39
0.25
 370
106
 10
211.1254
 20
210.763391699219
 30
0.0
 11
211.2304
 21
210.811391699219
 31
0.0
 0
LINE
 5
315
100
AcDbEntity
 8
Layer8
100
AcDbLine
 39
0.25
 370
106
 10
212.5854
 20
210.811391699219
 30
0.0
 11
212.5524
 21
210.763391699219
 31
0.0
 0
LINE
 5
316
100
AcDbEntity
 8
Layer8
100
AcDbLine
 39
0.25
 370
106
 10
212.5584
 20
210.754391699219
 30
0.0
 11
212.5524
 21
210.763391699219
 31
0.0
 0
LINE
 5
317
100
AcDbEntity
 8
Layer8
100
AcDbLine
 39
0.25
 370
106
 10
212.5524
 20
210.763391699219
 30
0.0
 11
211.1254
 21
210.763391699219
 31
0.0
 0
LINE
 5
318
100
AcDbEntity
 8
Layer8
100
AcDbLine
 39
0.25
 370
106
 10
211.1294
 20
210.754391699219
 30
0.0
 11
211.1254
 21
210.763391699219
 31
0.0
 0
ARC
 5
319
100
AcDbEntity
 8
Layer8
100
AcDbCircle
 39
0.25
 370
106
 10
172.923424656745
 20
230.544158798565
 30
0.0
 40
84.0779661327515
100
AcDbArc
 50
-90.3059938437076
 51
-71.0073029024869
 0
ARC
 5
31A
100
AcDbEntity
 8
Layer8
100
AcDbCircle
 39
0.25
 370
106
 10
189.195755024925
 20
186.721267601822
 30
0.0
 40
37.3619222589623
100
AcDbArc
 50
-72.7318833865511
 51
-40.5509385882904
 0
ARC
 5
31B
100
AcDbEntity
 8
Layer8
100
AcDbCircle
 39
0.25
 370
106
 10
199.907632502793
 20
176.579136053581
 30
0.0
 40
22.6412627621941
100
AcDbArc
 50
-38.672317416813
 51
10.8868469353032
 0
ARC
 5
31C
100
AcDbEntity
 8
Layer8
100
AcDbCircle
 39
0.25
 370
106
 10
141.332037016085
 20
167.446229027534
 30
0.0
 40
81.9143381186825
100
AcDbArc
 50
9.42157108269086
 51
28.0695054354958
 0
LINE
 5
31D
100
AcDbEntity
 8
Layer8
100
AcDbLine
 39
0.25
 370
106
 10
161.1384
 20
146.254391699219
 30
0.0
 11
162.5034
 21
146.262391699219
 31
0.0
 0
ARC
 5
31E
100
AcDbEntity
 8
Layer8
100
AcDbCircle
 39
0.25
 370
106
 10
166.823362963286
 20
292.566234810401
 30
0.0
 40
146.373729389314
100
AcDbArc
 50
-91.6661670677287
 51
-80.8417799828818
 0
ARC
 5
31F
100
AcDbEntity
 8
Layer8
100
AcDbCircle
 39
0.25
 370
106
 10
183.895358250725
 20
198.223049850286
 30
0.0
 40
50.5494220757634
100
AcDbArc
 50
-82.9262034401787
 51
-56.9528833031882
 0
ARC
 5
320
100
AcDbEntity
 8
Layer8
100
AcDbCircle
 39
0.25
 370
106
 10
198.895718509778
 20
178.358426101094
 30
0.0
 40
25.7771788386726
100
AcDbArc
 50
-60.8253688115442
 51
-21.4323286188695
 0
ARC
 5
321
100
AcDbEntity
 8
Layer8
100
AcDbCircle
 39
0.25
 370
106
 10
188.925035311589
 20
176.949201666886
 30
0.0
 40
34.8970350335794
100
AcDbArc
 50
-13.2692228445177
 51
12.8181918661625
 0
ARC
 5
322
100
AcDbEntity
 8
Layer8
100
AcDbCircle
 39
0.25
 370
106
 10
136.845702196976
 20
164.824138752248
 30
0.0
 40
88.3689489934119
100
AcDbArc
 50
12.9923907837028
 51
27.7649372979084
 0
LINE
 5
323
100
AcDbEntity
 8
Layer8
100
AcDbLine
 39
0.25
 370
106
 10
153.6204
 20
324.013391699219
 30
0.0
 11
153.6104
 21
323.971391699219
 31
0.0
 0
LINE
 5
324
100
AcDbEntity
 8
Layer8
100
AcDbLine
 39
0.25
 370
106
 10
153.6104
 20
323.971391699219
 30
0.0
 11
153.5214
 21
323.904391699219
 31
0.0
 0
LINE
 5
325
100
AcDbEntity
 8
Layer8
100
AcDbLine
 39
0.25
 370
106
 10
153.5214
 20
323.904391699219
 30
0.0
 11
153.3634
 21
323.845391699219
 31
0.0
 0
LINE
 5
326
100
AcDbEntity
 8
Layer8
100
AcDbLine
 39
0.25
 370
106
 10
153.3634
 20
323.845391699219
 30
0.0
 11
153.3354
 21
323.847391699219
 31
0.0
 0
LINE
 5
327
100
AcDbEntity
 8
Layer8
100
AcDbLine
 39
0.25
 370
106
 10
153.3354
 20
323.847391699219
 30
0.0
 11
153.3454
 21
323.890391699219
 31
0.0
 0
LINE
 5
328
100
AcDbEntity
 8
Layer8
100
AcDbLine
 39
0.25
 370
106
 10
153.3454
 20
323.890391699219
 30
0.0
 11
153.4344
 21
323.956391699219
 31
0.0
 0
LINE
 5
329
100
AcDbEntity
 8
Layer8
100
AcDbLine
 39
0.25
 370
106
 10
153.4344
 20
323.956391699219
 30
0.0
 11
153.6204
 21
324.013391699219
 31
0.0
 0
LINE
 5
32A
100
AcDbEntity
 8
Layer8
100
AcDbLine
 39
0.25
 370
106
 10
140.7974
 20
323.930391699219
 30
0.0
 11
140.7894
 21
323.956391699219
 31
0.0
 0
LINE
 5
32B
100
AcDbEntity
 8
Layer8
100
AcDbLine
 39
0.25
 370
106
 10
140.7894
 20
323.956391699219
 30
0.0
 11
140.7594
 21
323.985391699219
 31
0.0
 0
LINE
 5
32C
100
AcDbEntity
 8
Layer8
100
AcDbLine
 39
0.25
 370
106
 10
140.7594
 20
323.985391699219
 30
0.0
 11
140.7084
 21
324.007391699219
 31
0.0
 0
LINE
 5
32D
100
AcDbEntity
 8
Layer8
100
AcDbLine
 39
0.25
 370
106
 10
140.7084
 20
324.007391699219
 30
0.0
 11
140.6474
 21
324.017391699219
 31
0.0
 0
LINE
 5
32E
100
AcDbEntity
 8
Layer8
100
AcDbLine
 39
0.25
 370
106
 10
140.6474
 20
324.017391699219
 30
0.0
 11
140.5814
 21
324.013391699219
 31
0.0
 0
LINE
 5
32F
100
AcDbEntity
 8
Layer8
100
AcDbLine
 39
0.25
 370
106
 10
140.5814
 20
324.013391699219
 30
0.0
 11
140.5244
 21
323.997391699219
 31
0.0
 0
LINE
 5
330
100
AcDbEntity
 8
Layer8
100
AcDbLine
 39
0.25
 370
106
 10
140.5244
 20
323.997391699219
 30
0.0
 11
140.4824
 21
323.971391699219
 31
0.0
 0
LINE
 5
331
100
AcDbEntity
 8
Layer8
100
AcDbLine
 39
0.25
 370
106
 10
140.4824
 20
323.971391699219
 30
0.0
 11
140.4634
 21
323.930391699219
 31
0.0
 0
LINE
 5
332
100
AcDbEntity
 8
Layer8
100
AcDbLine
 39
0.25
 370
106
 10
127.6894
 20
324.013391699219
 30
0.0
 11
127.8994
 21
323.904391699219
 31
0.0
 0
LINE
 5
333
100
AcDbEntity
 8
Layer8
100
AcDbLine
 39
0.25
 370
106
 10
127.8994
 20
323.904391699219
 30
0.0
 11
127.9324
 21
323.855391699219
 31
0.0
 0
LINE
 5
334
100
AcDbEntity
 8
Layer8
100
AcDbLine
 39
0.25
 370
106
 10
127.9324
 20
323.855391699219
 30
0.0
 11
127.9154
 21
323.845391699219
 31
0.0
 0
LINE
 5
335
100
AcDbEntity
 8
Layer8
100
AcDbLine
 39
0.25
 370
106
 10
127.9154
 20
323.845391699219
 30
0.0
 11
127.7114
 21
323.922391699219
 31
0.0
 0
LINE
 5
336
100
AcDbEntity
 8
Layer8
100
AcDbLine
 39
0.25
 370
106
 10
127.7114
 20
323.922391699219
 30
0.0
 11
127.6404
 21
323.985391699219
 31
0.0
 0
LINE
 5
337
100
AcDbEntity
 8
Layer8
100
AcDbLine
 39
0.25
 370
106
 10
127.6404
 20
323.985391699219
 30
0.0
 11
127.6524
 21
324.017391699219
 31
0.0
 0
LINE
 5
338
100
AcDbEntity
 8
Layer8
100
AcDbLine
 39
0.25
 370
106
 10
127.6524
 20
324.017391699219
 30
0.0
 11
127.6894
 21
324.013391699219
 31
0.0
 0
LINE
 5
339
100
AcDbEntity
 8
Layer8
100
AcDbLine
 39
0.25
 370
106
 10
210.6094
 20
210.850391699219
 30
0.0
 11
210.6354
 21
210.840391699219
 31
0.0
 0
LINE
 5
33A
100
AcDbEntity
 8
Layer8
100
AcDbLine
 39
0.25
 370
106
 10
214.3684
 20
211.797391699219
 30
0.0
 11
214.3644
 21
211.773391699219
 31
0.0
 0
LINE
 5
33B
100
AcDbEntity
 8
Layer8
100
AcDbLine
 39
0.25
 370
106
 10
212.5504
 20
215.224391699219
 30
0.0
 11
212.5524
 21
215.222391699219
 31
0.0
 0
LINE
 5
33C
100
AcDbEntity
 8
Layer8
100
AcDbLine
 39
0.25
 370
106
 10
210.8114
 20
216.139391699219
 30
0.0
 11
210.8544
 21
216.151391699219
 31
0.0
 0
LINE
 5
33D
100
AcDbEntity
 8
Layer8
100
AcDbLine
 39
0.25
 370
106
 10
214.1214
 20
211.382391699219
 30
0.0
 11
213.9454
 21
211.259391699219
 31
0.0
 0
LINE
 5
33E
100
AcDbEntity
 8
Layer8
100
AcDbLine
 39
0.25
 370
106
 10
212.9454
 20
213.627391699219
 30
0.0
 11
212.9474
 21
213.511391699219
 31
0.0
 0
LINE
 5
33F
100
AcDbEntity
 8
Layer8
100
AcDbLine
 39
0.25
 370
106
 10
212.9474
 20
213.511391699219
 30
0.0
 11
212.9194
 21
213.475391699219
 31
0.0
 0
LINE
 5
340
100
AcDbEntity
 8
Layer8
100
AcDbLine
 39
0.25
 370
106
 10
212.9194
 20
213.475391699219
 30
0.0
 11
212.7674
 21
213.505391699219
 31
0.0
 0
LINE
 5
341
100
AcDbEntity
 8
Layer8
100
AcDbLine
 39
0.25
 370
106
 10
213.0834
 20
210.874391699219
 30
0.0
 11
213.0004
 21
210.844391699219
 31
0.0
 0
LINE
 5
342
100
AcDbEntity
 8
Layer8
100
AcDbLine
 39
0.25
 370
106
 10
213.0004
 20
210.844391699219
 30
0.0
 11
212.9614
 21
210.840391699219
 31
0.0
 0
LINE
 5
343
100
AcDbEntity
 8
Layer8
100
AcDbLine
 39
0.25
 370
106
 10
211.3364
 20
214.206391699219
 30
0.0
 11
211.2654
 21
214.210391699219
 31
0.0
 0
LINE
 5
344
100
AcDbEntity
 8
Layer8
100
AcDbLine
 39
0.25
 370
106
 10
211.2654
 20
214.210391699219
 30
0.0
 11
211.1784
 21
214.244391699219
 31
0.0
 0
LINE
 5
345
100
AcDbEntity
 8
Layer8
100
AcDbLine
 39
0.25
 370
106
 10
213.1514
 20
214.090391699219
 30
0.0
 11
213.1644
 21
214.064391699219
 31
0.0
 0
LINE
 5
346
100
AcDbEntity
 8
Layer8
100
AcDbLine
 39
0.25
 370
106
 10
212.6134
 20
215.102391699219
 30
0.0
 11
213.1514
 21
214.090391699219
 31
0.0
 0
LINE
 5
347
100
AcDbEntity
 8
Layer8
100
AcDbLine
 39
0.25
 370
106
 10
214.1214
 20
211.382391699219
 30
0.0
 11
212.9454
 21
213.627391699219
 31
0.0
 0
LINE
 5
348
100
AcDbEntity
 8
Layer8
100
AcDbLine
 39
0.25
 370
106
 10
214.1214
 20
211.382391699219
 30
0.0
 11
214.3644
 21
211.773391699219
 31
0.0
 0
LINE
 5
349
100
AcDbEntity
 8
Layer8
100
AcDbLine
 39
0.25
 370
106
 10
213.1644
 20
214.064391699219
 30
0.0
 11
214.3644
 21
211.773391699219
 31
0.0
 0
LINE
 5
34A
100
AcDbEntity
 8
Layer8
100
AcDbLine
 39
0.25
 370
106
 10
212.9024
 20
213.615391699219
 30
0.0
 11
212.9454
 21
213.627391699219
 31
0.0
 0
ARC
 5
34B
100
AcDbEntity
 8
Layer8
100
AcDbCircle
 39
0.25
 370
106
 10
218.682425713236
 20
215.693572741109
 30
0.0
 40
6.09775107168258
100
AcDbArc
 50
-174.436396772453
 51
-160.193593200285
 0
LINE
 5
34C
100
AcDbEntity
 8
Layer8
100
AcDbLine
 39
0.25
 370
106
 10
212.5444
 20
215.121391699219
 30
0.0
 11
212.5744
 21
215.119391699219
 31
0.0
 0
LINE
 5
34D
100
AcDbEntity
 8
Layer8
100
AcDbLine
 39
0.25
 370
106
 10
212.5744
 20
215.119391699219
 30
0.0
 11
212.6134
 21
215.102391699219
 31
0.0
 0
LINE
 5
34E
100
AcDbEntity
 8
Layer8
100
AcDbLine
 39
0.25
 370
106
 10
211.1784
 20
214.244391699219
 30
0.0
 11
212.9614
 21
210.840391699219
 31
0.0
 0
LINE
 5
34F
100
AcDbEntity
 8
Layer8
100
AcDbLine
 39
0.25
 370
106
 10
208.8524
 20
214.244391699219
 30
0.0
 11
210.6354
 21
210.840391699219
 31
0.0
 0
LINE
 5
350
100
AcDbEntity
 8
Layer8
100
AcDbLine
 39
0.25
 370
106
 10
212.9614
 20
210.840391699219
 30
0.0
 11
210.6354
 21
210.840391699219
 31
0.0
 0
LINE
 5
351
100
AcDbEntity
 8
Layer8
100
AcDbLine
 39
0.25
 370
106
 10
211.1784
 20
214.244391699219
 30
0.0
 11
211.2024
 21
214.295391699219
 31
0.0
 0
LINE
 5
352
100
AcDbEntity
 8
Layer8
100
AcDbLine
 39
0.25
 370
106
 10
211.2024
 20
214.295391699219
 30
0.0
 11
211.2534
 21
214.345391699219
 31
0.0
 0
LINE
 5
353
100
AcDbEntity
 8
Layer8
100
AcDbLine
 39
0.25
 370
106
 10
211.1784
 20
214.244391699219
 30
0.0
 11
210.2284
 21
214.949391699219
 31
0.0
 0
LINE
 5
354
100
AcDbEntity
 8
Layer8
100
AcDbLine
 39
0.25
 370
106
 10
210.2284
 20
214.949391699219
 30
0.0
 11
209.4274
 21
215.135391699219
 31
0.0
 0
LINE
 5
355
100
AcDbEntity
 8
Layer8
100
AcDbLine
 39
0.25
 370
106
 10
209.4274
 20
215.135391699219
 30
0.0
 11
208.9434
 21
214.768391699219
 31
0.0
 0
LINE
 5
356
100
AcDbEntity
 8
Layer8
100
AcDbLine
 39
0.25
 370
106
 10
208.9434
 20
214.768391699219
 30
0.0
 11
208.8524
 21
214.244391699219
 31
0.0
 0
LINE
 5
357
100
AcDbEntity
 8
Layer8
100
AcDbLine
 39
0.25
 370
106
 10
212.7674
 20
213.505391699219
 30
0.0
 11
213.9454
 21
211.259391699219
 31
0.0
 0
LINE
 5
358
100
AcDbEntity
 8
Layer8
100
AcDbLine
 39
0.25
 370
106
 10
213.0834
 20
210.874391699219
 30
0.0
 11
211.3364
 21
214.206391699219
 31
0.0
 0
LINE
 5
359
100
AcDbEntity
 8
Layer8
100
AcDbLine
 39
0.25
 370
106
 10
213.0834
 20
210.874391699219
 30
0.0
 11
213.9454
 21
211.259391699219
 31
0.0
 0
LINE
 5
35A
100
AcDbEntity
 8
Layer8
100
AcDbLine
 39
0.25
 370
106
 10
211.3544
 20
214.287391699219
 30
0.0
 11
211.3364
 21
214.206391699219
 31
0.0
 0
ARC
 5
35B
100
AcDbEntity
 8
Layer8
100
AcDbCircle
 39
0.25
 370
106
 10
210.705278652754
 20
211.106939990357
 30
0.0
 40
3.16305470242139
100
AcDbArc
 50
49.3119830386557
 51
78.4905786072487
 0
LINE
 5
35C
100
AcDbEntity
 8
Layer8
100
AcDbLine
 39
0.25
 370
106
 10
212.8134
 20
213.552391699219
 30
0.0
 11
212.7674
 21
213.505391699219
 31
0.0
 0
ARC
 5
35D
100
AcDbEntity
 8
Layer8
100
AcDbCircle
 39
0.25
 370
106
 10
210.673813315917
 20
213.901153389948
 30
0.0
 40
2.24246311557629
100
AcDbArc
 50
35.7210408572323
 51
86.4823989252999
 0
ARC
 5
35E
100
AcDbEntity
 8
Layer8
100
AcDbCircle
 39
0.25
 370
106
 10
209.645526383886
 20
214.482918222138
 30
0.0
 40
0.783260119422906
100
AcDbArc
 50
70.3124044922082
 51
178.941199313839
 0
ARC
 5
35F
100
AcDbEntity
 8
Layer8
100
AcDbCircle
 39
0.25
 370
106
 10
210.28936699978
 20
210.420894852544
 30
0.0
 40
4.04116754479042
100
AcDbArc
 50
49.4905904311341
 51
76.1988417774166
 0
ARC
 5
360
100
AcDbEntity
 8
Layer8
100
AcDbCircle
 39
0.25
 370
106
 10
220.683403649554
 20
216.115119801389
 30
0.0
 40
8.19944363652132
100
AcDbArc
 50
-173.038949990968
 51
-161.352517878482
 0
LINE
 5
361
100
AcDbEntity
 8
Layer8
100
AcDbLine
 39
0.25
 370
106
 10
212.5444
 20
215.121391699219
 30
0.0
 11
212.4944
 21
215.210391699219
 31
0.0
 0
LINE
 5
362
100
AcDbEntity
 8
Layer8
100
AcDbLine
 39
0.25
 370
106
 10
210.3184
 20
215.817391699219
 30
0.0
 11
210.3904
 21
215.817391699219
 31
0.0
 0
LINE
 5
363
100
AcDbEntity
 8
Layer8
100
AcDbLine
 39
0.25
 370
106
 10
210.3904
 20
215.817391699219
 30
0.0
 11
210.3824
 21
215.764391699219
 31
0.0
 0
LINE
 5
364
100
AcDbEntity
 8
Layer8
100
AcDbLine
 39
0.25
 370
106
 10
210.3824
 20
215.764391699219
 30
0.0
 11
210.2224
 21
215.647391699219
 31
0.0
 0
LINE
 5
365
100
AcDbEntity
 8
Layer8
100
AcDbLine
 39
0.25
 370
106
 10
210.2224
 20
215.647391699219
 30
0.0
 11
210.0324
 21
215.584391699219
 31
0.0
 0
LINE
 5
366
100
AcDbEntity
 8
Layer8
100
AcDbLine
 39
0.25
 370
106
 10
210.0324
 20
215.584391699219
 30
0.0
 11
209.9834
 21
215.602391699219
 31
0.0
 0
LINE
 5
367
100
AcDbEntity
 8
Layer8
100
AcDbLine
 39
0.25
 370
106
 10
209.9834
 20
215.602391699219
 30
0.0
 11
210.0244
 21
215.657391699219
 31
0.0
 0
LINE
 5
368
100
AcDbEntity
 8
Layer8
100
AcDbLine
 39
0.25
 370
106
 10
138.1624
 20
215.121391699219
 30
0.0
 11
138.2314
 21
215.210391699219
 31
0.0
 0
LINE
 5
369
100
AcDbEntity
 8
Layer8
100
AcDbLine
 39
0.25
 370
106
 10
140.6314
 20
216.139391699219
 30
0.0
 11
142.0364
 21
215.859391699219
 31
0.0
 0
LINE
 5
36A
100
AcDbEntity
 8
Layer8
100
AcDbLine
 39
0.25
 370
106
 10
142.0364
 20
215.859391699219
 30
0.0
 11
143.0284
 21
215.210391699219
 31
0.0
 0
LINE
 5
36B
100
AcDbEntity
 8
Layer8
100
AcDbLine
 39
0.25
 370
106
 10
143.0244
 20
215.222391699219
 30
0.0
 11
143.0264
 21
215.220391699219
 31
0.0
 0
LINE
 5
36C
100
AcDbEntity
 8
Layer8
100
AcDbLine
 39
0.25
 370
106
 10
138.2314
 20
215.210391699219
 30
0.0
 11
139.2124
 21
215.853391699219
 31
0.0
 0
LINE
 5
36D
100
AcDbEntity
 8
Layer8
100
AcDbLine
 39
0.25
 370
106
 10
139.2124
 20
215.853391699219
 30
0.0
 11
140.6314
 21
216.139391699219
 31
0.0
 0
LINE
 5
36E
100
AcDbEntity
 8
Layer8
100
AcDbLine
 39
0.25
 370
106
 10
138.2314
 20
215.210391699219
 30
0.0
 11
138.2374
 21
215.224391699219
 31
0.0
 0
LINE
 5
36F
100
AcDbEntity
 8
Layer8
100
AcDbLine
 39
0.25
 370
106
 10
138.2374
 20
215.224391699219
 30
0.0
 11
138.2514
 21
215.228391699219
 31
0.0
 0
LINE
 5
370
100
AcDbEntity
 8
Layer8
100
AcDbLine
 39
0.25
 370
106
 10
138.2514
 20
215.228391699219
 30
0.0
 11
138.3014
 21
215.206391699219
 31
0.0
 0
LINE
 5
371
100
AcDbEntity
 8
Layer8
100
AcDbLine
 39
0.25
 370
106
 10
140.6314
 20
216.139391699219
 30
0.0
 11
140.6314
 21
216.112391699219
 31
0.0
 0
ARC
 5
372
100
AcDbEntity
 8
Layer8
100
AcDbCircle
 39
0.25
 370
106
 10
138.750172932458
 20
212.374183528945
 30
0.0
 40
5.14421313864915
100
AcDbArc
 50
13.9622419009265
 51
32.2787323028463
 0
LINE
 5
373
100
AcDbEntity
 8
Layer8
100
AcDbLine
 39
0.25
 370
106
 10
143.7224
 20
213.627391699219
 30
0.0
 11
143.7424
 21
213.615391699219
 31
0.0
 0
ARC
 5
374
100
AcDbEntity
 8
Layer8
100
AcDbCircle
 39
0.25
 370
106
 10
142.842667965743
 20
212.229307655431
 30
0.0
 40
5.5017323042374
100
AcDbArc
 50
148.286783438373
 51
165.407899839602
 0
LINE
 5
375
100
AcDbEntity
 8
Layer8
100
AcDbLine
 39
0.25
 370
106
 10
137.5184
 20
213.615391699219
 30
0.0
 11
137.5384
 21
213.627391699219
 31
0.0
 0
LINE
 5
376
100
AcDbEntity
 8
Layer8
100
AcDbLine
 39
0.25
 370
106
 10
138.1624
 20
215.121391699219
 30
0.0
 11
138.1544
 21
215.113391699219
 31
0.0
 0
LINE
 5
377
100
AcDbEntity
 8
Layer8
100
AcDbLine
 39
0.25
 370
106
 10
138.1544
 20
215.113391699219
 30
0.0
 11
138.1624
 21
215.102391699219
 31
0.0
 0
LINE
 5
378
100
AcDbEntity
 8
Layer8
100
AcDbLine
 39
0.25
 370
106
 10
138.3014
 20
215.206391699219
 30
0.0
 11
138.1624
 21
215.102391699219
 31
0.0
 0
LINE
 5
379
100
AcDbEntity
 8
Layer8
100
AcDbLine
 39
0.25
 370
106
 10
143.0974
 20
215.102391699219
 30
0.0
 11
142.9614
 21
215.206391699219
 31
0.0
 0
LINE
 5
37A
100
AcDbEntity
 8
Layer8
100
AcDbLine
 39
0.25
 370
106
 10
142.9754
 20
214.123391699219
 30
0.0
 11
143.0524
 21
214.107391699219
 31
0.0
 0
LINE
 5
37B
100
AcDbEntity
 8
Layer8
100
AcDbLine
 39
0.25
 370
106
 10
143.0524
 20
214.107391699219
 30
0.0
 11
143.0874
 21
214.090391699219
 31
0.0
 0
LINE
 5
37C
100
AcDbEntity
 8
Layer8
100
AcDbLine
 39
0.25
 370
106
 10
138.1724
 20
214.090391699219
 30
0.0
 11
138.2084
 21
214.107391699219
 31
0.0
 0
LINE
 5
37D
100
AcDbEntity
 8
Layer8
100
AcDbLine
 39
0.25
 370
106
 10
138.2084
 20
214.107391699219
 30
0.0
 11
138.2874
 21
214.123391699219
 31
0.0
 0
LINE
 5
37E
100
AcDbEntity
 8
Layer8
100
AcDbLine
 39
0.25
 370
106
 10
142.9754
 20
214.123391699219
 30
0.0
 11
142.9614
 21
215.206391699219
 31
0.0
 0
LINE
 5
37F
100
AcDbEntity
 8
Layer8
100
AcDbLine
 39
0.25
 370
106
 10
142.9614
 20
215.206391699219
 30
0.0
 11
142.0104
 21
215.833391699219
 31
0.0
 0
LINE
 5
380
100
AcDbEntity
 8
Layer8
100
AcDbLine
 39
0.25
 370
106
 10
142.0104
 20
215.833391699219
 30
0.0
 11
140.6314
 21
216.112391699219
 31
0.0
 0
LINE
 5
381
100
AcDbEntity
 8
Layer8
100
AcDbLine
 39
0.25
 370
106
 10
138.2874
 20
214.123391699219
 30
0.0
 11
138.3014
 21
215.206391699219
 31
0.0
 0
LINE
 5
382
100
AcDbEntity
 8
Layer8
100
AcDbLine
 39
0.25
 370
106
 10
140.6314
 20
216.112391699219
 30
0.0
 11
139.2574
 21
215.835391699219
 31
0.0
 0
LINE
 5
383
100
AcDbEntity
 8
Layer8
100
AcDbLine
 39
0.25
 370
106
 10
139.2574
 20
215.835391699219
 30
0.0
 11
138.3014
 21
215.206391699219
 31
0.0
 0
LINE
 5
384
100
AcDbEntity
 8
Layer8
100
AcDbLine
 39
0.25
 370
106
 10
138.2874
 20
214.098391699219
 30
0.0
 11
138.2874
 21
214.123391699219
 31
0.0
 0
LINE
 5
385
100
AcDbEntity
 8
Layer8
100
AcDbLine
 39
0.25
 370
106
 10
142.9754
 20
214.123391699219
 30
0.0
 11
142.9754
 21
214.098391699219
 31
0.0
 0
LINE
 5
386
100
AcDbEntity
 8
Layer8
100
AcDbLine
 39
0.25
 370
106
 10
137.5384
 20
213.627391699219
 30
0.0
 11
137.4984
 21
213.511391699219
 31
0.0
 0
LINE
 5
387
100
AcDbEntity
 8
Layer8
100
AcDbLine
 39
0.25
 370
106
 10
137.4984
 20
213.511391699219
 30
0.0
 11
137.4944
 21
213.479391699219
 31
0.0
 0
LINE
 5
388
100
AcDbEntity
 8
Layer8
100
AcDbLine
 39
0.25
 370
106
 10
143.0974
 20
215.102391699219
 30
0.0
 11
143.0874
 21
214.064391699219
 31
0.0
 0
LINE
 5
389
100
AcDbEntity
 8
Layer8
100
AcDbLine
 39
0.25
 370
106
 10
143.7224
 20
211.382391699219
 30
0.0
 11
143.7224
 21
213.627391699219
 31
0.0
 0
LINE
 5
38A
100
AcDbEntity
 8
Layer8
100
AcDbLine
 39
0.25
 370
106
 10
143.7224
 20
213.627391699219
 30
0.0
 11
143.0974
 21
215.102391699219
 31
0.0
 0
LINE
 5
38B
100
AcDbEntity
 8
Layer8
100
AcDbLine
 39
0.25
 370
106
 10
138.1724
 20
214.090391699219
 30
0.0
 11
138.1724
 21
214.064391699219
 31
0.0
 0
LINE
 5
38C
100
AcDbEntity
 8
Layer8
100
AcDbLine
 39
0.25
 370
106
 10
138.1624
 20
215.102391699219
 30
0.0
 11
138.1724
 21
214.090391699219
 31
0.0
 0
ARC
 5
38D
100
AcDbEntity
 8
Layer8
100
AcDbCircle
 39
0.25
 370
106
 10
142.403353298376
 20
212.438760947903
 30
0.0
 40
5.0080548777308
100
AcDbArc
 50
147.868155410866
 51
166.270178140384
 0
LINE
 5
38E
100
AcDbEntity
 8
Layer8
100
AcDbLine
 39
0.25
 370
106
 10
137.5384
 20
211.382391699219
 30
0.0
 11
137.5384
 21
213.627391699219
 31
0.0
 0
LINE
 5
38F
100
AcDbEntity
 8
Layer8
100
AcDbLine
 39
0.25
 370
106
 10
143.0874
 20
214.064391699219
 30
0.0
 11
143.0874
 21
211.773391699219
 31
0.0
 0
LINE
 5
390
100
AcDbEntity
 8
Layer8
100
AcDbLine
 39
0.25
 370
106
 10
143.0874
 20
214.064391699219
 30
0.0
 11
143.0524
 21
214.082391699219
 31
0.0
 0
LINE
 5
391
100
AcDbEntity
 8
Layer8
100
AcDbLine
 39
0.25
 370
106
 10
143.0524
 20
214.082391699219
 30
0.0
 11
142.9754
 21
214.098391699219
 31
0.0
 0
LINE
 5
392
100
AcDbEntity
 8
Layer8
100
AcDbLine
 39
0.25
 370
106
 10
138.2874
 20
214.098391699219
 30
0.0
 11
138.1724
 21
214.064391699219
 31
0.0
 0
LINE
 5
393
100
AcDbEntity
 8
Layer8
100
AcDbLine
 39
0.25
 370
106
 10
138.1724
 20
214.064391699219
 30
0.0
 11
138.1724
 21
211.773391699219
 31
0.0
 0
LINE
 5
394
100
AcDbEntity
 8
Layer8
100
AcDbLine
 39
0.25
 370
106
 10
140.6314
 20
211.945391699219
 30
0.0
 11
140.6314
 21
211.914391699219
 31
0.0
 0
LINE
 5
395
100
AcDbEntity
 8
Layer8
100
AcDbLine
 39
0.25
 370
106
 10
138.2874
 20
211.807391699219
 30
0.0
 11
138.2874
 21
214.098391699219
 31
0.0
 0
LINE
 5
396
100
AcDbEntity
 8
Layer8
100
AcDbLine
 39
0.25
 370
106
 10
142.9754
 20
211.807391699219
 30
0.0
 11
142.9754
 21
214.098391699219
 31
0.0
 0
LINE
 5
397
100
AcDbEntity
 8
Layer8
100
AcDbLine
 39
0.25
 370
106
 10
138.3014
 20
211.760391699219
 30
0.0
 11
140.6314
 21
211.945391699219
 31
0.0
 0
LINE
 5
398
100
AcDbEntity
 8
Layer8
100
AcDbLine
 39
0.25
 370
106
 10
142.9614
 20
211.760391699219
 30
0.0
 11
140.6314
 21
211.945391699219
 31
0.0
 0
LINE
 5
399
100
AcDbEntity
 8
Layer8
100
AcDbLine
 39
0.25
 370
106
 10
143.0164
 20
211.744391699219
 30
0.0
 11
142.9614
 21
211.760391699219
 31
0.0
 0
LINE
 5
39A
100
AcDbEntity
 8
Layer8
100
AcDbLine
 39
0.25
 370
106
 10
143.6514
 20
211.350391699219
 30
0.0
 11
143.0164
 21
211.744391699219
 31
0.0
 0
LINE
 5
39B
100
AcDbEntity
 8
Layer8
100
AcDbLine
 39
0.25
 370
106
 10
143.6664
 20
211.337391699219
 30
0.0
 11
143.6514
 21
211.350391699219
 31
0.0
 0
LINE
 5
39C
100
AcDbEntity
 8
Layer8
100
AcDbLine
 39
0.25
 370
106
 10
137.5934
 20
211.337391699219
 30
0.0
 11
138.3014
 21
211.760391699219
 31
0.0
 0
LINE
 5
39D
100
AcDbEntity
 8
Layer8
100
AcDbLine
 39
0.25
 370
106
 10
142.9754
 20
211.807391699219
 30
0.0
 11
140.6314
 21
211.995391699219
 31
0.0
 0
LINE
 5
39E
100
AcDbEntity
 8
Layer8
100
AcDbLine
 39
0.25
 370
106
 10
138.2874
 20
211.807391699219
 30
0.0
 11
140.6314
 21
211.995391699219
 31
0.0
 0
LINE
 5
39F
100
AcDbEntity
 8
Layer8
100
AcDbLine
 39
0.25
 370
106
 10
138.2874
 20
211.807391699219
 30
0.0
 11
138.2084
 21
211.791391699219
 31
0.0
 0
LINE
 5
3A0
100
AcDbEntity
 8
Layer8
100
AcDbLine
 39
0.25
 370
106
 10
138.2084
 20
211.791391699219
 30
0.0
 11
138.1724
 21
211.773391699219
 31
0.0
 0
LINE
 5
3A1
100
AcDbEntity
 8
Layer8
100
AcDbLine
 39
0.25
 370
106
 10
137.5384
 20
211.382391699219
 30
0.0
 11
138.1724
 21
211.773391699219
 31
0.0
 0
LINE
 5
3A2
100
AcDbEntity
 8
Layer8
100
AcDbLine
 39
0.25
 370
106
 10
137.5384
 20
211.382391699219
 30
0.0
 11
137.4964
 21
211.337391699219
 31
0.0
 0
LINE
 5
3A3
100
AcDbEntity
 8
Layer8
100
AcDbLine
 39
0.25
 370
106
 10
137.4964
 20
211.337391699219
 30
0.0
 11
137.4964
 21
211.305391699219
 31
0.0
 0
LINE
 5
3A4
100
AcDbEntity
 8
Layer8
100
AcDbLine
 39
0.25
 370
106
 10
137.4964
 20
211.305391699219
 30
0.0
 11
137.5124
 21
211.281391699219
 31
0.0
 0
LINE
 5
3A5
100
AcDbEntity
 8
Layer8
100
AcDbLine
 39
0.25
 370
106
 10
143.7224
 20
211.382391699219
 30
0.0
 11
143.7554
 21
211.354391699219
 31
0.0
 0
LINE
 5
3A6
100
AcDbEntity
 8
Layer8
100
AcDbLine
 39
0.25
 370
106
 10
143.7554
 20
211.354391699219
 30
0.0
 11
143.7634
 21
211.337391699219
 31
0.0
 0
LINE
 5
3A7
100
AcDbEntity
 8
Layer8
100
AcDbLine
 39
0.25
 370
106
 10
143.7634
 20
211.337391699219
 30
0.0
 11
143.7634
 21
211.305391699219
 31
0.0
 0
LINE
 5
3A8
100
AcDbEntity
 8
Layer8
100
AcDbLine
 39
0.25
 370
106
 10
143.7634
 20
211.305391699219
 30
0.0
 11
143.7494
 21
211.281391699219
 31
0.0
 0
LINE
 5
3A9
100
AcDbEntity
 8
Layer8
100
AcDbLine
 39
0.25
 370
106
 10
143.7224
 20
211.382391699219
 30
0.0
 11
143.0874
 21
211.773391699219
 31
0.0
 0
LINE
 5
3AA
100
AcDbEntity
 8
Layer8
100
AcDbLine
 39
0.25
 370
106
 10
142.9754
 20
211.807391699219
 30
0.0
 11
143.0524
 21
211.791391699219
 31
0.0
 0
LINE
 5
3AB
100
AcDbEntity
 8
Layer8
100
AcDbLine
 39
0.25
 370
106
 10
143.0524
 20
211.791391699219
 30
0.0
 11
143.0874
 21
211.773391699219
 31
0.0
 0
LINE
 5
3AC
100
AcDbEntity
 8
Layer8
100
AcDbLine
 39
0.25
 370
106
 10
70.6524
 20
210.850391699219
 30
0.0
 11
70.6254
 21
210.840391699219
 31
0.0
 0
LINE
 5
3AD
100
AcDbEntity
 8
Layer8
100
AcDbLine
 39
0.25
 370
106
 10
66.8934
 20
211.797391699219
 30
0.0
 11
66.8974
 21
211.773391699219
 31
0.0
 0
LINE
 5
3AE
100
AcDbEntity
 8
Layer8
100
AcDbLine
 39
0.25
 370
106
 10
70.4514
 20
216.139391699219
 30
0.0
 11
70.4074
 21
216.153391699219
 31
0.0
 0
LINE
 5
3AF
100
AcDbEntity
 8
Layer8
100
AcDbLine
 39
0.25
 370
106
 10
68.7084
 20
215.222391699219
 30
0.0
 11
68.7104
 21
215.224391699219
 31
0.0
 0
LINE
 5
3B0
100
AcDbEntity
 8
Layer8
100
AcDbLine
 39
0.25
 370
106
 10
67.1404
 20
211.382391699219
 30
0.0
 11
67.3164
 21
211.259391699219
 31
0.0
 0
LINE
 5
3B1
100
AcDbEntity
 8
Layer8
100
AcDbLine
 39
0.25
 370
106
 10
68.4924
 20
213.505391699219
 30
0.0
 11
68.4074
 21
213.469391699219
 31
0.0
 0
LINE
 5
3B2
100
AcDbEntity
 8
Layer8
100
AcDbLine
 39
0.25
 370
106
 10
68.4074
 20
213.469391699219
 30
0.0
 11
68.3404
 21
213.475391699219
 31
0.0
 0
LINE
 5
3B3
100
AcDbEntity
 8
Layer8
100
AcDbLine
 39
0.25
 370
106
 10
68.3404
 20
213.475391699219
 30
0.0
 11
68.3124
 21
213.511391699219
 31
0.0
 0
LINE
 5
3B4
100
AcDbEntity
 8
Layer8
100
AcDbLine
 39
0.25
 370
106
 10
68.3124
 20
213.511391699219
 30
0.0
 11
68.3164
 21
213.627391699219
 31
0.0
 0
LINE
 5
3B5
100
AcDbEntity
 8
Layer8
100
AcDbLine
 39
0.25
 370
106
 10
68.1804
 20
210.874391699219
 30
0.0
 11
68.2474
 21
210.848391699219
 31
0.0
 0
LINE
 5
3B6
100
AcDbEntity
 8
Layer8
100
AcDbLine
 39
0.25
 370
106
 10
68.2474
 20
210.848391699219
 30
0.0
 11
68.2984
 21
210.840391699219
 31
0.0
 0
LINE
 5
3B7
100
AcDbEntity
 8
Layer8
100
AcDbLine
 39
0.25
 370
106
 10
70.0834
 20
214.244391699219
 30
0.0
 11
69.9964
 21
214.210391699219
 31
0.0
 0
LINE
 5
3B8
100
AcDbEntity
 8
Layer8
100
AcDbLine
 39
0.25
 370
106
 10
69.9964
 20
214.210391699219
 30
0.0
 11
69.9254
 21
214.206391699219
 31
0.0
 0
LINE
 5
3B9
100
AcDbEntity
 8
Layer8
100
AcDbLine
 39
0.25
 370
106
 10
68.6464
 20
215.102391699219
 30
0.0
 11
66.8974
 21
211.773391699219
 31
0.0
 0
LINE
 5
3BA
100
AcDbEntity
 8
Layer8
100
AcDbLine
 39
0.25
 370
106
 10
67.1404
 20
211.382391699219
 30
0.0
 11
66.8974
 21
211.773391699219
 31
0.0
 0
LINE
 5
3BB
100
AcDbEntity
 8
Layer8
100
AcDbLine
 39
0.25
 370
106
 10
68.3164
 20
213.627391699219
 30
0.0
 11
68.3604
 21
213.615391699219
 31
0.0
 0
LINE
 5
3BC
100
AcDbEntity
 8
Layer8
100
AcDbLine
 39
0.25
 370
106
 10
68.6464
 20
215.102391699219
 30
0.0
 11
68.6864
 21
215.119391699219
 31
0.0
 0
LINE
 5
3BD
100
AcDbEntity
 8
Layer8
100
AcDbLine
 39
0.25
 370
106
 10
68.6864
 20
215.119391699219
 30
0.0
 11
68.7194
 21
215.121391699219
 31
0.0
 0
ARC
 5
3BE
100
AcDbEntity
 8
Layer8
100
AcDbCircle
 39
0.25
 370
106
 10
62.6347918370165
 20
215.672946406868
 30
0.0
 40
6.03862280488429
100
AcDbArc
 50
-19.8004455050614
 51
-5.42163561877884
 0
LINE
 5
3BF
100
AcDbEntity
 8
Layer8
100
AcDbLine
 39
0.25
 370
106
 10
72.4094
 20
214.244391699219
 30
0.0
 11
70.6254
 21
210.840391699219
 31
0.0
 0
LINE
 5
3C0
100
AcDbEntity
 8
Layer8
100
AcDbLine
 39
0.25
 370
106
 10
70.0834
 20
214.244391699219
 30
0.0
 11
68.2984
 21
210.840391699219
 31
0.0
 0
LINE
 5
3C1
100
AcDbEntity
 8
Layer8
100
AcDbLine
 39
0.25
 370
106
 10
70.6254
 20
210.840391699219
 30
0.0
 11
68.2984
 21
210.840391699219
 31
0.0
 0
LINE
 5
3C2
100
AcDbEntity
 8
Layer8
100
AcDbLine
 39
0.25
 370
106
 10
70.0834
 20
214.244391699219
 30
0.0
 11
70.0574
 21
214.295391699219
 31
0.0
 0
LINE
 5
3C3
100
AcDbEntity
 8
Layer8
100
AcDbLine
 39
0.25
 370
106
 10
70.0574
 20
214.295391699219
 30
0.0
 11
70.0064
 21
214.345391699219
 31
0.0
 0
LINE
 5
3C4
100
AcDbEntity
 8
Layer8
100
AcDbLine
 39
0.25
 370
106
 10
72.4094
 20
214.244391699219
 30
0.0
 11
72.3174
 21
214.768391699219
 31
0.0
 0
LINE
 5
3C5
100
AcDbEntity
 8
Layer8
100
AcDbLine
 39
0.25
 370
106
 10
72.3174
 20
214.768391699219
 30
0.0
 11
71.8344
 21
215.135391699219
 31
0.0
 0
LINE
 5
3C6
100
AcDbEntity
 8
Layer8
100
AcDbLine
 39
0.25
 370
106
 10
71.8344
 20
215.135391699219
 30
0.0
 11
71.0324
 21
214.949391699219
 31
0.0
 0
LINE
 5
3C7
100
AcDbEntity
 8
Layer8
100
AcDbLine
 39
0.25
 370
106
 10
71.0324
 20
214.949391699219
 30
0.0
 11
70.0834
 21
214.244391699219
 31
0.0
 0
LINE
 5
3C8
100
AcDbEntity
 8
Layer8
100
AcDbLine
 39
0.25
 370
106
 10
68.1804
 20
210.874391699219
 30
0.0
 11
69.9254
 21
214.206391699219
 31
0.0
 0
LINE
 5
3C9
100
AcDbEntity
 8
Layer8
100
AcDbLine
 39
0.25
 370
106
 10
68.1804
 20
210.874391699219
 30
0.0
 11
67.3164
 21
211.259391699219
 31
0.0
 0
LINE
 5
3CA
100
AcDbEntity
 8
Layer8
100
AcDbLine
 39
0.25
 370
106
 10
69.9254
 20
214.206391699219
 30
0.0
 11
69.9074
 21
214.287391699219
 31
0.0
 0
LINE
 5
3CB
100
AcDbEntity
 8
Layer8
100
AcDbLine
 39
0.25
 370
106
 10
68.4924
 20
213.505391699219
 30
0.0
 11
68.4494
 21
213.552391699219
 31
0.0
 0
ARC
 5
3CC
100
AcDbEntity
 8
Layer8
100
AcDbCircle
 39
0.25
 370
106
 10
70.4523639782866
 20
211.313974608088
 30
0.0
 40
2.94002851405813
100
AcDbArc
 50
100.325361728376
 51
131.808876062256
 0
LINE
 5
3CD
100
AcDbEntity
 8
Layer8
100
AcDbLine
 39
0.25
 370
106
 10
70.8484
 20
216.025391699219
 30
0.0
 11
70.4514
 21
216.139391699219
 31
0.0
 0
LINE
 5
3CE
100
AcDbEntity
 8
Layer8
100
AcDbLine
 39
0.25
 370
106
 10
70.4514
 20
216.139391699219
 30
0.0
 11
69.9354
 21
216.025391699219
 31
0.0
 0
LINE
 5
3CF
100
AcDbEntity
 8
Layer8
100
AcDbLine
 39
0.25
 370
106
 10
69.9354
 20
216.025391699219
 30
0.0
 11
68.7314
 21
215.163391699219
 31
0.0
 0
LINE
 5
3D0
100
AcDbEntity
 8
Layer8
100
AcDbLine
 39
0.25
 370
106
 10
68.7314
 20
215.163391699219
 30
0.0
 11
68.3484
 21
213.493391699219
 31
0.0
 0
LINE
 5
3D1
100
AcDbEntity
 8
Layer8
100
AcDbLine
 39
0.25
 370
106
 10
68.3484
 20
213.493391699219
 30
0.0
 11
68.8564
 21
213.864391699219
 31
0.0
 0
LINE
 5
3D2
100
AcDbEntity
 8
Layer8
100
AcDbLine
 39
0.25
 370
106
 10
68.8564
 20
213.864391699219
 30
0.0
 11
70.0064
 21
214.345391699219
 31
0.0
 0
ARC
 5
3D3
100
AcDbEntity
 8
Layer8
100
AcDbCircle
 39
0.25
 370
106
 10
71.6445113679669
 20
214.522454386195
 30
0.0
 40
0.754305115843211
100
AcDbArc
 50
-1.90407105140339
 51
112.290611986602
 0
LINE
 5
3D4
100
AcDbEntity
 8
Layer8
100
AcDbLine
 39
0.25
 370
106
 10
71.2354
 20
215.657391699219
 30
0.0
 11
71.2734
 21
215.615391699219
 31
0.0
 0
LINE
 5
3D5
100
AcDbEntity
 8
Layer8
100
AcDbLine
 39
0.25
 370
106
 10
71.2734
 20
215.615391699219
 30
0.0
 11
71.2554
 21
215.584391699219
 31
0.0
 0
LINE
 5
3D6
100
AcDbEntity
 8
Layer8
100
AcDbLine
 39
0.25
 370
106
 10
71.2554
 20
215.584391699219
 30
0.0
 11
71.0144
 21
215.659391699219
 31
0.0
 0
LINE
 5
3D7
100
AcDbEntity
 8
Layer8
100
AcDbLine
 39
0.25
 370
106
 10
71.0144
 20
215.659391699219
 30
0.0
 11
70.8724
 21
215.776391699219
 31
0.0
 0
LINE
 5
3D8
100
AcDbEntity
 8
Layer8
100
AcDbLine
 39
0.25
 370
106
 10
70.8724
 20
215.776391699219
 30
0.0
 11
70.8784
 21
215.821391699219
 31
0.0
 0
LINE
 5
3D9
100
AcDbEntity
 8
Layer8
100
AcDbLine
 39
0.25
 370
106
 10
70.8784
 20
215.821391699219
 30
0.0
 11
70.9434
 21
215.817391699219
 31
0.0
 0
LINE
 5
3DA
100
AcDbEntity
 8
Layer8
100
AcDbLine
 39
0.25
 370
106
 10
124.6164
 20
332.217391699219
 30
0.0
 11
126.9404
 21
332.217391699219
 31
0.0
 0
LINE
 5
3DB
100
AcDbEntity
 8
Layer8
100
AcDbLine
 39
0.25
 370
106
 10
146.8944
 20
332.217391699219
 30
0.0
 11
149.2184
 21
332.217391699219
 31
0.0
 0
LINE
 5
3DC
100
AcDbEntity
 8
Layer8
100
AcDbLine
 39
0.25
 370
106
 10
159.1954
 20
324.697391699219
 30
0.0
 11
122.0644
 21
324.697391699219
 31
0.0
 0
ARC
 5
3DD
100
AcDbEntity
 8
Layer8
100
AcDbCircle
 39
0.25
 370
106
 10
124.860980923221
 20
331.538846678571
 30
0.0
 40
0.307968960615573
100
AcDbArc
 50
95.5118510653535
 51
-177.123485484215
 0
LINE
 5
3DE
100
AcDbEntity
 8
Layer8
100
AcDbLine
 39
0.25
 370
106
 10
158.8734
 20
331.845391699219
 30
0.0
 11
122.3874
 21
331.845391699219
 31
0.0
 0
LINE
 5
3DF
100
AcDbEntity
 8
Layer8
100
AcDbLine
 39
0.25
 370
106
 10
124.8024
 20
324.638391699219
 30
0.0
 11
124.7824
 21
324.669391699219
 31
0.0
 0
LINE
 5
3E0
100
AcDbEntity
 8
Layer8
100
AcDbLine
 39
0.25
 370
106
 10
124.8494
 20
324.655391699219
 30
0.0
 11
124.8024
 21
324.638391699219
 31
0.0
 0
LINE
 5
3E1
100
AcDbEntity
 8
Layer8
100
AcDbLine
 39
0.25
 370
106
 10
124.9624
 20
324.697391699219
 30
0.0
 11
124.9224
 21
324.681391699219
 31
0.0
 0
LINE
 5
3E2
100
AcDbEntity
 8
Layer8
100
AcDbLine
 39
0.25
 370
106
 10
124.7824
 20
324.669391699219
 30
0.0
 11
124.7764
 21
324.681391699219
 31
0.0
 0
LINE
 5
3E3
100
AcDbEntity
 8
Layer8
100
AcDbLine
 39
0.25
 370
106
 10
124.7984
 20
324.675391699219
 30
0.0
 11
124.7824
 21
324.669391699219
 31
0.0
 0
LINE
 5
3E4
100
AcDbEntity
 8
Layer8
100
AcDbLine
 39
0.25
 370
106
 10
125.0194
 20
324.669391699219
 30
0.0
 11
125.0114
 21
324.697391699219
 31
0.0
 0
LINE
 5
3E5
100
AcDbEntity
 8
Layer8
100
AcDbLine
 39
0.25
 370
106
 10
124.4224
 20
324.638391699219
 30
0.0
 11
124.4164
 21
324.659391699219
 31
0.0
 0
LINE
 5
3E6
100
AcDbEntity
 8
Layer8
100
AcDbLine
 39
0.25
 370
106
 10
124.4224
 20
324.638391699219
 30
0.0
 11
124.4764
 21
324.649391699219
 31
0.0
 0
LINE
 5
3E7
100
AcDbEntity
 8
Layer8
100
AcDbLine
 39
0.25
 370
106
 10
125.0714
 20
324.693391699219
 30
0.0
 11
125.0194
 21
324.669391699219
 31
0.0
 0
LINE
 5
3E8
100
AcDbEntity
 8
Layer8
100
AcDbLine
 39
0.25
 370
106
 10
125.2014
 20
324.638391699219
 30
0.0
 11
125.0194
 21
324.669391699219
 31
0.0
 0
LINE
 5
3E9
100
AcDbEntity
 8
Layer8
100
AcDbLine
 39
0.25
 370
106
 10
125.2234
 20
324.649391699219
 30
0.0
 11
125.2014
 21
324.638391699219
 31
0.0
 0
LINE
 5
3EA
100
AcDbEntity
 8
Layer8
100
AcDbLine
 39
0.25
 370
106
 10
124.2074
 20
324.638391699219
 30
0.0
 11
124.1974
 21
324.697391699219
 31
0.0
 0
LINE
 5
3EB
100
AcDbEntity
 8
Layer8
100
AcDbLine
 39
0.25
 370
106
 10
124.2074
 20
324.638391699219
 30
0.0
 11
124.2354
 21
324.641391699219
 31
0.0
 0
LINE
 5
3EC
100
AcDbEntity
 8
Layer8
100
AcDbLine
 39
0.25
 370
106
 10
125.4644
 20
324.638391699219
 30
0.0
 11
125.2844
 21
324.659391699219
 31
0.0
 0
LINE
 5
3ED
100
AcDbEntity
 8
Layer8
100
AcDbLine
 39
0.25
 370
106
 10
125.4664
 20
324.641391699219
 30
0.0
 11
125.4644
 21
324.638391699219
 31
0.0
 0
LINE
 5
3EE
100
AcDbEntity
 8
Layer8
100
AcDbLine
 39
0.25
 370
106
 10
124.2054
 20
324.697391699219
 30
0.0
 11
124.2354
 21
324.638391699219
 31
0.0
 0
LINE
 5
3EF
100
AcDbEntity
 8
Layer8
100
AcDbLine
 39
0.25
 370
106
 10
124.2354
 20
324.638391699219
 30
0.0
 11
124.2384
 21
324.697391699219
 31
0.0
 0
LINE
 5
3F0
100
AcDbEntity
 8
Layer8
100
AcDbLine
 39
0.25
 370
106
 10
124.2354
 20
324.638391699219
 30
0.0
 11
124.4504
 21
324.663391699219
 31
0.0
 0
LINE
 5
3F1
100
AcDbEntity
 8
Layer8
100
AcDbLine
 39
0.25
 370
106
 10
125.4934
 20
324.638391699219
 30
0.0
 11
125.5034
 21
324.697391699219
 31
0.0
 0
LINE
 5
3F2
100
AcDbEntity
 8
Layer8
100
AcDbLine
 39
0.25
 370
106
 10
125.4934
 20
324.638391699219
 30
0.0
 11
125.2844
 21
324.663391699219
 31
0.0
 0
LINE
 5
3F3
100
AcDbEntity
 8
Layer8
100
AcDbLine
 39
0.25
 370
106
 10
125.4244
 20
324.697391699219
 30
0.0
 11
125.4934
 21
324.638391699219
 31
0.0
 0
LINE
 5
3F4
100
AcDbEntity
 8
Layer8
100
AcDbLine
 39
0.25
 370
106
 10
125.0634
 20
324.697391699219
 30
0.0
 11
125.1304
 21
324.669391699219
 31
0.0
 0
LINE
 5
3F5
100
AcDbEntity
 8
Layer8
100
AcDbLine
 39
0.25
 370
106
 10
125.2764
 20
324.638391699219
 30
0.0
 11
125.1304
 21
324.669391699219
 31
0.0
 0
LINE
 5
3F6
100
AcDbEntity
 8
Layer8
100
AcDbLine
 39
0.25
 370
106
 10
125.2764
 20
324.638391699219
 30
0.0
 11
125.2964
 21
324.697391699219
 31
0.0
 0
LINE
 5
3F7
100
AcDbEntity
 8
Layer8
100
AcDbLine
 39
0.25
 370
106
 10
125.1344
 20
324.697391699219
 30
0.0
 11
125.2764
 21
324.638391699219
 31
0.0
 0
LINE
 5
3F8
100
AcDbEntity
 8
Layer8
100
AcDbLine
 39
0.25
 370
106
 10
124.6814
 20
324.669391699219
 30
0.0
 11
124.6874
 21
324.697391699219
 31
0.0
 0
LINE
 5
3F9
100
AcDbEntity
 8
Layer8
100
AcDbLine
 39
0.25
 370
106
 10
124.4994
 20
324.638391699219
 30
0.0
 11
124.6814
 21
324.669391699219
 31
0.0
 0
LINE
 5
3FA
100
AcDbEntity
 8
Layer8
100
AcDbLine
 39
0.25
 370
106
 10
124.4994
 20
324.638391699219
 30
0.0
 11
124.5154
 21
324.697391699219
 31
0.0
 0
LINE
 5
3FB
100
AcDbEntity
 8
Layer8
100
AcDbLine
 39
0.25
 370
106
 10
124.3814
 20
324.697391699219
 30
0.0
 11
124.4994
 21
324.638391699219
 31
0.0
 0
LINE
 5
3FC
100
AcDbEntity
 8
Layer8
100
AcDbLine
 39
0.25
 370
106
 10
124.8974
 20
324.638391699219
 30
0.0
 11
124.9284
 21
324.697391699219
 31
0.0
 0
LINE
 5
3FD
100
AcDbEntity
 8
Layer8
100
AcDbLine
 39
0.25
 370
106
 10
124.8974
 20
324.638391699219
 30
0.0
 11
124.9184
 21
324.697391699219
 31
0.0
 0
LINE
 5
3FE
100
AcDbEntity
 8
Layer8
100
AcDbLine
 39
0.25
 370
106
 10
124.7374
 20
324.697391699219
 30
0.0
 11
124.8974
 21
324.638391699219
 31
0.0
 0
LINE
 5
3FF
100
AcDbEntity
 8
Layer8
100
AcDbLine
 39
0.25
 370
106
 10
131.5374
 20
324.501391699219
 30
0.0
 11
133.9434
 21
324.501391699219
 31
0.0
 0
LINE
 5
400
100
AcDbEntity
 8
Layer8
100
AcDbLine
 39
0.25
 370
106
 10
125.7624
 20
324.501391699219
 30
0.0
 11
128.1664
 21
324.501391699219
 31
0.0
 0
LINE
 5
401
100
AcDbEntity
 8
Layer8
100
AcDbLine
 39
0.25
 370
106
 10
153.0944
 20
324.501391699219
 30
0.0
 11
155.4994
 21
324.501391699219
 31
0.0
 0
LINE
 5
402
100
AcDbEntity
 8
Layer8
100
AcDbLine
 39
0.25
 370
106
 10
125.8044
 20
332.264391699219
 30
0.0
 11
128.1244
 21
332.264391699219
 31
0.0
 0
LINE
 5
403
100
AcDbEntity
 8
Layer8
100
AcDbLine
 39
0.25
 370
106
 10
139.4714
 20
332.264391699219
 30
0.0
 11
141.7914
 21
332.264391699219
 31
0.0
 0
LINE
 5
404
100
AcDbEntity
 8
Layer8
100
AcDbLine
 39
0.25
 370
106
 10
153.1354
 20
332.264391699219
 30
0.0
 11
155.4584
 21
332.264391699219
 31
0.0
 0
LINE
 5
405
100
AcDbEntity
 8
Layer8
100
AcDbLine
 39
0.25
 370
106
 10
125.9404
 20
332.448391699219
 30
0.0
 11
127.9884
 21
332.448391699219
 31
0.0
 0
LINE
 5
406
100
AcDbEntity
 8
Layer8
100
AcDbLine
 39
0.25
 370
106
 10
139.6074
 20
332.448391699219
 30
0.0
 11
141.6544
 21
332.448391699219
 31
0.0
 0
LINE
 5
407
100
AcDbEntity
 8
Layer8
100
AcDbLine
 39
0.25
 370
106
 10
153.2724
 20
332.448391699219
 30
0.0
 11
155.3214
 21
332.448391699219
 31
0.0
 0
LINE
 5
408
100
AcDbEntity
 8
Layer8
100
AcDbLine
 39
0.25
 370
106
 10
137.4944
 20
211.242391699219
 30
0.0
 11
137.4944
 21
206.467391699219
 31
0.0
 0
LINE
 5
409
100
AcDbEntity
 8
Layer8
100
AcDbLine
 39
0.25
 370
106
 10
143.7654
 20
206.467391699219
 30
0.0
 11
143.7654
 21
211.242391699219
 31
0.0
 0
LINE
 5
40A
100
AcDbEntity
 8
Layer8
100
AcDbLine
 39
0.25
 370
106
 10
137.4944
 20
206.465391699219
 30
0.0
 11
137.4944
 21
145.327391699219
 31
0.0
 0
LINE
 5
40B
100
AcDbEntity
 8
Layer8
100
AcDbLine
 39
0.25
 370
106
 10
143.7654
 20
145.327391699219
 30
0.0
 11
143.7654
 21
206.467391699219
 31
0.0
 0
LINE
 5
40C
100
AcDbEntity
 8
Layer8
100
AcDbLine
 39
0.25
 370
106
 10
68.1274
 20
205.996391699219
 30
0.0
 11
70.6114
 21
210.769391699219
 31
0.0
 0
LINE
 5
40D
100
AcDbEntity
 8
Layer8
100
AcDbLine
 39
0.25
 370
106
 10
66.8504
 20
211.718391699219
 30
0.0
 11
64.3654
 21
206.943391699219
 31
0.0
 0
LINE
 5
40E
100
AcDbEntity
 8
Layer8
100
AcDbLine
 39
0.25
 370
106
 10
80.6514
 20
148.566391699219
 30
0.0
 11
81.7344
 21
148.218391699219
 31
0.0
 0
ARC
 5
40F
100
AcDbEntity
 8
Layer8
100
AcDbCircle
 39
0.25
 370
106
 10
81.9226750273176
 20
177.286650691331
 30
0.0
 40
23.2102856907306
100
AcDbArc
 50
-157.16542133572
 51
-131.720132902075
 0
LINE
 5
410
100
AcDbEntity
 8
Layer8
100
AcDbLine
 39
0.25
 370
106
 10
65.0374
 20
199.585391699219
 30
0.0
 11
68.1324
 21
205.992391699219
 31
0.0
 0
LINE
 5
411
100
AcDbEntity
 8
Layer8
100
AcDbLine
 39
0.25
 370
106
 10
210.6514
 20
210.769391699219
 30
0.0
 11
213.1334
 21
205.996391699219
 31
0.0
 0
LINE
 5
412
100
AcDbEntity
 8
Layer8
100
AcDbLine
 39
0.25
 370
106
 10
216.8944
 20
206.943391699219
 30
0.0
 11
214.4104
 21
211.718391699219
 31
0.0
 0
LINE
 5
413
100
AcDbEntity
 8
Layer8
100
AcDbLine
 39
0.25
 370
106
 10
199.5254
 20
148.218391699219
 30
0.0
 11
200.6084
 21
148.566391699219
 31
0.0
 0
LINE
 5
414
100
AcDbEntity
 8
Layer8
100
AcDbLine
 39
0.25
 370
106
 10
213.1294
 20
205.992391699219
 30
0.0
 11
216.2124
 21
199.605391699219
 31
0.0
 0
ARC
 5
415
100
AcDbEntity
 8
Layer8
100
AcDbCircle
 39
0.25
 370
106
 10
197.24869091404
 20
178.768711638027
 30
0.0
 40
25.718568378649
100
AcDbArc
 50
-47.9291290452988
 51
-24.1821381352735
 0
LINE
 5
416
100
AcDbEntity
 8
Layer8
100
AcDbLine
 39
0.25
 370
106
 10
210.3584
 20
215.740391699219
 30
0.0
 11
153.6264
 21
324.007391699219
 31
0.0
 0
LINE
 5
417
100
AcDbEntity
 8
Layer8
100
AcDbLine
 39
0.25
 370
106
 10
153.3294
 20
323.853391699219
 30
0.0
 11
210.0604
 21
215.590391699219
 31
0.0
 0
LINE
 5
418
100
AcDbEntity
 8
Layer8
100
AcDbLine
 39
0.25
 370
106
 10
140.7974
 20
216.127391699219
 30
0.0
 11
140.7974
 21
323.930391699219
 31
0.0
 0
LINE
 5
419
100
AcDbEntity
 8
Layer8
100
AcDbLine
 39
0.25
 370
106
 10
140.4634
 20
323.930391699219
 30
0.0
 11
140.4634
 21
216.127391699219
 31
0.0
 0
LINE
 5
41A
100
AcDbEntity
 8
Layer8
100
AcDbLine
 39
0.25
 370
106
 10
71.2004
 20
215.590391699219
 30
0.0
 11
127.9324
 21
323.853391699219
 31
0.0
 0
LINE
 5
41B
100
AcDbEntity
 8
Layer8
100
AcDbLine
 39
0.25
 370
106
 10
127.6364
 20
324.007391699219
 30
0.0
 11
70.9014
 21
215.738391699219
 31
0.0
 0
LINE
 5
41C
100
AcDbEntity
 8
Layer8
100
AcDbLine
 39
0.25
 370
106
 10
210.7184
 20
210.840391699219
 30
0.0
 11
210.7324
 21
210.813391699219
 31
0.0
 0
LINE
 5
41D
100
AcDbEntity
 8
Layer8
100
AcDbLine
 39
0.25
 370
106
 10
208.8444
 20
214.212391699219
 30
0.0
 11
210.6094
 21
210.850391699219
 31
0.0
 0
LINE
 5
41E
100
AcDbEntity
 8
Layer8
100
AcDbLine
 39
0.25
 370
106
 10
208.8284
 20
214.291391699219
 30
0.0
 11
208.8464
 21
214.214391699219
 31
0.0
 0
LINE
 5
41F
100
AcDbEntity
 8
Layer8
100
AcDbLine
 39
0.25
 370
106
 10
210.8524
 20
216.151391699219
 30
0.0
 11
210.6134
 21
216.119391699219
 31
0.0
 0
LINE
 5
420
100
AcDbEntity
 8
Layer8
100
AcDbLine
 39
0.25
 370
106
 10
210.6134
 20
216.119391699219
 30
0.0
 11
210.4074
 21
216.017391699219
 31
0.0
 0
LINE
 5
421
100
AcDbEntity
 8
Layer8
100
AcDbLine
 39
0.25
 370
106
 10
214.3274
 20
211.675391699219
 30
0.0
 11
214.3174
 21
211.698391699219
 31
0.0
 0
LINE
 5
422
100
AcDbEntity
 8
Layer8
100
AcDbLine
 39
0.25
 370
106
 10
214.3684
 20
211.797391699219
 30
0.0
 11
212.6014
 21
215.159391699219
 31
0.0
 0
LINE
 5
423
100
AcDbEntity
 8
Layer8
100
AcDbLine
 39
0.25
 370
106
 10
212.6014
 20
215.157391699219
 30
0.0
 11
212.5504
 21
215.224391699219
 31
0.0
 0
ARC
 5
424
100
AcDbEntity
 8
Layer8
100
AcDbCircle
 39
0.25
 370
106
 10
210.689071718142
 20
213.8325130059
 30
0.0
 40
2.32179892329515
100
AcDbArc
 50
36.7096425513771
 51
84.975966855204
 0
LINE
 5
425
100
AcDbEntity
 8
Layer8
100
AcDbLine
 39
0.25
 370
106
 10
208.8364
 20
214.441391699219
 30
0.0
 11
208.8264
 21
214.291391699219
 31
0.0
 0
LINE
 5
426
100
AcDbEntity
 8
Layer8
100
AcDbLine
 39
0.25
 370
106
 10
209.9884
 20
215.728391699219
 30
0.0
 11
209.1724
 21
215.157391699219
 31
0.0
 0
LINE
 5
427
100
AcDbEntity
 8
Layer8
100
AcDbLine
 39
0.25
 370
106
 10
210.4114
 20
216.025391699219
 30
0.0
 11
210.2654
 21
215.920391699219
 31
0.0
 0
LINE
 5
428
100
AcDbEntity
 8
Layer8
100
AcDbLine
 39
0.25
 370
106
 10
143.1054
 20
215.119391699219
 30
0.0
 11
143.0524
 21
215.193391699219
 31
0.0
 0
LINE
 5
429
100
AcDbEntity
 8
Layer8
100
AcDbLine
 39
0.25
 370
106
 10
143.0524
 20
215.193391699219
 30
0.0
 11
143.0224
 21
215.222391699219
 31
0.0
 0
LINE
 5
42A
100
AcDbEntity
 8
Layer8
100
AcDbLine
 39
0.25
 370
106
 10
143.7654
 20
213.479391699219
 30
0.0
 11
143.7424
 21
213.617391699219
 31
0.0
 0
LINE
 5
42B
100
AcDbEntity
 8
Layer8
100
AcDbLine
 39
0.25
 370
106
 10
137.5184
 20
213.605391699219
 30
0.0
 11
137.4964
 21
213.479391699219
 31
0.0
 0
LINE
 5
42C
100
AcDbEntity
 8
Layer8
100
AcDbLine
 39
0.25
 370
106
 10
143.7654
 20
211.321391699219
 30
0.0
 11
143.7654
 21
213.479391699219
 31
0.0
 0
LINE
 5
42D
100
AcDbEntity
 8
Layer8
100
AcDbLine
 39
0.25
 370
106
 10
137.4944
 20
213.479391699219
 30
0.0
 11
137.4944
 21
211.321391699219
 31
0.0
 0
LINE
 5
42E
100
AcDbEntity
 8
Layer8
100
AcDbLine
 39
0.25
 370
106
 10
70.5284
 20
210.813391699219
 30
0.0
 11
70.5424
 21
210.840391699219
 31
0.0
 0
LINE
 5
42F
100
AcDbEntity
 8
Layer8
100
AcDbLine
 39
0.25
 370
106
 10
70.6524
 20
210.850391699219
 30
0.0
 11
72.4154
 21
214.214391699219
 31
0.0
 0
LINE
 5
430
100
AcDbEntity
 8
Layer8
100
AcDbLine
 39
0.25
 370
106
 10
72.4134
 20
214.214391699219
 30
0.0
 11
72.4294
 21
214.252391699219
 31
0.0
 0
LINE
 5
431
100
AcDbEntity
 8
Layer8
100
AcDbLine
 39
0.25
 370
106
 10
72.4294
 20
214.252391699219
 30
0.0
 11
72.4314
 21
214.291391699219
 31
0.0
 0
ARC
 5
432
100
AcDbEntity
 8
Layer8
100
AcDbCircle
 39
0.25
 370
106
 10
70.4671186127386
 20
215.516576361803
 30
0.0
 40
0.629614802046816
100
AcDbArc
 50
50.6417164424563
 51
92.8876580220013
 0
LINE
 5
433
100
AcDbEntity
 8
Layer8
100
AcDbLine
 39
0.25
 370
106
 10
66.9454
 20
211.698391699219
 30
0.0
 11
66.9334
 21
211.675391699219
 31
0.0
 0
LINE
 5
434
100
AcDbEntity
 8
Layer8
100
AcDbLine
 39
0.25
 370
106
 10
68.0934
 20
214.088391699219
 30
0.0
 11
66.8934
 21
211.797391699219
 31
0.0
 0
LINE
 5
435
100
AcDbEntity
 8
Layer8
100
AcDbLine
 39
0.25
 370
106
 10
68.1074
 20
214.113391699219
 30
0.0
 11
68.0934
 21
214.088391699219
 31
0.0
 0
LINE
 5
436
100
AcDbEntity
 8
Layer8
100
AcDbLine
 39
0.25
 370
106
 10
68.6604
 20
215.159391699219
 30
0.0
 11
68.1074
 21
214.113391699219
 31
0.0
 0
LINE
 5
437
100
AcDbEntity
 8
Layer8
100
AcDbLine
 39
0.25
 370
106
 10
68.7124
 20
215.222391699219
 30
0.0
 11
68.6604
 21
215.157391699219
 31
0.0
 0
ARC
 5
438
100
AcDbEntity
 8
Layer8
100
AcDbCircle
 39
0.25
 370
106
 10
71.0364129378321
 20
212.985925654546
 30
0.0
 40
3.22539527682347
100
AcDbArc
 50
101.245825848139
 51
136.14999899065
 0
LINE
 5
439
100
AcDbEntity
 8
Layer8
100
AcDbLine
 39
0.25
 370
106
 10
72.4334
 20
214.291391699219
 30
0.0
 11
72.4274
 21
214.445391699219
 31
0.0
 0
LINE
 5
43A
100
AcDbEntity
 8
Layer8
100
AcDbLine
 39
0.25
 370
106
 10
70.9964
 20
215.920391699219
 30
0.0
 11
70.8484
 21
216.025391699219
 31
0.0
 0
LINE
 5
43B
100
AcDbEntity
 8
Layer8
100
AcDbLine
 39
0.25
 370
106
 10
72.0874
 20
215.157391699219
 30
0.0
 11
71.2734
 21
215.728391699219
 31
0.0
 0
LINE
 5
43C
100
AcDbEntity
 8
Layer8
100
AcDbLine
 39
0.25
 370
106
 10
127.4664
 20
332.000391699219
 30
0.0
 11
127.2254
 21
332.160391699219
 31
0.0
 0
LINE
 5
43D
100
AcDbEntity
 8
Layer8
100
AcDbLine
 39
0.25
 370
106
 10
127.2254
 20
332.160391699219
 30
0.0
 11
126.9404
 21
332.217391699219
 31
0.0
 0
LINE
 5
43E
100
AcDbEntity
 8
Layer8
100
AcDbLine
 39
0.25
 370
106
 10
124.6164
 20
332.217391699219
 30
0.0
 11
124.4724
 21
332.203391699219
 31
0.0
 0
LINE
 5
43F
100
AcDbEntity
 8
Layer8
100
AcDbLine
 39
0.25
 370
106
 10
124.4724
 20
332.203391699219
 30
0.0
 11
124.2664
 21
332.130391699219
 31
0.0
 0
LINE
 5
440
100
AcDbEntity
 8
Layer8
100
AcDbLine
 39
0.25
 370
106
 10
124.2664
 20
332.130391699219
 30
0.0
 11
124.0474
 21
331.954391699219
 31
0.0
 0
LINE
 5
441
100
AcDbEntity
 8
Layer8
100
AcDbLine
 39
0.25
 370
106
 10
127.5094
 20
331.954391699219
 30
0.0
 11
127.4664
 21
332.000391699219
 31
0.0
 0
LINE
 5
442
100
AcDbEntity
 8
Layer8
100
AcDbLine
 39
0.25
 370
106
 10
124.0474
 20
331.954391699219
 30
0.0
 11
123.9264
 21
331.873391699219
 31
0.0
 0
LINE
 5
443
100
AcDbEntity
 8
Layer8
100
AcDbLine
 39
0.25
 370
106
 10
123.9264
 20
331.873391699219
 30
0.0
 11
123.7844
 21
331.845391699219
 31
0.0
 0
LINE
 5
444
100
AcDbEntity
 8
Layer8
100
AcDbLine
 39
0.25
 370
106
 10
127.7724
 20
331.845391699219
 30
0.0
 11
127.6304
 21
331.873391699219
 31
0.0
 0
LINE
 5
445
100
AcDbEntity
 8
Layer8
100
AcDbLine
 39
0.25
 370
106
 10
127.6304
 20
331.873391699219
 30
0.0
 11
127.5094
 21
331.954391699219
 31
0.0
 0
LINE
 5
446
100
AcDbEntity
 8
Layer8
100
AcDbLine
 39
0.25
 370
106
 10
149.7444
 20
332.000391699219
 30
0.0
 11
149.5034
 21
332.160391699219
 31
0.0
 0
LINE
 5
447
100
AcDbEntity
 8
Layer8
100
AcDbLine
 39
0.25
 370
106
 10
149.5034
 20
332.160391699219
 30
0.0
 11
149.2184
 21
332.217391699219
 31
0.0
 0
LINE
 5
448
100
AcDbEntity
 8
Layer8
100
AcDbLine
 39
0.25
 370
106
 10
146.8944
 20
332.217391699219
 30
0.0
 11
146.7504
 21
332.203391699219
 31
0.0
 0
LINE
 5
449
100
AcDbEntity
 8
Layer8
100
AcDbLine
 39
0.25
 370
106
 10
146.7504
 20
332.203391699219
 30
0.0
 11
146.5444
 21
332.130391699219
 31
0.0
 0
LINE
 5
44A
100
AcDbEntity
 8
Layer8
100
AcDbLine
 39
0.25
 370
106
 10
146.5444
 20
332.130391699219
 30
0.0
 11
146.3254
 21
331.954391699219
 31
0.0
 0
LINE
 5
44B
100
AcDbEntity
 8
Layer8
100
AcDbLine
 39
0.25
 370
106
 10
149.7874
 20
331.954391699219
 30
0.0
 11
149.7444
 21
332.000391699219
 31
0.0
 0
LINE
 5
44C
100
AcDbEntity
 8
Layer8
100
AcDbLine
 39
0.25
 370
106
 10
146.3254
 20
331.954391699219
 30
0.0
 11
146.2044
 21
331.873391699219
 31
0.0
 0
LINE
 5
44D
100
AcDbEntity
 8
Layer8
100
AcDbLine
 39
0.25
 370
106
 10
146.2044
 20
331.873391699219
 30
0.0
 11
146.0624
 21
331.845391699219
 31
0.0
 0
LINE
 5
44E
100
AcDbEntity
 8
Layer8
100
AcDbLine
 39
0.25
 370
106
 10
150.0504
 20
331.845391699219
 30
0.0
 11
149.9084
 21
331.873391699219
 31
0.0
 0
LINE
 5
44F
100
AcDbEntity
 8
Layer8
100
AcDbLine
 39
0.25
 370
106
 10
149.9084
 20
331.873391699219
 30
0.0
 11
149.7874
 21
331.954391699219
 31
0.0
 0
LINE
 5
450
100
AcDbEntity
 8
Layer8
100
AcDbLine
 39
0.25
 370
106
 10
122.0644
 20
331.523391699219
 30
0.0
 11
122.0644
 21
324.697391699219
 31
0.0
 0
LINE
 5
451
100
AcDbEntity
 8
Layer8
100
AcDbLine
 39
0.25
 370
106
 10
159.1954
 20
324.697391699219
 30
0.0
 11
159.1954
 21
331.523391699219
 31
0.0
 0
ARC
 5
452
100
AcDbEntity
 8
Layer8
100
AcDbCircle
 39
0.25
 370
106
 10
122.385149179731
 20
331.524647956834
 30
0.0
 40
0.320751639856976
100
AcDbArc
 50
89.597933278388
 51
-179.775594464995
 0
ARC
 5
453
100
AcDbEntity
 8
Layer8
100
AcDbCircle
 39
0.25
 370
106
 10
158.878810891051
 20
331.528802590314
 30
0.0
 40
0.316635344911567
100
AcDbArc
 50
-0.979158893824519
 51
90.9791588861193
 0
LINE
 5
454
100
AcDbEntity
 8
Layer8
100
AcDbLine
 39
0.25
 370
106
 10
131.5374
 20
324.697391699219
 30
0.0
 11
131.5374
 21
324.501391699219
 31
0.0
 0
LINE
 5
455
100
AcDbEntity
 8
Layer8
100
AcDbLine
 39
0.25
 370
106
 10
133.9434
 20
324.501391699219
 30
0.0
 11
133.9434
 21
324.697391699219
 31
0.0
 0
LINE
 5
456
100
AcDbEntity
 8
Layer8
100
AcDbLine
 39
0.25
 370
106
 10
125.7624
 20
324.697391699219
 30
0.0
 11
125.7624
 21
324.501391699219
 31
0.0
 0
LINE
 5
457
100
AcDbEntity
 8
Layer8
100
AcDbLine
 39
0.25
 370
106
 10
128.1664
 20
324.501391699219
 30
0.0
 11
128.1664
 21
324.697391699219
 31
0.0
 0
LINE
 5
458
100
AcDbEntity
 8
Layer8
100
AcDbLine
 39
0.25
 370
106
 10
153.0944
 20
324.697391699219
 30
0.0
 11
153.0944
 21
324.501391699219
 31
0.0
 0
LINE
 5
459
100
AcDbEntity
 8
Layer8
100
AcDbLine
 39
0.25
 370
106
 10
155.4994
 20
324.501391699219
 30
0.0
 11
155.4994
 21
324.697391699219
 31
0.0
 0
LINE
 5
45A
100
AcDbEntity
 8
Layer8
100
AcDbLine
 39
0.25
 370
106
 10
128.3104
 20
332.077391699219
 30
0.0
 11
128.2564
 21
332.209391699219
 31
0.0
 0
LINE
 5
45B
100
AcDbEntity
 8
Layer8
100
AcDbLine
 39
0.25
 370
106
 10
128.2564
 20
332.209391699219
 30
0.0
 11
128.1244
 21
332.264391699219
 31
0.0
 0
LINE
 5
45C
100
AcDbEntity
 8
Layer8
100
AcDbLine
 39
0.25
 370
106
 10
125.8044
 20
332.264391699219
 30
0.0
 11
125.7334
 21
332.249391699219
 31
0.0
 0
LINE
 5
45D
100
AcDbEntity
 8
Layer8
100
AcDbLine
 39
0.25
 370
106
 10
125.7334
 20
332.249391699219
 30
0.0
 11
125.6814
 21
332.217391699219
 31
0.0
 0
LINE
 5
45E
100
AcDbEntity
 8
Layer8
100
AcDbLine
 39
0.25
 370
106
 10
128.3104
 20
331.845391699219
 30
0.0
 11
128.3104
 21
332.077391699219
 31
0.0
 0
LINE
 5
45F
100
AcDbEntity
 8
Layer8
100
AcDbLine
 39
0.25
 370
106
 10
141.9774
 20
331.845391699219
 30
0.0
 11
141.9774
 21
332.077391699219
 31
0.0
 0
LINE
 5
460
100
AcDbEntity
 8
Layer8
100
AcDbLine
 39
0.25
 370
106
 10
139.2854
 20
332.077391699219
 30
0.0
 11
139.2854
 21
331.845391699219
 31
0.0
 0
LINE
 5
461
100
AcDbEntity
 8
Layer8
100
AcDbLine
 39
0.25
 370
106
 10
141.9774
 20
332.077391699219
 30
0.0
 11
141.9214
 21
332.209391699219
 31
0.0
 0
LINE
 5
462
100
AcDbEntity
 8
Layer8
100
AcDbLine
 39
0.25
 370
106
 10
141.9214
 20
332.209391699219
 30
0.0
 11
141.7914
 21
332.264391699219
 31
0.0
 0
LINE
 5
463
100
AcDbEntity
 8
Layer8
100
AcDbLine
 39
0.25
 370
106
 10
139.4714
 20
332.264391699219
 30
0.0
 11
139.3384
 21
332.209391699219
 31
0.0
 0
LINE
 5
464
100
AcDbEntity
 8
Layer8
100
AcDbLine
 39
0.25
 370
106
 10
139.3384
 20
332.209391699219
 30
0.0
 11
139.2854
 21
332.077391699219
 31
0.0
 0
LINE
 5
465
100
AcDbEntity
 8
Layer8
100
AcDbLine
 39
0.25
 370
106
 10
155.6434
 20
332.077391699219
 30
0.0
 11
155.5884
 21
332.209391699219
 31
0.0
 0
LINE
 5
466
100
AcDbEntity
 8
Layer8
100
AcDbLine
 39
0.25
 370
106
 10
155.5884
 20
332.209391699219
 30
0.0
 11
155.4584
 21
332.264391699219
 31
0.0
 0
LINE
 5
467
100
AcDbEntity
 8
Layer8
100
AcDbLine
 39
0.25
 370
106
 10
153.1354
 20
332.264391699219
 30
0.0
 11
153.0054
 21
332.209391699219
 31
0.0
 0
LINE
 5
468
100
AcDbEntity
 8
Layer8
100
AcDbLine
 39
0.25
 370
106
 10
153.0054
 20
332.209391699219
 30
0.0
 11
152.9524
 21
332.077391699219
 31
0.0
 0
LINE
 5
469
100
AcDbEntity
 8
Layer8
100
AcDbLine
 39
0.25
 370
106
 10
155.6434
 20
331.845391699219
 30
0.0
 11
155.6434
 21
332.077391699219
 31
0.0
 0
LINE
 5
46A
100
AcDbEntity
 8
Layer8
100
AcDbLine
 39
0.25
 370
106
 10
152.9524
 20
332.077391699219
 30
0.0
 11
152.9524
 21
331.845391699219
 31
0.0
 0
LINE
 5
46B
100
AcDbEntity
 8
Layer8
100
AcDbLine
 39
0.25
 370
106
 10
127.8914
 20
332.264391699219
 30
0.0
 11
128.0154
 21
332.385391699219
 31
0.0
 0
LINE
 5
46C
100
AcDbEntity
 8
Layer8
100
AcDbLine
 39
0.25
 370
106
 10
125.9144
 20
332.385391699219
 30
0.0
 11
126.0374
 21
332.264391699219
 31
0.0
 0
LINE
 5
46D
100
AcDbEntity
 8
Layer8
100
AcDbLine
 39
0.25
 370
106
 10
128.0154
 20
332.385391699219
 30
0.0
 11
128.0254
 21
332.415391699219
 31
0.0
 0
LINE
 5
46E
100
AcDbEntity
 8
Layer8
100
AcDbLine
 39
0.25
 370
106
 10
128.0254
 20
332.415391699219
 30
0.0
 11
128.0214
 21
332.426391699219
 31
0.0
 0
LINE
 5
46F
100
AcDbEntity
 8
Layer8
100
AcDbLine
 39
0.25
 370
106
 10
128.0214
 20
332.426391699219
 30
0.0
 11
128.0094
 21
332.442391699219
 31
0.0
 0
LINE
 5
470
100
AcDbEntity
 8
Layer8
100
AcDbLine
 39
0.25
 370
106
 10
128.0094
 20
332.442391699219
 30
0.0
 11
127.9884
 21
332.448391699219
 31
0.0
 0
LINE
 5
471
100
AcDbEntity
 8
Layer8
100
AcDbLine
 39
0.25
 370
106
 10
125.9404
 20
332.448391699219
 30
0.0
 11
125.9284
 21
332.448391699219
 31
0.0
 0
LINE
 5
472
100
AcDbEntity
 8
Layer8
100
AcDbLine
 39
0.25
 370
106
 10
125.9284
 20
332.448391699219
 30
0.0
 11
125.9104
 21
332.434391699219
 31
0.0
 0
LINE
 5
473
100
AcDbEntity
 8
Layer8
100
AcDbLine
 39
0.25
 370
106
 10
125.9104
 20
332.434391699219
 30
0.0
 11
125.9034
 21
332.405391699219
 31
0.0
 0
LINE
 5
474
100
AcDbEntity
 8
Layer8
100
AcDbLine
 39
0.25
 370
106
 10
125.9034
 20
332.405391699219
 30
0.0
 11
125.9144
 21
332.385391699219
 31
0.0
 0
LINE
 5
475
100
AcDbEntity
 8
Layer8
100
AcDbLine
 39
0.25
 370
106
 10
141.5604
 20
332.264391699219
 30
0.0
 11
141.6804
 21
332.385391699219
 31
0.0
 0
LINE
 5
476
100
AcDbEntity
 8
Layer8
100
AcDbLine
 39
0.25
 370
106
 10
139.5794
 20
332.385391699219
 30
0.0
 11
139.7024
 21
332.264391699219
 31
0.0
 0
LINE
 5
477
100
AcDbEntity
 8
Layer8
100
AcDbLine
 39
0.25
 370
106
 10
141.6804
 20
332.385391699219
 30
0.0
 11
141.6924
 21
332.415391699219
 31
0.0
 0
LINE
 5
478
100
AcDbEntity
 8
Layer8
100
AcDbLine
 39
0.25
 370
106
 10
141.6924
 20
332.415391699219
 30
0.0
 11
141.6884
 21
332.426391699219
 31
0.0
 0
LINE
 5
479
100
AcDbEntity
 8
Layer8
100
AcDbLine
 39
0.25
 370
106
 10
141.6884
 20
332.426391699219
 30
0.0
 11
141.6764
 21
332.442391699219
 31
0.0
 0
LINE
 5
47A
100
AcDbEntity
 8
Layer8
100
AcDbLine
 39
0.25
 370
106
 10
141.6764
 20
332.442391699219
 30
0.0
 11
141.6544
 21
332.448391699219
 31
0.0
 0
LINE
 5
47B
100
AcDbEntity
 8
Layer8
100
AcDbLine
 39
0.25
 370
106
 10
139.6074
 20
332.448391699219
 30
0.0
 11
139.5854
 21
332.442391699219
 31
0.0
 0
LINE
 5
47C
100
AcDbEntity
 8
Layer8
100
AcDbLine
 39
0.25
 370
106
 10
139.5854
 20
332.442391699219
 30
0.0
 11
139.5714
 21
332.426391699219
 31
0.0
 0
LINE
 5
47D
100
AcDbEntity
 8
Layer8
100
AcDbLine
 39
0.25
 370
106
 10
139.5714
 20
332.426391699219
 30
0.0
 11
139.5694
 21
332.405391699219
 31
0.0
 0
LINE
 5
47E
100
AcDbEntity
 8
Layer8
100
AcDbLine
 39
0.25
 370
106
 10
139.5694
 20
332.405391699219
 30
0.0
 11
139.5794
 21
332.385391699219
 31
0.0
 0
LINE
 5
47F
100
AcDbEntity
 8
Layer8
100
AcDbLine
 39
0.25
 370
106
 10
155.2244
 20
332.264391699219
 30
0.0
 11
155.3474
 21
332.385391699219
 31
0.0
 0
LINE
 5
480
100
AcDbEntity
 8
Layer8
100
AcDbLine
 39
0.25
 370
106
 10
153.2464
 20
332.385391699219
 30
0.0
 11
153.3694
 21
332.264391699219
 31
0.0
 0
LINE
 5
481
100
AcDbEntity
 8
Layer8
100
AcDbLine
 39
0.25
 370
106
 10
155.3474
 20
332.385391699219
 30
0.0
 11
155.3574
 21
332.405391699219
 31
0.0
 0
LINE
 5
482
100
AcDbEntity
 8
Layer8
100
AcDbLine
 39
0.25
 370
106
 10
155.3574
 20
332.405391699219
 30
0.0
 11
155.3554
 21
332.426391699219
 31
0.0
 0
LINE
 5
483
100
AcDbEntity
 8
Layer8
100
AcDbLine
 39
0.25
 370
106
 10
155.3554
 20
332.426391699219
 30
0.0
 11
155.3414
 21
332.442391699219
 31
0.0
 0
LINE
 5
484
100
AcDbEntity
 8
Layer8
100
AcDbLine
 39
0.25
 370
106
 10
155.3414
 20
332.442391699219
 30
0.0
 11
155.3214
 21
332.448391699219
 31
0.0
 0
LINE
 5
485
100
AcDbEntity
 8
Layer8
100
AcDbLine
 39
0.25
 370
106
 10
153.2724
 20
332.448391699219
 30
0.0
 11
153.2604
 21
332.448391699219
 31
0.0
 0
LINE
 5
486
100
AcDbEntity
 8
Layer8
100
AcDbLine
 39
0.25
 370
106
 10
153.2604
 20
332.448391699219
 30
0.0
 11
153.2384
 21
332.426391699219
 31
0.0
 0
LINE
 5
487
100
AcDbEntity
 8
Layer8
100
AcDbLine
 39
0.25
 370
106
 10
153.2384
 20
332.426391699219
 30
0.0
 11
153.2364
 21
332.405391699219
 31
0.0
 0
LINE
 5
488
100
AcDbEntity
 8
Layer8
100
AcDbLine
 39
0.25
 370
106
 10
153.2364
 20
332.405391699219
 30
0.0
 11
153.2464
 21
332.385391699219
 31
0.0
 0
LINE
 5
489
100
AcDbEntity
 8
Layer8
100
AcDbLine
 39
0.25
 370
106
 10
55.2559
 20
113.713591699219
 30
0.0
 11
55.2559
 21
121.524591699219
 31
0.0
 0
LINE
 5
48A
100
AcDbEntity
 8
Layer8
100
AcDbLine
 39
0.25
 370
106
 10
225.7119
 20
113.713591699219
 30
0.0
 11
225.7119
 21
121.524591699219
 31
0.0
 0
LINE
 5
48B
100
AcDbEntity
 8
Layer8
100
AcDbLine
 39
0.25
 370
106
 10
37.3462
 20
145.120491699219
 30
0.0
 11
29.5352
 21
145.120491699219
 31
0.0
 0
LINE
 5
48C
100
AcDbEntity
 8
Layer8
100
AcDbLine
 39
0.25
 370
106
 10
37.3462
 20
215.359491699219
 30
0.0
 11
29.5352
 21
215.359491699219
 31
0.0
 0
LINE
 5
48D
100
AcDbEntity
 8
Layer8
100
AcDbLine
 39
0.25
 370
106
 10
111.4008
 20
324.065191699219
 30
0.0
 11
103.6868
 21
324.065191699219
 31
0.0
 0
LINE
 5
48E
100
AcDbEntity
 8
Layer8
100
AcDbLine
 39
0.25
 370
106
 10
111.4008
 20
332.449191699219
 30
0.0
 11
103.6868
 21
332.449191699219
 31
0.0
 0
LINE
 5
48F
100
AcDbEntity
 8
Layer8
100
AcDbLine
 39
0.25
 370
106
 10
118.4896
 20
343.017991699219
 30
0.0
 11
118.4896
 21
350.828991699219
 31
0.0
 0
LWPOLYLINE
 5
490
100
AcDbEntity
 8
Layer8
100
AcDbPolyline
 39
0.25
 370
106
 90
5              
 70
 1
 43
0.0
 10
117.842
 20
323.847991699219
 10
163.222
 20
323.847991699219
 10
163.222
 20
324.458991699219
 10
117.842
 20
324.458991699219
 10
117.842
 20
323.847991699219
 0
HATCH
 5
491
100
AcDbEntity
 8
Layer22
100
AcDbHatch
 10
 0.0
 20
 0.0
 30
 0.0
 210
 0.0
 220
 0.0
 230
 1.0
 2
SOLID
 70
 1
 71
 1
 91
1              
 92
 0
 93
42             
 72
 1
 10
30.6668
 20
18.3526916992188
 11
34.7048
 21
18.3526916992188
 72
 1
 10
34.7048
 20
18.3526916992188
 11
34.5838
 21
27.2336916992188
 72
 1
 10
34.5838
 20
27.2336916992188
 11
34.572688671875
 21
27.9154827148437
 72
 1
 10
34.572688671875
 20
27.9154827148437
 11
34.560159375
 21
28.6473948242187
 72
 1
 10
34.560159375
 20
28.6473948242187
 11
34.544794140625
 21
29.4122366210938
 72
 1
 10
34.544794140625
 20
29.4122366210938
 11
34.525175
 21
30.1928166992187
 72
 1
 10
34.525175
 20
30.1928166992187
 11
34.499883984375
 21
30.9719436523437
 72
 1
 10
34.499883984375
 20
30.9719436523437
 11
34.467503125
 21
31.7324260742188
 72
 1
 10
34.467503125
 20
31.7324260742188
 11
34.426614453125
 21
32.4570725585937
 72
 1
 10
34.426614453125
 20
32.4570725585937
 11
34.3758
 21
33.1286916992187
 72
 1
 10
34.3758
 20
33.1286916992187
 11
34.5616359375
 21
32.5728577148437
 72
 1
 10
34.5616359375
 20
32.5728577148437
 11
34.8192375
 21
31.8860198242187
 72
 1
 10
34.8192375
 20
31.8860198242187
 11
35.1363703125
 21
31.0912991210937
 72
 1
 10
35.1363703125
 20
31.0912991210937
 11
35.5008
 21
30.2118166992187
 72
 1
 10
35.5008
 20
30.2118166992187
 11
35.9002921875
 21
29.2706936523438
 72
 1
 10
35.9002921875
 20
29.2706936523438
 11
36.3226125
 21
28.2910510742188
 72
 1
 10
36.3226125
 20
28.2910510742188
 11
36.7555265625
 21
27.2960100585939
 72
 1
 10
36.7555265625
 20
27.2960100585939
 11
37.1868
 21
26.3086916992188
 72
 1
 10
37.1868
 20
26.3086916992188
 11
40.7468
 21
18.3526916992188
 72
 1
 10
40.7468
 20
18.3526916992188
 11
45.1128
 21
18.3526916992188
 72
 1
 10
45.1128
 20
18.3526916992188
 11
45.1128
 21
39.1386916992187
 72
 1
 10
45.1128
 20
39.1386916992187
 11
41.1348
 21
39.1386916992187
 72
 1
 10
41.1348
 20
39.1386916992187
 11
41.2248
 21
30.6446916992187
 72
 1
 10
41.2248
 20
30.6446916992187
 11
41.241149609375
 21
30.0534084960937
 72
 1
 10
41.241149609375
 20
30.0534084960937
 11
41.267471875
 21
29.3736135742188
 72
 1
 10
41.267471875
 20
29.3736135742188
 11
41.302301953125
 21
28.6320139648437
 72
 1
 10
41.302301953125
 20
28.6320139648437
 11
41.344175
 21
27.8553166992187
 72
 1
 10
41.344175
 20
27.8553166992187
 11
41.391626171875
 21
27.0702288085937
 72
 1
 10
41.391626171875
 20
27.0702288085937
 11
41.443190625
 21
26.3034573242188
 72
 1
 10
41.443190625
 20
26.3034573242188
 11
41.497403515625
 21
25.5817092773439
 72
 1
 10
41.497403515625
 20
25.5817092773439
 11
41.5528
 21
24.9316916992187
 72
 1
 10
41.5528
 20
24.9316916992187
 11
41.3781046875
 21
25.5233284179687
 72
 1
 10
41.3781046875
 20
25.5233284179687
 11
41.168675
 21
26.1718479492188
 72
 1
 10
41.168675
 20
26.1718479492188
 11
40.9262453125
 21
26.8695393554688
 72
 1
 10
40.9262453125
 20
26.8695393554688
 11
40.65255
 21
27.6086916992188
 72
 1
 10
40.65255
 20
27.6086916992188
 11
40.3493234375
 21
28.3815940429687
 72
 1
 10
40.3493234375
 20
28.3815940429687
 11
40.0183
 21
29.1805354492187
 72
 1
 10
40.0183
 20
29.1805354492187
 11
39.6612140625
 21
29.9978049804687
 72
 1
 10
39.6612140625
 20
29.9978049804687
 11
39.2798
 21
30.8256916992187
 72
 1
 10
39.2798
 20
30.8256916992187
 11
35.3038
 21
39.1386916992187
 72
 1
 10
35.3038
 20
39.1386916992187
 11
30.6668
 21
39.1386916992187
 72
 1
 10
30.6668
 20
39.1386916992187
 11
30.6668
 21
18.3526916992188
 97
 1
 330
492
 75
 0
 76
 1
 98
 1
 10
 0.0
 20
 0.0
 0
HATCH
 5
493
100
AcDbEntity
 8
Layer22
100
AcDbHatch
 10
 0.0
 20
 0.0
 30
 0.0
 210
 0.0
 220
 0.0
 230
 1.0
 2
SOLID
 70
 1
 71
 1
 91
1              
 92
 0
 93
12             
 72
 1
 10
47.6209
 20
39.1390916992187
 11
47.6209
 21
18.3530916992188
 72
 1
 10
47.6209
 20
18.3530916992188
 11
59.7349
 21
18.3530916992188
 72
 1
 10
59.7349
 20
18.3530916992188
 11
59.7349
 21
21.9420916992187
 72
 1
 10
59.7349
 20
21.9420916992187
 11
51.8699
 21
21.9420916992187
 72
 1
 10
51.8699
 20
21.9420916992187
 11
51.8699
 21
27.5040916992187
 72
 1
 10
51.8699
 20
27.5040916992187
 11
57.7599
 21
27.5040916992187
 72
 1
 10
57.7599
 20
27.5040916992187
 11
57.7599
 21
30.9150916992188
 72
 1
 10
57.7599
 20
30.9150916992188
 11
51.8079
 21
30.9150916992188
 72
 1
 10
51.8079
 20
30.9150916992188
 11
51.8079
 21
35.7290916992188
 72
 1
 10
51.8079
 20
35.7290916992188
 11
58.9259
 21
35.7290916992188
 72
 1
 10
58.9259
 20
35.7290916992188
 11
59.4649
 21
39.1390916992187
 72
 1
 10
59.4649
 20
39.1390916992187
 11
47.6209
 21
39.1390916992187
 97
 1
 330
494
 75
 0
 76
 1
 98
 1
 10
 0.0
 20
 0.0
 0
HATCH
 5
495
100
AcDbEntity
 8
Layer22
100
AcDbHatch
 10
 0.0
 20
 0.0
 30
 0.0
 210
 0.0
 220
 0.0
 230
 1.0
 2
SOLID
 70
 1
 71
 1
 91
1              
 92
 0
 93
49             
 72
 1
 10
61.2884
 20
18.3526916992188
 11
65.5054
 21
18.3526916992188
 72
 1
 10
65.5054
 20
18.3526916992188
 11
66.2224
 21
29.2096916992188
 72
 1
 10
66.2224
 20
29.2096916992188
 11
66.254398046875
 21
29.6863850585937
 72
 1
 10
66.254398046875
 20
29.6863850585937
 11
66.283384375
 21
30.1541135742187
 72
 1
 10
66.283384375
 20
30.1541135742187
 11
66.308972265625
 21
30.6149749023436
 72
 1
 10
66.308972265625
 20
30.6149749023436
 11
66.330775
 21
31.0710666992187
 72
 1
 10
66.330775
 20
31.0710666992187
 11
66.348405859375
 21
31.5244866210937
 72
 1
 10
66.348405859375
 20
31.5244866210937
 11
66.361478125
 21
31.9773323242187
 72
 1
 10
66.361478125
 20
31.9773323242187
 11
66.369605078125
 21
32.4317014648437
 72
 1
 10
66.369605078125
 20
32.4317014648437
 11
66.3724
 21
32.8896916992187
 72
 1
 10
66.3724
 20
32.8896916992187
 11
70.1714
 21
18.3526916992188
 72
 1
 10
70.1714
 20
18.3526916992188
 11
73.8504
 21
18.3526916992188
 72
 1
 10
73.8504
 20
18.3526916992188
 11
75.104503515625
 21
22.7186624023437
 72
 1
 10
75.104503515625
 20
22.7186624023437
 11
76.049853125
 21
26.0142073242188
 72
 1
 10
76.049853125
 20
26.0142073242188
 11
76.733757421875
 21
28.4082756835937
 72
 1
 10
76.733757421875
 20
28.4082756835937
 11
77.203525
 21
30.0698166992187
 72
 1
 10
77.203525
 20
30.0698166992187
 11
77.506464453125
 21
31.1677795898437
 72
 1
 10
77.506464453125
 20
31.1677795898437
 11
77.689884375
 21
31.8711135742187
 72
 1
 10
77.689884375
 20
31.8711135742187
 11
77.801093359375
 21
32.3487678710937
 72
 1
 10
77.801093359375
 20
32.3487678710937
 11
77.8874
 21
32.7696916992187
 72
 1
 10
77.8874
 20
32.7696916992187
 11
77.92852109375
 21
31.8320940429687
 72
 1
 10
77.92852109375
 20
31.8320940429687
 11
78.03693125
 21
30.0495979492187
 72
 1
 10
78.03693125
 20
30.0495979492187
 11
78.19020078125
 21
27.7211487304687
 72
 1
 10
78.19020078125
 20
27.7211487304687
 11
78.3659
 21
25.1456916992188
 72
 1
 10
78.3659
 20
25.1456916992188
 11
78.54159921875
 21
22.6221721679689
 72
 1
 10
78.54159921875
 20
22.6221721679689
 11
78.69486875
 21
20.4495354492188
 72
 1
 10
78.69486875
 20
20.4495354492188
 11
78.80327890625
 21
18.9267268554688
 72
 1
 10
78.80327890625
 20
18.9267268554688
 11
78.8444
 21
18.3526916992188
 72
 1
 10
78.8444
 20
18.3526916992188
 11
82.9724
 21
18.3526916992188
 72
 1
 10
82.9724
 20
18.3526916992188
 11
81.1184
 21
39.1386916992187
 72
 1
 10
81.1184
 20
39.1386916992187
 11
75.6444
 21
39.1386916992187
 72
 1
 10
75.6444
 20
39.1386916992187
 11
74.538562109375
 21
35.0099495117188
 72
 1
 10
74.538562109375
 20
35.0099495117188
 11
73.705009375
 21
31.8941291992187
 72
 1
 10
73.705009375
 20
31.8941291992187
 11
73.102058203125
 21
29.6320901367187
 72
 1
 10
73.102058203125
 20
29.6320901367187
 11
72.688025
 21
28.0646916992188
 72
 1
 10
72.688025
 20
28.0646916992188
 11
72.421226171875
 21
27.0327932617188
 72
 1
 10
72.421226171875
 20
27.0327932617188
 11
72.259978125
 21
26.3772541992189
 72
 1
 10
72.259978125
 20
26.3772541992189
 11
72.162597265625
 21
25.9389338867187
 72
 1
 10
72.162597265625
 20
25.9389338867187
 11
72.0874
 21
25.5586916992188
 72
 1
 10
72.0874
 20
25.5586916992188
 11
71.887534765625
 21
26.4517112304688
 72
 1
 10
71.887534765625
 20
26.4517112304688
 11
71.473228125
 21
28.1353479492188
 72
 1
 10
71.473228125
 20
28.1353479492188
 11
70.918788671875
 21
30.3292190429688
 72
 1
 10
70.918788671875
 20
30.3292190429688
 11
70.298525
 21
32.7529416992188
 72
 1
 10
70.298525
 20
32.7529416992188
 11
69.686745703125
 21
35.1261331054687
 72
 1
 10
69.686745703125
 20
35.1261331054687
 11
69.157759375
 21
37.1684104492188
 72
 1
 10
69.157759375
 20
37.1684104492188
 11
68.785874609375
 21
38.5993909179687
 72
 1
 10
68.785874609375
 20
38.5993909179687
 11
68.6454
 21
39.1386916992187
 72
 1
 10
68.6454
 20
39.1386916992187
 11
63.2334
 21
39.1386916992187
 72
 1
 10
63.2334
 20
39.1386916992187
 11
61.2884
 21
18.3526916992188
 97
 1
 330
496
 75
 0
 76
 1
 98
 1
 10
 0.0
 20
 0.0
 0
HATCH
 5
497
100
AcDbEntity
 8
Layer22
100
AcDbHatch
 10
 0.0
 20
 0.0
 30
 0.0
 210
 0.0
 220
 0.0
 230
 1.0
 2
SOLID
 70
 1
 71
 1
 91
2              
 92
 0
 93
56             
 72
 1
 10
96.8612
 20
33.5469916992188
 11
96.986772265625
 21
33.0920737304688
 72
 1
 10
96.986772265625
 20
33.0920737304688
 11
97.095715625
 21
32.6007104492187
 72
 1
 10
97.095715625
 20
32.6007104492187
 11
97.187994921875
 21
32.0701127929688
 72
 1
 10
97.187994921875
 20
32.0701127929688
 11
97.263575
 21
31.4974916992187
 72
 1
 10
97.263575
 20
31.4974916992187
 11
97.322420703125
 21
30.8800581054687
 72
 1
 10
97.322420703125
 20
30.8800581054687
 11
97.364496875
 21
30.2150229492188
 72
 1
 10
97.364496875
 20
30.2150229492188
 11
97.389768359375
 21
29.4995971679687
 72
 1
 10
97.389768359375
 20
29.4995971679687
 11
97.3982
 21
28.7309916992187
 72
 1
 10
97.3982
 20
28.7309916992187
 11
97.339897265625
 21
26.8890854492188
 72
 1
 10
97.339897265625
 20
26.8890854492188
 11
97.161465625
 21
25.3256166992187
 72
 1
 10
97.161465625
 20
25.3256166992187
 11
96.857619921875
 21
24.0304604492188
 72
 1
 10
96.857619921875
 20
24.0304604492188
 11
96.423075
 21
22.9934916992188
 72
 1
 10
96.423075
 20
22.9934916992188
 11
95.852545703125
 21
22.2045854492188
 72
 1
 10
95.852545703125
 20
22.2045854492188
 11
95.140746875
 21
21.6536166992188
 72
 1
 10
95.140746875
 20
21.6536166992188
 11
94.282393359375
 21
21.3304604492188
 72
 1
 10
94.282393359375
 20
21.3304604492188
 11
93.2722
 21
21.2249916992188
 72
 1
 10
93.2722
 20
21.2249916992188
 11
92.90883671875
 21
21.2361557617188
 72
 1
 10
92.90883671875
 20
21.2361557617188
 11
92.55998125
 21
21.2696791992188
 72
 1
 10
92.55998125
 20
21.2696791992188
 11
92.22598515625
 21
21.3256088867188
 72
 1
 10
92.22598515625
 20
21.3256088867188
 11
91.9072
 21
21.4039916992188
 72
 1
 10
91.9072
 20
21.4039916992188
 11
91.60397734375
 21
21.5048745117188
 72
 1
 10
91.60397734375
 20
21.5048745117188
 11
91.31666875
 21
21.6283041992189
 72
 1
 10
91.31666875
 20
21.6283041992189
 11
91.04562578125
 21
21.7743276367187
 72
 1
 10
91.04562578125
 20
21.7743276367187
 11
90.7912
 21
21.9429916992187
 72
 1
 10
90.7912
 20
21.9429916992187
 11
90.358549609375
 21
22.3504584960938
 72
 1
 10
90.358549609375
 20
22.3504584960938
 11
89.982559375
 21
22.8797885742188
 72
 1
 10
89.982559375
 20
22.8797885742188
 11
89.663545703125
 21
23.5320014648437
 72
 1
 10
89.663545703125
 20
23.5320014648437
 11
89.401825
 21
24.3081166992188
 72
 1
 10
89.401825
 20
24.3081166992188
 11
89.197713671875
 21
25.2091538085938
 72
 1
 10
89.197713671875
 20
25.2091538085938
 11
89.051528125
 21
26.2361323242187
 72
 1
 10
89.051528125
 20
26.2361323242187
 11
88.963584765625
 21
27.3900717773438
 72
 1
 10
88.963584765625
 20
27.3900717773438
 11
88.9342
 21
28.6719916992188
 72
 1
 10
88.9342
 20
28.6719916992188
 11
88.9497390625
 21
29.5821108398437
 72
 1
 10
88.9497390625
 20
29.5821108398437
 11
88.996825
 21
30.4301323242187
 72
 1
 10
88.996825
 20
30.4301323242187
 11
89.0761609375
 21
31.2185522460937
 72
 1
 10
89.0761609375
 20
31.2185522460937
 11
89.18845
 21
31.9498666992188
 72
 1
 10
89.18845
 20
31.9498666992188
 11
89.3343953125
 21
32.6265717773437
 72
 1
 10
89.3343953125
 20
32.6265717773437
 11
89.5147
 21
33.2511635742187
 72
 1
 10
89.5147
 20
33.2511635742187
 11
89.7300671875
 21
33.8261381835937
 72
 1
 10
89.7300671875
 20
33.8261381835937
 11
89.9812
 21
34.3539916992188
 72
 1
 10
89.9812
 20
34.3539916992188
 11
90.22572734375
 21
34.7499096679687
 72
 1
 10
90.22572734375
 20
34.7499096679687
 11
90.52835625
 21
35.1055854492188
 72
 1
 10
90.52835625
 20
35.1055854492188
 11
90.88278203125
 21
35.4171518554688
 72
 1
 10
90.88278203125
 20
35.4171518554688
 11
91.2827
 21
35.6807416992187
 72
 1
 10
91.2827
 20
35.6807416992187
 11
91.72180546875
 21
35.8924877929688
 72
 1
 10
91.72180546875
 20
35.8924877929688
 11
92.19379375
 21
36.0485229492188
 72
 1
 10
92.19379375
 20
36.0485229492188
 11
92.69236015625
 21
36.1449799804687
 72
 1
 10
92.69236015625
 20
36.1449799804687
 11
93.2112
 21
36.1779916992188
 72
 1
 10
93.2112
 20
36.1779916992188
 11
93.990530078125
 21
36.1079252929687
 72
 1
 10
93.990530078125
 20
36.1079252929687
 11
94.669840625
 21
35.9142729492188
 72
 1
 10
94.669840625
 20
35.9142729492188
 11
95.252987109375
 21
35.6218549804688
 72
 1
 10
95.252987109375
 20
35.6218549804688
 11
95.743825
 21
35.2554916992189
 72
 1
 10
95.743825
 20
35.2554916992189
 11
96.146209765625
 21
34.8400034179688
 72
 1
 10
96.146209765625
 20
34.8400034179688
 11
96.463996875
 21
34.4002104492188
 72
 1
 10
96.463996875
 20
34.4002104492188
 11
96.701041796875
 21
33.9609331054687
 72
 1
 10
96.701041796875
 20
33.9609331054687
 11
96.8612
 21
33.5469916992188
 97
 1
 330
498
 92
 0
 93
56             
 72
 1
 10
88.9652
 20
38.3919916992188
 11
87.912670703125
 21
37.6866108398438
 72
 1
 10
87.912670703125
 20
37.6866108398438
 11
86.981278125
 21
36.8109448242187
 72
 1
 10
86.981278125
 20
36.8109448242187
 11
86.176940234375
 21
35.7773334960938
 72
 1
 10
86.176940234375
 20
35.7773334960938
 11
85.505575
 21
34.5981166992188
 72
 1
 10
85.505575
 20
34.5981166992188
 11
84.973100390625
 21
33.2856342773438
 72
 1
 10
84.973100390625
 20
33.2856342773438
 11
84.585434375
 21
31.8522260742188
 72
 1
 10
84.585434375
 20
31.8522260742188
 11
84.348494921875
 21
30.3102319335937
 72
 1
 10
84.348494921875
 20
30.3102319335937
 11
84.2682
 21
28.6719916992188
 72
 1
 10
84.2682
 20
28.6719916992188
 11
84.306014453125
 21
27.5476499023438
 72
 1
 10
84.306014453125
 20
27.5476499023438
 11
84.419215625
 21
26.4649448242187
 72
 1
 10
84.419215625
 20
26.4649448242187
 11
84.607440234375
 21
25.4258569335938
 72
 1
 10
84.607440234375
 20
25.4258569335938
 11
84.870325
 21
24.4323666992187
 72
 1
 10
84.870325
 20
24.4323666992187
 11
85.207506640625
 21
23.4864545898438
 72
 1
 10
85.207506640625
 20
23.4864545898438
 11
85.618621875
 21
22.5901010742189
 72
 1
 10
85.618621875
 20
22.5901010742189
 11
86.103307421875
 21
21.7452866210938
 72
 1
 10
86.103307421875
 20
21.7452866210938
 11
86.6612
 21
20.9539916992187
 72
 1
 10
86.6612
 20
20.9539916992187
 11
87.277948046875
 21
20.2360307617188
 72
 1
 10
87.277948046875
 20
20.2360307617188
 11
87.944559375
 21
19.6261166992188
 72
 1
 10
87.944559375
 20
19.6261166992188
 11
88.668709765625
 21
19.1204526367188
 72
 1
 10
88.668709765625
 20
19.1204526367188
 11
89.458075
 21
18.7152416992188
 72
 1
 10
89.458075
 20
18.7152416992188
 11
90.320330859375
 21
18.4066870117188
 72
 1
 10
90.320330859375
 20
18.4066870117188
 11
91.263153125
 21
18.1909916992188
 72
 1
 10
91.263153125
 20
18.1909916992188
 11
92.294217578125
 21
18.0643588867188
 72
 1
 10
92.294217578125
 20
18.0643588867188
 11
93.4212
 21
18.0229916992188
 72
 1
 10
93.4212
 20
18.0229916992188
 11
94.046436328125
 21
18.0359819335938
 72
 1
 10
94.046436328125
 20
18.0359819335938
 11
94.626028125
 21
18.0761010742187
 72
 1
 10
94.626028125
 20
18.0761010742187
 11
95.167674609375
 21
18.1450717773438
 72
 1
 10
95.167674609375
 20
18.1450717773438
 11
95.679075
 21
18.2446166992187
 72
 1
 10
95.679075
 20
18.2446166992187
 11
96.167928515625
 21
18.3764584960937
 72
 1
 10
96.167928515625
 20
18.3764584960937
 11
96.641934375
 21
18.5423198242187
 72
 1
 10
96.641934375
 20
18.5423198242187
 11
97.108791796875
 21
18.7439233398437
 72
 1
 10
97.108791796875
 20
18.7439233398437
 11
97.5762
 21
18.9829916992187
 72
 1
 10
97.5762
 20
18.9829916992187
 11
98.63518046875
 21
19.6944428710938
 72
 1
 10
98.63518046875
 20
19.6944428710938
 11
99.56429375
 21
20.5698510742187
 72
 1
 10
99.56429375
 20
20.5698510742187
 11
100.36004765625
 21
21.6017983398438
 72
 1
 10
100.36004765625
 20
21.6017983398438
 11
101.01895
 21
22.7828666992187
 72
 1
 10
101.01895
 20
22.7828666992187
 11
101.53750859375
 21
24.1056381835937
 72
 1
 10
101.53750859375
 20
24.1056381835937
 11
101.91223125
 21
25.5626948242187
 72
 1
 10
101.91223125
 20
25.5626948242187
 11
102.13962578125
 21
27.1466186523438
 72
 1
 10
102.13962578125
 20
27.1466186523438
 11
102.2162
 21
28.8499916992188
 72
 1
 10
102.2162
 20
28.8499916992188
 11
102.0587859375
 21
31.1759389648437
 72
 1
 10
102.0587859375
 20
31.1759389648437
 11
101.5966375
 21
33.2508823242188
 72
 1
 10
101.5966375
 20
33.2508823242188
 11
100.8448953125
 21
35.0565991210937
 72
 1
 10
100.8448953125
 20
35.0565991210937
 11
99.8187
 21
36.5748666992188
 72
 1
 10
99.8187
 20
36.5748666992188
 11
98.5331921875
 21
37.7874624023437
 72
 1
 10
98.5331921875
 20
37.7874624023437
 11
97.0035125
 21
38.6761635742188
 72
 1
 10
97.0035125
 20
38.6761635742188
 11
95.2448015625
 21
39.2227475585937
 72
 1
 10
95.2448015625
 20
39.2227475585937
 11
93.2722
 21
39.4089916992187
 72
 1
 10
93.2722
 20
39.4089916992187
 11
92.690635546875
 21
39.3922807617188
 72
 1
 10
92.690635546875
 20
39.3922807617188
 11
92.115059375
 21
39.3426166992188
 72
 1
 10
92.115059375
 20
39.3426166992188
 11
91.548647265625
 21
39.2607026367187
 72
 1
 10
91.548647265625
 20
39.2607026367187
 11
90.994575
 21
39.1472416992187
 72
 1
 10
90.994575
 20
39.1472416992187
 11
90.456018359375
 21
39.0029370117187
 72
 1
 10
90.456018359375
 20
39.0029370117187
 11
89.936153125
 21
38.8284916992187
 72
 1
 10
89.936153125
 20
38.8284916992187
 11
89.438155078125
 21
38.6246088867188
 72
 1
 10
89.438155078125
 20
38.6246088867188
 11
88.9652
 21
38.3919916992188
 97
 1
 330
499
 75
 0
 76
 1
 98
 1
 10
 0.0
 20
 0.0
 0
LINE
 5
49A
100
AcDbEntity
 8
Layer8
100
AcDbLine
 39
0.25
 370
106
 10
163.3376
 20
343.017991699219
 30
0.0
 11
163.3376
 21
350.828991699219
 31
0.0
 0
TEXT
 5
49B
100
AcDbEntity
 8
Layer8
100
AcDbText
 40
9.6
 41
0.61000
 72
0
 50
0
  1
cable lenght 2,5m
  7
STANDARD
 10
92.3486
 20
75.5074916992187
 30
0.0
 11
92.3486
 21
75.5074916992187
 31
0.0
100
AcDbText
 73
  1
 0
TEXT
 5
49C
100
AcDbEntity
 8
Layer8
100
AcDbText
 40
8.8
 41
0.61000
 72
0
 50
0
  1
25
  7
STANDARD
 10
134.248
 20
341.735491699219
 30
0.0
 11
134.248
 21
341.735491699219
 31
0.0
100
AcDbText
 73
  1
 0
TEXT
 5
49D
100
AcDbEntity
 8
Layer8
100
AcDbText
 40
8.8
 41
0.61000
 72
0
 50
-270
  1
4
  7
STANDARD
 10
102.6113
 20
324.937691699219
 30
0.0
 11
102.6113
 21
324.937691699219
 31
0.0
100
AcDbText
 73
  1
 0
TEXT
 5
49E
100
AcDbEntity
 8
Layer8
100
AcDbText
 40
8.8
 41
0.61000
 72
0
 50
-270
  1
40
  7
STANDARD
 10
38.6273
 20
173.341691699219
 30
0.0
 11
38.6273
 21
173.341691699219
 31
0.0
100
AcDbText
 73
  1
 0
TEXT
 5
49F
100
AcDbEntity
 8
Layer8
100
AcDbText
 40
8.8
 41
0.61000
 72
0
 50
0
  1
Ø100
  7
STANDARD
 10
131.627
 20
115.840991699219
 30
0.0
 11
131.627
 21
115.840991699219
 31
0.0
100
AcDbText
 73
  1
  0
ENDSEC
  0
SECTION
  2
OBJECTS
  0
DICTIONARY
  5
19
100
AcDbDictionary
  3
ACAD_GROUP
350
1A
  3
ACAD_MLINESTYLE
350
1B
  0
DICTIONARY
  5
1A
102
{ACAD_REACTORS
330
19
102
}
100
AcDbDictionary
  0
DICTIONARY
  5
1B
102
{ACAD_REACTORS
330
19
102
}
100
AcDbDictionary
  3
STANDARD
350
1C
  0
MLINESTYLE
  5
1C
102
{ACAD_REACTORS
330
1B
102
}
100
AcDbMlineStyle
  2
STANDARD
 70
     0
  3

 62
     0
 51
90.0
 52
90.0
 71
     2
 49
0.5
 62
   256
  6
BYLAYER
 49
-0.5
 62
   256
  6
BYLAYER
  0
ENDSEC
  0
EOF
