  0
SECTION
  2
HEADER
  9
$ACADVER
  1
AC1024
  9
$ACADMAINTVER
 70
     6
  9
$DWGCODEPAGE
  3
UNDEFINED
  9
$INSBASE
 10
0.0
 20
0.0
 30
0.0
  9
$EXTMIN
 10
1.000000000000000E+20
 20
1.000000000000000E+20
 30
1.000000000000000E+20
  9
$EXTMAX
 10
-1.000000000000000E+20
 20
-1.000000000000000E+20
 30
-1.000000000000000E+20
  9
$LIMMIN
 10
0.0
 20
0.0
  9
$LIMMAX
 10
12.0
 20
9.0
  9
$ORTHOMODE
 70
     0
  9
$REGENMODE
 70
     1
  9
$FILLMODE
 70
     1
  9
$QTEXTMODE
 70
     0
  9
$MIRRTEXT
 70
     1
  9
$LTSCALE
 40
1.0
  9
$ATTMODE
 70
     1
  9
$TEXTSIZE
 40
0.2
  9
$TRACEWID
 40
0.05
  9
$TEXTSTYLE
  7
Standard
  9
$CLAYER
  8
0
  9
$CELTYPE
  6
ByLayer
  9
$CECOLOR
 62
   256
  9
$CELTSCALE
 40
1.0
  9
$DISPSILH
 70
     0
  9
$DIMSCALE
 40
1.0
  9
$DIMASZ
 40
0.18
  9
$DIMEXO
 40
0.0625
  9
$DIMDLI
 40
0.38
  9
$DIMRND
 40
0.0
  9
$DIMDLE
 40
0.0
  9
$DIMEXE
 40
0.18
  9
$DIMTP
 40
0.0
  9
$DIMTM
 40
0.0
  9
$DIMTXT
 40
0.18
  9
$DIMCEN
 40
0.09
  9
$DIMTSZ
 40
0.0
  9
$DIMTOL
 70
     0
  9
$DIMLIM
 70
     0
  9
$DIMTIH
 70
     1
  9
$DIMTOH
 70
     1
  9
$DIMSE1
 70
     0
  9
$DIMSE2
 70
     0
  9
$DIMTAD
 70
     0
  9
$DIMZIN
 70
     0
  9
$DIMBLK
  1

  9
$DIMASO
 70
     1
  9
$DIMSHO
 70
     1
  9
$DIMPOST
  1

  9
$DIMAPOST
  1

  9
$DIMALT
 70
     0
  9
$DIMALTD
 70
     2
  9
$DIMALTF
 40
25.4
  9
$DIMLFAC
 40
1.0
  9
$DIMTOFL
 70
     0
  9
$DIMTVP
 40
0.0
  9
$DIMTIX
 70
     0
  9
$DIMSOXD
 70
     0
  9
$DIMSAH
 70
     0
  9
$DIMBLK1
  1

  9
$DIMBLK2
  1

  9
$DIMSTYLE
  2
Standard
  9
$DIMCLRD
 70
     0
  9
$DIMCLRE
 70
     0
  9
$DIMCLRT
 70
     0
  9
$DIMTFAC
 40
1.0
  9
$DIMGAP
 40
0.09
  9
$DIMJUST
 70
     0
  9
$DIMSD1
 70
     0
  9
$DIMSD2
 70
     0
  9
$DIMTOLJ
 70
     1
  9
$DIMTZIN
 70
     0
  9
$DIMALTZ
 70
     0
  9
$DIMALTTZ
 70
     0
  9
$DIMUPT
 70
     0
  9
$DIMDEC
 70
     4
  9
$DIMTDEC
 70
     4
  9
$DIMALTU
 70
     2
  9
$DIMALTTD
 70
     2
  9
$DIMTXSTY
  7
Standard
  9
$DIMAUNIT
 70
     0
  9
$DIMADEC
 70
     0
  9
$DIMALTRND
 40
0.0
  9
$DIMAZIN
 70
     0
  9
$DIMDSEP
 70
    46
  9
$DIMATFIT
 70
     3
  9
$DIMFRAC
 70
     0
  9
$DIMLDRBLK
  1

  9
$DIMLUNIT
 70
     2
  9
$DIMLWD
 70
    -2
  9
$DIMLWE
 70
    -2
  9
$DIMTMOVE
 70
     0
  9
$DIMFXL
 40
1.0
  9
$DIMFXLON
 70
     0
  9
$DIMJOGANG
 40
0.7853981633974483
  9
$DIMTFILL
 70
     0
  9
$DIMTFILLCLR
 70
     0
  9
$DIMARCSYM
 70
     0
  9
$DIMLTYPE
  6

  9
$DIMLTEX1
  6

  9
$DIMLTEX2
  6

  9
$DIMTXTDIRECTION
 70
     0
  9
$LUNITS
 70
     2
  9
$LUPREC
 70
     4
  9
$SKETCHINC
 40
0.1
  9
$FILLETRAD
 40
0.5
  9
$AUNITS
 70
     0
  9
$AUPREC
 70
     0
  9
$MENU
  1
.
  9
$ELEVATION
 40
0.0
  9
$PELEVATION
 40
0.0
  9
$THICKNESS
 40
0.0
  9
$LIMCHECK
 70
     0
  9
$CHAMFERA
 40
0.5
  9
$CHAMFERB
 40
0.5
  9
$CHAMFERC
 40
1.0
  9
$CHAMFERD
 40
0.0
  9
$SKPOLY
 70
     0
  9
$TDCREATE
 40
2458113.717395833
  9
$TDUCREATE
 40
2458113.6340625
  9
$TDUPDATE
 40
2458113.717395833
  9
$TDUUPDATE
 40
2458113.6340625
  9
$TDINDWG
 40
0.0000000116
  9
$TDUSRTIMER
 40
0.0000000116
  9
$USRTIMER
 70
     1
  9
$ANGBASE
 50
0.0
  9
$ANGDIR
 70
     0
  9
$PDMODE
 70
     0
  9
$PDSIZE
 40
0.0
  9
$PLINEWID
 40
0.0
  9
$SPLFRAME
 70
     0
  9
$SPLINETYPE
 70
     6
  9
$SPLINESEGS
 70
     8
  9
$HANDSEED
  5
A8
  9
$SURFTAB1
 70
     6
  9
$SURFTAB2
 70
     6
  9
$SURFTYPE
 70
     6
  9
$SURFU
 70
     6
  9
$SURFV
 70
     6
  9
$UCSBASE
  2

  9
$UCSNAME
  2

  9
$UCSORG
 10
0.0
 20
0.0
 30
0.0
  9
$UCSXDIR
 10
1.0
 20
0.0
 30
0.0
  9
$UCSYDIR
 10
0.0
 20
1.0
 30
0.0
  9
$UCSORTHOREF
  2

  9
$UCSORTHOVIEW
 70
     0
  9
$UCSORGTOP
 10
0.0
 20
0.0
 30
0.0
  9
$UCSORGBOTTOM
 10
0.0
 20
0.0
 30
0.0
  9
$UCSORGLEFT
 10
0.0
 20
0.0
 30
0.0
  9
$UCSORGRIGHT
 10
0.0
 20
0.0
 30
0.0
  9
$UCSORGFRONT
 10
0.0
 20
0.0
 30
0.0
  9
$UCSORGBACK
 10
0.0
 20
0.0
 30
0.0
  9
$PUCSBASE
  2

  9
$PUCSNAME
  2

  9
$PUCSORG
 10
0.0
 20
0.0
 30
0.0
  9
$PUCSXDIR
 10
1.0
 20
0.0
 30
0.0
  9
$PUCSYDIR
 10
0.0
 20
1.0
 30
0.0
  9
$PUCSORTHOREF
  2

  9
$PUCSORTHOVIEW
 70
     0
  9
$PUCSORGTOP
 10
0.0
 20
0.0
 30
0.0
  9
$PUCSORGBOTTOM
 10
0.0
 20
0.0
 30
0.0
  9
$PUCSORGLEFT
 10
0.0
 20
0.0
 30
0.0
  9
$PUCSORGRIGHT
 10
0.0
 20
0.0
 30
0.0
  9
$PUCSORGFRONT
 10
0.0
 20
0.0
 30
0.0
  9
$PUCSORGBACK
 10
0.0
 20
0.0
 30
0.0
  9
$USERI1
 70
     0
  9
$USERI2
 70
     0
  9
$USERI3
 70
     0
  9
$USERI4
 70
     0
  9
$USERI5
 70
     0
  9
$USERR1
 40
0.0
  9
$USERR2
 40
0.0
  9
$USERR3
 40
0.0
  9
$USERR4
 40
0.0
  9
$USERR5
 40
0.0
  9
$WORLDVIEW
 70
     1
  9
$SHADEDGE
 70
     3
  9
$SHADEDIF
 70
    70
  9
$TILEMODE
 70
     1
  9
$MAXACTVP
 70
    64
  9
$PINSBASE
 10
0.0
 20
0.0
 30
0.0
  9
$PLIMCHECK
 70
     0
  9
$PEXTMIN
 10
1.000000000000000E+20
 20
1.000000000000000E+20
 30
1.000000000000000E+20
  9
$PEXTMAX
 10
-1.000000000000000E+20
 20
-1.000000000000000E+20
 30
-1.000000000000000E+20
  9
$PLIMMIN
 10
0.0
 20
0.0
  9
$PLIMMAX
 10
12.0
 20
9.0
  9
$UNITMODE
 70
     0
  9
$VISRETAIN
 70
     1
  9
$PLINEGEN
 70
     0
  9
$PSLTSCALE
 70
     1
  9
$TREEDEPTH
 70
  3020
  9
$CMLSTYLE
  2
Standard
  9
$CMLJUST
 70
     0
  9
$CMLSCALE
 40
1.0
  9
$PROXYGRAPHICS
 70
     1
  9
$MEASUREMENT
 70
     0
  9
$CELWEIGHT
370
    -1
  9
$ENDCAPS
280
     0
  9
$JOINSTYLE
280
     0
  9
$LWDISPLAY
290
     1
  9
$INSUNITS
 70
     1
  9
$HYPERLINKBASE
  1

  9
$STYLESHEET
  1

  9
$XEDIT
290
     1
  9
$CEPSNTYPE
380
     0
  9
$PSTYLEMODE
290
     1
  9
$FINGERPRINTGUID
  2
{63170034-79B3-012E-D8D2-7B53DA557BD8}
  9
$VERSIONGUID
  2
{FAEB1C32-E019-11D5-929B-00C0DF256EC4}
  9
$EXTNAMES
290
     1
  9
$PSVPSCALE
 40
0.0
  9
$OLESTARTUP
290
     0
  9
$SORTENTS
280
   127
  9
$INDEXCTL
280
     0
  9
$HIDETEXT
280
     1
  9
$XCLIPFRAME
280
     2
  9
$HALOGAP
280
     0
  9
$OBSCOLOR
 70
   257
  9
$OBSLTYPE
280
     0
  9
$INTERSECTIONDISPLAY
280
     0
  9
$INTERSECTIONCOLOR
 70
   257
  9
$DIMASSOC
280
     2
  9
$PROJECTNAME
  1

  9
$CAMERADISPLAY
290
     0
  9
$LENSLENGTH
 40
50.0
  9
$CAMERAHEIGHT
 40
0.0
  9
$STEPSPERSEC
 40
2.0
  9
$STEPSIZE
 40
6.0
  9
$3DDWFPREC
 40
2.0
  9
$PSOLWIDTH
 40
0.25
  9
$PSOLHEIGHT
 40
4.0
  9
$LOFTANG1
 40
1.570796326794897
  9
$LOFTANG2
 40
1.570796326794897
  9
$LOFTMAG1
 40
0.0
  9
$LOFTMAG2
 40
0.0
  9
$LOFTPARAM
 70
     7
  9
$LOFTNORMALS
280
     1
  9
$LATITUDE
 40
37.795
  9
$LONGITUDE
 40
-122.394
  9
$NORTHDIRECTION
 40
0.0
  9
$TIMEZONE
 70
 -8000
  9
$LIGHTGLYPHDISPLAY
280
     1
  9
$TILEMODELIGHTSYNCH
280
     1
  9
$CMATERIAL
347
3C
  9
$SOLIDHIST
280
     1
  9
$SHOWHIST
280
     1
  9
$DWFFRAME
280
     2
  9
$DGNFRAME
280
     2
  9
$REALWORLDSCALE
290
     1
  9
$INTERFERECOLOR
 62
   256
  9
$CSHADOW
280
     0
  9
$SHADOWPLANELOCATION
 40
0.0
  0
ENDSEC
  0
SECTION
  2
CLASSES
  0
CLASS
  1
ACDBDICTIONARYWDFLT
  2
AcDbDictionaryWithDefault
  3
ObjectDBX Classes
 90
        0
 91
        4
280
     0
281
     0
  0
CLASS
  1
VISUALSTYLE
  2
AcDbVisualStyle
  3
ObjectDBX Classes
 90
     4095
 91
        4
280
     0
281
     0
  0
CLASS
  1
MATERIAL
  2
AcDbMaterial
  3
ObjectDBX Classes
 90
     1153
 91
        4
280
     0
281
     0
  0
CLASS
  1
SUN
  2
AcDbSun
  3
SCENEOE
 90
     1024
 91
        4
280
     0
281
     0
  0
ENDSEC
  0
SECTION
  2
TABLES
  0
TABLE
  2
VPORT
  5
8
330
0
100
AcDbSymbolTable
 70
     1
  0
VPORT
  5
29
330
8
100
AcDbSymbolTableRecord
100
AcDbViewportTableRecord
  2
*Active
 70
     0
 10
0.0
 20
0.0
 11
1.0
 21
1.0
 12
0.0
 22
0.0
 13
0.0
 23
0.0
 14
0.5
 24
0.5
 15
0.5
 25
0.5
 16
0.0
 26
0.0
 36
1.0
 17
297.6379999999999
 27
-420.9449999999997
 37
0.0
 40
841.8899999999994
 41
0.7070709950231031
 42
50.0
 43
0.0
 44
0.0
 50
0.0
 51
0.0
 71
     0
 72
   100
 73
     1
 74
     3
 75
     0
 76
     0
 77
     0
 78
     0
281
     0
 65
     1
110
0.0
120
0.0
130
0.0
111
1.0
121
0.0
131
0.0
112
0.0
122
1.0
132
0.0
 79
     0
146
0.0
 60
     3
 61
     5
292
     1
282
     1
141
0.0
142
0.0
 63
   250
361
3F
  0
ENDTAB
  0
TABLE
  2
LTYPE
  5
5
330
0
100
AcDbSymbolTable
 70
     1
  0
LTYPE
  5
14
330
5
100
AcDbSymbolTableRecord
100
AcDbLinetypeTableRecord
  2
ByBlock
 70
     0
  3

 72
    65
 73
     0
 40
0.0
  0
LTYPE
  5
15
330
5
100
AcDbSymbolTableRecord
100
AcDbLinetypeTableRecord
  2
ByLayer
 70
     0
  3

 72
    65
 73
     0
 40
0.0
  0
LTYPE
  5
16
330
5
100
AcDbSymbolTableRecord
100
AcDbLinetypeTableRecord
  2
Continuous
 70
     0
  3
Solid line
 72
    65
 73
     0
 40
0.0
  0
ENDTAB
  0
TABLE
  2
LAYER
  5
2
330
0
100
AcDbSymbolTable
 70
     2
  0
LAYER
  5
10
330
2
100
AcDbSymbolTableRecord
100
AcDbLayerTableRecord
  2
0
 70
     0
 62
     7
  6
Continuous
370
    -3
390
F
347
3E
  0
LAYER
  5
40
330
2
100
AcDbSymbolTableRecord
100
AcDbLayerTableRecord
  2
Layer 1
 70
     0
 62
     7
  6
Continuous
370
    -3
390
F
347
3E
  0
ENDTAB
  0
TABLE
  2
STYLE
  5
3
330
0
100
AcDbSymbolTable
 70
     1
  0
STYLE
  5
11
330
3
100
AcDbSymbolTableRecord
100
AcDbTextStyleTableRecord
  2
Standard
 70
     0
 40
0.0
 41
1.0
 50
0.0
 71
     0
 42
0.2
  3
txt
  4

  0
ENDTAB
  0
TABLE
  2
VIEW
  5
6
330
0
100
AcDbSymbolTable
 70
     0
  0
ENDTAB
  0
TABLE
  2
UCS
  5
7
330
0
100
AcDbSymbolTable
 70
     0
  0
ENDTAB
  0
TABLE
  2
APPID
  5
9
330
0
100
AcDbSymbolTable
 70
     1
  0
APPID
  5
12
330
9
100
AcDbSymbolTableRecord
100
AcDbRegAppTableRecord
  2
ACAD
 70
     0
  0
ENDTAB
  0
TABLE
  2
DIMSTYLE
  5
A
330
0
100
AcDbSymbolTable
 70
     1
100
AcDbDimStyleTable
  0
DIMSTYLE
105
27
330
A
100
AcDbSymbolTableRecord
100
AcDbDimStyleTableRecord
  2
Standard
 70
     0
178
     0
340
11
  0
ENDTAB
  0
TABLE
  2
BLOCK_RECORD
  5
1
330
0
100
AcDbSymbolTable
 70
     2
  0
BLOCK_RECORD
  5
1F
330
1
100
AcDbSymbolTableRecord
100
AcDbBlockTableRecord
  2
*Model_Space
340
22
 70
     0
280
     1
281
     0
  0
BLOCK_RECORD
  5
1B
330
1
100
AcDbSymbolTableRecord
100
AcDbBlockTableRecord
  2
*Paper_Space
340
1E
 70
     0
280
     1
281
     0
  0
BLOCK_RECORD
  5
23
330
1
100
AcDbSymbolTableRecord
100
AcDbBlockTableRecord
  2
*Paper_Space0
340
26
 70
     0
280
     1
281
     0
  0
BLOCK_RECORD
  5
41
330
1
100
AcDbSymbolTableRecord
100
AcDbBlockTableRecord
  2
block 2
340
0
102
{BLKREFS
331
42
102
}
 70
     0
280
     1
281
     0
  0
ENDTAB
  0
ENDSEC
  0
SECTION
  2
BLOCKS
  0
BLOCK
  5
20
330
1F
100
AcDbEntity
  8
0
100
AcDbBlockBegin
  2
*Model_Space
 70
     0
 10
0.0
 20
0.0
 30
0.0
  3
*Model_Space
  1

  0
ENDBLK
  5
21
330
1F
100
AcDbEntity
  8
0
100
AcDbBlockEnd
  0
BLOCK
  5
1C
330
1B
100
AcDbEntity
 67
     1
  8
0
100
AcDbBlockBegin
  2
*Paper_Space
 70
     0
 10
0.0
 20
0.0
 30
0.0
  3
*Paper_Space
  1

  0
ENDBLK
  5
1D
330
1B
100
AcDbEntity
 67
     1
  8
0
100
AcDbBlockEnd
  0
BLOCK
  5
24
330
23
100
AcDbEntity
  8
0
100
AcDbBlockBegin
  2
*Paper_Space0
 70
     0
 10
0.0
 20
0.0
 30
0.0
  3
*Paper_Space0
  1

  0
ENDBLK
  5
25
330
23
100
AcDbEntity
  8
0
100
AcDbBlockEnd
  0
BLOCK
  5
43
330
41
100
AcDbEntity
  8
0
100
AcDbBlockBegin
  2
block 2
 70
     0
 10
0.0
 20
0.0
 30
0.0
  3
block 2
  1

  0
SPLINE
  5
45
330
41
100
AcDbEntity
  8
Layer 1
 62
   156
420
  1785491
370
     9
100
AcDbSpline
210
0.0
220
0.0
230
1.0
 70
     8
 71
     3
 72
     8
 73
     4
 74
     0
 42
0.0000000001
 43
0.0000000001
 12
1.0
 22
0.0
 32
0.0
 13
1.0
 23
0.0
 33
0.0
 40
0.0
 40
0.0
 40
0.0
 40
0.0
 40
1.0
 40
1.0
 40
1.0
 40
1.0
 10
287.8359790682825
 20
-386.3283050290775
 30
0.0
 10
287.8359790682825
 20
-386.3283050290775
 30
0.0
 10
254.1059676288287
 20
-566.0365372015731
 30
0.0
 10
255.9728593222462
 20
-569.6042513545835
 30
0.0
  0
SPLINE
  5
46
330
41
100
AcDbEntity
  8
Layer 1
 62
   156
420
  1785491
370
     9
100
AcDbSpline
210
0.0
220
0.0
230
1.0
 70
     8
 71
     3
 72
     8
 73
     4
 74
     0
 42
0.0000000001
 43
0.0000000001
 12
1.0
 22
0.0
 32
0.0
 13
1.0
 23
0.0
 33
0.0
 40
0.0
 40
0.0
 40
0.0
 40
0.0
 40
1.0
 40
1.0
 40
1.0
 40
1.0
 10
292.1710589114464
 20
-387.8172264668228
 30
0.0
 10
292.1710589114464
 20
-387.8172264668228
 30
0.0
 10
278.0204834361321
 20
-583.6632069447805
 30
0.0
 10
279.8873751295514
 20
-587.8035781479721
 30
0.0
  0
SPLINE
  5
47
330
41
100
AcDbEntity
  8
Layer 1
 62
   156
420
  1785491
370
     9
100
AcDbSpline
210
0.0
220
0.0
230
1.0
 70
     8
 71
     3
 72
     8
 73
     4
 74
     0
 42
0.0000000001
 43
0.0000000001
 12
1.0
 22
0.0
 32
0.0
 13
1.0
 23
0.0
 33
0.0
 40
0.0
 40
0.0
 40
0.0
 40
0.0
 40
1.0
 40
1.0
 40
1.0
 40
1.0
 10
176.7502762569256
 20
-387.4278310323434
 30
0.0
 10
176.7502762569256
 20
-387.4278310323434
 30
0.0
 10
258.5384017919787
 20
-350.8860241057564
 30
0.0
 10
276.3998447601152
 20
-356.0743660120515
 30
0.0
  0
SPLINE
  5
48
330
41
100
AcDbEntity
  8
Layer 1
 62
   156
420
  1785491
370
     9
100
AcDbSpline
210
0.0
220
0.0
230
1.0
 70
     8
 71
     3
 72
     8
 73
     4
 74
     0
 42
0.0000000001
 43
0.0000000001
 12
1.0
 22
0.0
 32
0.0
 13
1.0
 23
0.0
 33
0.0
 40
0.0
 40
0.0
 40
0.0
 40
0.0
 40
1.0
 40
1.0
 40
1.0
 40
1.0
 10
188.2436784546571
 20
-324.1310734051713
 30
0.0
 10
188.2436784546571
 20
-324.1310734051713
 30
0.0
 10
270.1635103052486
 20
-338.5794244298468
 30
0.0
 10
278.0491228422816
 20
-346.3505121104827
 30
0.0
  0
SPLINE
  5
49
330
41
100
AcDbEntity
  8
Layer 1
 62
   156
420
  1785491
370
     9
100
AcDbSpline
210
0.0
220
0.0
230
1.0
 70
     8
 71
     3
 72
     8
 73
     4
 74
     0
 42
0.0000000001
 43
0.0000000001
 12
1.0
 22
0.0
 32
0.0
 13
1.0
 23
0.0
 33
0.0
 40
0.0
 40
0.0
 40
0.0
 40
0.0
 40
1.0
 40
1.0
 40
1.0
 40
1.0
 10
196.6561380993098
 20
-293.6824257481721
 30
0.0
 10
196.6561380993098
 20
-293.6824257481721
 30
0.0
 10
273.908740716357
 20
-328.7982917159834
 30
0.0
 10
281.0098061040953
 20
-341.2365977074296
 30
0.0
  0
SPLINE
  5
4A
330
41
100
AcDbEntity
  8
Layer 1
 62
   156
420
  1785491
370
     9
100
AcDbSpline
210
0.0
220
0.0
230
1.0
 70
     8
 71
     3
 72
     8
 73
     4
 74
     0
 42
0.0000000001
 43
0.0000000001
 12
1.0
 22
0.0
 32
0.0
 13
1.0
 23
0.0
 33
0.0
 40
0.0
 40
0.0
 40
0.0
 40
0.0
 40
1.0
 40
1.0
 40
1.0
 40
1.0
 10
269.7053781114664
 20
-246.781105545404
 30
0.0
 10
269.7053781114664
 20
-246.781105545404
 30
0.0
 10
290.3957980258783
 20
-318.3700526032299
 30
0.0
 10
290.6592215796891
 20
-337.8063352275585
 30
0.0
  0
SPLINE
  5
4B
330
41
100
AcDbEntity
  8
Layer 1
 62
   156
420
  1785491
370
     9
100
AcDbSpline
210
0.0
220
0.0
230
1.0
 70
     8
 71
     3
 72
     8
 73
     4
 74
     0
 42
0.0000000001
 43
0.0000000001
 12
1.0
 22
0.0
 32
0.0
 13
1.0
 23
0.0
 33
0.0
 40
0.0
 40
0.0
 40
0.0
 40
0.0
 40
1.0
 40
1.0
 40
1.0
 40
1.0
 10
270.6159189868958
 20
-578.640912426843
 30
0.0
 10
270.6159189868958
 20
-578.640912426843
 30
0.0
 10
283.6841499180864
 20
-396.3098698950516
 30
0.0
 10
289.9376658320953
 20
-387.1701200679363
 30
0.0
  0
SPLINE
  5
4C
330
41
100
AcDbEntity
  8
Layer 1
 62
   156
420
  1785491
370
     9
100
AcDbSpline
210
0.0
220
0.0
230
1.0
 70
     8
 71
     3
 72
     8
 73
     4
 74
     0
 42
0.0000000001
 43
0.0000000001
 12
1.0
 22
0.0
 32
0.0
 13
1.0
 23
0.0
 33
0.0
 40
0.0
 40
0.0
 40
0.0
 40
0.0
 40
1.0
 40
1.0
 40
1.0
 40
1.0
 10
250.2576484628644
 20
-567.4052211935177
 30
0.0
 10
250.2576484628644
 20
-567.4052211935177
 30
0.0
 10
276.3311189235446
 20
-396.3556798376103
 30
0.0
 10
286.7822739303083
 20
-385.6124727936203
 30
0.0
  0
SPLINE
  5
4D
330
41
100
AcDbEntity
  8
Layer 1
 62
   156
420
  1785491
370
     9
100
AcDbSpline
210
0.0
220
0.0
230
1.0
 70
     8
 71
     3
 72
     8
 73
     4
 74
     0
 42
0.0000000001
 43
0.0000000001
 12
1.0
 22
0.0
 32
0.0
 13
1.0
 23
0.0
 33
0.0
 40
0.0
 40
0.0
 40
0.0
 40
0.0
 40
1.0
 40
1.0
 40
1.0
 40
1.0
 10
213.9105556376162
 20
-525.5891541421897
 30
0.0
 10
213.9105556376162
 20
-525.5891541421897
 30
0.0
 10
253.4932132254944
 20
-401.3378660796598
 30
0.0
 10
281.2045038213346
 20
-379.3303283961959
 30
0.0
  0
SPLINE
  5
4E
330
41
100
AcDbEntity
  8
Layer 1
 62
   156
420
  1785491
370
     9
100
AcDbSpline
210
0.0
220
0.0
230
1.0
 70
     8
 71
     3
 72
     8
 73
     4
 74
     0
 42
0.0000000001
 43
0.0000000001
 12
1.0
 22
0.0
 32
0.0
 13
1.0
 23
0.0
 33
0.0
 40
0.0
 40
0.0
 40
0.0
 40
0.0
 40
1.0
 40
1.0
 40
1.0
 40
1.0
 10
195.9288479168472
 20
-486.6765243085756
 30
0.0
 10
195.9288479168472
 20
-486.6765243085756
 30
0.0
 10
244.5252670670734
 20
-387.4850879991754
 30
0.0
 10
279.0226551194119
 20
-374.617300142826
 30
0.0
  0
SPLINE
  5
4F
330
41
100
AcDbEntity
  8
Layer 1
 62
   156
420
  1785491
370
     9
100
AcDbSpline
210
0.0
220
0.0
230
1.0
 70
     8
 71
     3
 72
     8
 73
     4
 74
     0
 42
0.0000000001
 43
0.0000000001
 12
1.0
 22
0.0
 32
0.0
 13
1.0
 23
0.0
 33
0.0
 40
0.0
 40
0.0
 40
0.0
 40
0.0
 40
1.0
 40
1.0
 40
1.0
 40
1.0
 10
188.3123933684947
 20
-472.6862945549547
 30
0.0
 10
188.3123933684947
 20
-472.6862945549547
 30
0.0
 10
240.4421637534469
 20
-385.5322999327764
 30
0.0
 10
277.8544142023084
 20
-370.6487216855958
 30
0.0
  0
SPLINE
  5
50
330
41
100
AcDbEntity
  8
Layer 1
 62
   156
420
  1785491
370
     9
100
AcDbSpline
210
0.0
220
0.0
230
1.0
 70
     8
 71
     3
 72
     8
 73
     4
 74
     0
 42
0.0000000001
 43
0.0000000001
 12
1.0
 22
0.0
 32
0.0
 13
1.0
 23
0.0
 33
0.0
 40
0.0
 40
0.0
 40
0.0
 40
0.0
 40
1.0
 40
1.0
 40
1.0
 40
1.0
 10
179.899933723842
 20
-434.203157508975
 30
0.0
 10
179.899933723842
 20
-434.203157508975
 30
0.0
 10
253.281323126379
 20
-364.1718686481981
 30
0.0
 10
276.9324263026065
 20
-365.2083923270302
 30
0.0
  0
SPLINE
  5
51
330
41
100
AcDbEntity
  8
Layer 1
 62
   156
420
  1785491
370
     9
100
AcDbSpline
210
0.0
220
0.0
230
1.0
 70
     8
 71
     3
 72
     8
 73
     4
 74
     0
 42
0.0000000001
 43
0.0000000001
 12
1.0
 22
0.0
 32
0.0
 13
1.0
 23
0.0
 33
0.0
 40
0.0
 40
0.0
 40
0.0
 40
0.0
 40
1.0
 40
1.0
 40
1.0
 40
1.0
 10
174.5168722548406
 20
-416.3875244833971
 30
0.0
 10
174.5168722548406
 20
-416.3875244833971
 30
0.0
 10
265.960147700358
 20
-356.6527684198327
 30
0.0
 10
276.4742941088234
 20
-360.79886313516
 30
0.0
  0
SPLINE
  5
52
330
41
100
AcDbEntity
  8
Layer 1
 62
   156
420
  1785491
370
     9
100
AcDbSpline
210
0.0
220
0.0
230
1.0
 70
     8
 71
     3
 72
     8
 73
     4
 74
     0
 42
0.0000000001
 43
0.0000000001
 12
1.0
 22
0.0
 32
0.0
 13
1.0
 23
0.0
 33
0.0
 40
0.0
 40
0.0
 40
0.0
 40
0.0
 40
1.0
 40
1.0
 40
1.0
 40
1.0
 10
178.2563791538132
 20
-376.6731551186131
 30
0.0
 10
178.2563791538132
 20
-376.6731551186131
 30
0.0
 10
262.6730385602987
 20
-348.0398657003379
 30
0.0
 10
276.3368533584144
 20
-355.0378423332204
 30
0.0
  0
SPLINE
  5
53
330
41
100
AcDbEntity
  8
Layer 1
 62
   156
420
  1785491
370
     9
100
AcDbSpline
210
0.0
220
0.0
230
1.0
 70
     8
 71
     3
 72
     8
 73
     4
 74
     0
 42
0.0000000001
 43
0.0000000001
 12
1.0
 22
0.0
 32
0.0
 13
1.0
 23
0.0
 33
0.0
 40
0.0
 40
0.0
 40
0.0
 40
0.0
 40
1.0
 40
1.0
 40
1.0
 40
1.0
 10
177.3401147662471
 20
-365.792518246948
 30
0.0
 10
177.3401147662471
 20
-365.792518246948
 30
0.0
 10
238.5008227113212
 20
-344.9932969882766
 30
0.0
 10
276.6002769122242
 20
-351.733562656751
 30
0.0
  0
SPLINE
  5
54
330
41
100
AcDbEntity
  8
Layer 1
 62
   156
420
  1785491
370
     9
100
AcDbSpline
210
0.0
220
0.0
230
1.0
 70
     8
 71
     3
 72
     8
 73
     4
 74
     0
 42
0.0000000001
 43
0.0000000001
 12
1.0
 22
0.0
 32
0.0
 13
1.0
 23
0.0
 33
0.0
 40
0.0
 40
0.0
 40
0.0
 40
0.0
 40
1.0
 40
1.0
 40
1.0
 40
1.0
 10
179.8369423221411
 20
-341.1736172284609
 30
0.0
 10
179.8369423221411
 20
-341.1736172284609
 30
0.0
 10
271.4806389970345
 20
-339.1005698707977
 30
0.0
 10
277.522264811927
 20
-347.6504702658585
 30
0.0
  0
SPLINE
  5
55
330
41
100
AcDbEntity
  8
Layer 1
 62
   156
420
  1785491
370
     9
100
AcDbSpline
210
0.0
220
0.0
230
1.0
 70
     8
 71
     3
 72
     8
 73
     4
 74
     0
 42
0.0000000001
 43
0.0000000001
 12
1.0
 22
0.0
 32
0.0
 13
1.0
 23
0.0
 33
0.0
 40
0.0
 40
0.0
 40
0.0
 40
0.0
 40
1.0
 40
1.0
 40
1.0
 40
1.0
 10
189.7555157864153
 20
-317.5225140522343
 30
0.0
 10
189.7555157864153
 20
-317.5225140522343
 30
0.0
 10
274.6303073866839
 20
-339.6159699541458
 30
0.0
 10
278.8336699915753
 20
-344.5408773838972
 30
0.0
  0
SPLINE
  5
56
330
41
100
AcDbEntity
  8
Layer 1
 62
   156
420
  1785491
370
     9
100
AcDbSpline
210
0.0
220
0.0
230
1.0
 70
     8
 71
     3
 72
     8
 73
     4
 74
     0
 42
0.0000000001
 43
0.0000000001
 12
1.0
 22
0.0
 32
0.0
 13
1.0
 23
0.0
 33
0.0
 40
0.0
 40
0.0
 40
0.0
 40
0.0
 40
1.0
 40
1.0
 40
1.0
 40
1.0
 10
218.2685404520589
 20
-273.278345281582
 30
0.0
 10
218.2685404520589
 20
-273.278345281582
 30
0.0
 10
281.2045038213346
 20
-328.9872768438181
 30
0.0
 10
283.3004670730106
 20
-339.1005698707977
 30
0.0
  0
SPLINE
  5
57
330
41
100
AcDbEntity
  8
Layer 1
 62
   156
420
  1785491
370
     9
100
AcDbSpline
210
0.0
220
0.0
230
1.0
 70
     8
 71
     3
 72
     8
 73
     4
 74
     0
 42
0.0000000001
 43
0.0000000001
 12
1.0
 22
0.0
 32
0.0
 13
1.0
 23
0.0
 33
0.0
 40
0.0
 40
0.0
 40
0.0
 40
0.0
 40
1.0
 40
1.0
 40
1.0
 40
1.0
 10
208.0178230587708
 20
-286.0430662285407
 30
0.0
 10
208.0178230587708
 20
-286.0430662285407
 30
0.0
 10
276.9954177043064
 20
-327.1833874748354
 30
0.0
 10
282.2524854471721
 20
-340.1313481920261
 30
0.0
  0
SPLINE
  5
58
330
41
100
AcDbEntity
  8
Layer 1
 62
   156
420
  1785491
370
     9
100
AcDbSpline
210
0.0
220
0.0
230
1.0
 70
     8
 71
     3
 72
     8
 73
     4
 74
     0
 42
0.0000000001
 43
0.0000000001
 12
1.0
 22
0.0
 32
0.0
 13
1.0
 23
0.0
 33
0.0
 40
0.0
 40
0.0
 40
0.0
 40
0.0
 40
1.0
 40
1.0
 40
1.0
 40
1.0
 10
278.7076871881736
 20
-242.8239741124471
 30
0.0
 10
278.7076871881736
 20
-242.8239741124471
 30
0.0
 10
293.8088790466063
 20
-325.1046166050346
 30
0.0
 10
291.7129267176633
 20
-337.5429007510156
 30
0.0
  0
SPLINE
  5
59
330
41
100
AcDbEntity
  8
Layer 1
 62
   156
420
  1785491
370
     9
100
AcDbSpline
210
0.0
220
0.0
230
1.0
 70
     8
 71
     3
 72
     8
 73
     4
 74
     0
 42
0.0000000001
 43
0.0000000001
 12
1.0
 22
0.0
 32
0.0
 13
1.0
 23
0.0
 33
0.0
 40
0.0
 40
0.0
 40
0.0
 40
0.0
 40
1.0
 40
1.0
 40
1.0
 40
1.0
 10
241.7192060148091
 20
-254.4261885771721
 30
0.0
 10
241.7192060148091
 20
-254.4261885771721
 30
0.0
 10
283.2374756713098
 20
-316.428711561105
 30
0.0
 10
286.9197146807164
 20
-337.9323180309611
 30
0.0
  0
SPLINE
  5
5A
330
41
100
AcDbEntity
  8
Layer 1
 62
   156
420
  1785491
370
     9
100
AcDbSpline
210
0.0
220
0.0
230
1.0
 70
     8
 71
     3
 72
     8
 73
     4
 74
     0
 42
0.0000000001
 43
0.0000000001
 12
1.0
 22
0.0
 32
0.0
 13
1.0
 23
0.0
 33
0.0
 40
0.0
 40
0.0
 40
0.0
 40
0.0
 40
1.0
 40
1.0
 40
1.0
 40
1.0
 10
255.7151592805722
 20
-251.8262941118874
 30
0.0
 10
255.7151592805722
 20
-251.8262941118874
 30
0.0
 10
286.4558480520645
 20
-314.7393579712507
 30
0.0
 10
288.2941112620674
 20
-337.8063352275585
 30
0.0
  0
SPLINE
  5
5B
330
41
100
AcDbEntity
  8
Layer 1
 62
   156
420
  1785491
370
     9
100
AcDbSpline
210
0.0
220
0.0
230
1.0
 70
     8
 71
     3
 72
     8
 73
     4
 74
     0
 42
0.0000000001
 43
0.0000000001
 12
1.0
 22
0.0
 32
0.0
 13
1.0
 23
0.0
 33
0.0
 40
0.0
 40
0.0
 40
0.0
 40
0.0
 40
1.0
 40
1.0
 40
1.0
 40
1.0
 10
234.4291718833356
 20
-562.8009833616743
 30
0.0
 10
234.4291718833356
 20
-562.8009833616743
 30
0.0
 10
262.7417643968693
 20
-426.5580744772087
 30
0.0
 10
283.7643227789304
 20
-383.024025352609
 30
0.0
  0
SPLINE
  5
5C
330
41
100
AcDbEntity
  8
Layer 1
 62
   156
420
  1785491
370
     9
100
AcDbSpline
210
0.0
220
0.0
230
1.0
 70
     8
 71
     3
 72
     8
 73
     4
 74
     0
 42
0.0000000001
 43
0.0000000001
 12
1.0
 22
0.0
 32
0.0
 13
1.0
 23
0.0
 33
0.0
 40
0.0
 40
0.0
 40
0.0
 40
0.0
 40
1.0
 40
1.0
 40
1.0
 40
1.0
 10
200.1379449566084
 20
-512.9160749258135
 30
0.0
 10
200.1379449566084
 20
-512.9160749258135
 30
0.0
 10
254.1403196243809
 20
-387.8172264668228
 30
0.0
 10
279.360528021929
 20
-375.894342404189
 30
0.0
  0
SPLINE
  5
5D
330
41
100
AcDbEntity
  8
Layer 1
 62
   156
420
  1785491
370
     9
100
AcDbSpline
210
0.0
220
0.0
230
1.0
 70
     8
 71
     3
 72
     8
 73
     4
 74
     0
 42
0.0000000001
 43
0.0000000001
 12
1.0
 22
0.0
 32
0.0
 13
1.0
 23
0.0
 33
0.0
 40
0.0
 40
0.0
 40
0.0
 40
0.0
 40
1.0
 40
1.0
 40
1.0
 40
1.0
 10
177.6665406444918
 20
-462.9681641655225
 30
0.0
 10
177.6665406444918
 20
-462.9681641655225
 30
0.0
 10
247.5661231897302
 20
-369.0280720868459
 30
0.0
 10
276.9954177043064
 20
-365.9185010503506
 30
0.0
  0
SPLINE
  5
5E
330
41
100
AcDbEntity
  8
Layer 1
 62
   156
420
  1785491
370
     9
100
AcDbSpline
210
0.0
220
0.0
230
1.0
 70
     8
 71
     3
 72
     8
 73
     4
 74
     0
 42
0.0000000001
 43
0.0000000001
 12
1.0
 22
0.0
 32
0.0
 13
1.0
 23
0.0
 33
0.0
 40
0.0
 40
0.0
 40
0.0
 40
0.0
 40
1.0
 40
1.0
 40
1.0
 40
1.0
 10
168.7329574043542
 20
-403.1074143758242
 30
0.0
 10
168.7329574043542
 20
-403.1074143758242
 30
0.0
 10
264.3853189668989
 20
-354.3850124221972
 30
0.0
 10
276.4742941088234
 20
-356.9791833753443
 30
0.0
  0
SPLINE
  5
5F
330
41
100
AcDbEntity
  8
Layer 1
 62
   156
420
  1785491
370
     9
100
AcDbSpline
210
0.0
220
0.0
230
1.0
 70
     8
 71
     3
 72
     8
 73
     4
 74
     0
 42
0.0000000001
 43
0.0000000001
 12
1.0
 22
0.0
 32
0.0
 13
1.0
 23
0.0
 33
0.0
 40
0.0
 40
0.0
 40
0.0
 40
0.0
 40
1.0
 40
1.0
 40
1.0
 40
1.0
 10
172.6786199675735
 20
-348.4292829802835
 30
0.0
 10
172.6786199675735
 20
-348.4292829802835
 30
0.0
 10
273.3131786948998
 20
-344.8043118604401
 30
0.0
 10
276.9954177043064
 20
-349.4658066591146
 30
0.0
  0
SPLINE
  5
60
330
41
100
AcDbEntity
  8
Layer 1
 62
   156
420
  1785491
370
     9
100
AcDbSpline
210
0.0
220
0.0
230
1.0
 70
     8
 71
     3
 72
     8
 73
     4
 74
     0
 42
0.0000000001
 43
0.0000000001
 12
1.0
 22
0.0
 32
0.0
 13
1.0
 23
0.0
 33
0.0
 40
0.0
 40
0.0
 40
0.0
 40
0.0
 40
1.0
 40
1.0
 40
1.0
 40
1.0
 10
191.0726444781994
 20
-299.1914809433083
 30
0.0
 10
191.0726444781994
 20
-299.1914809433083
 30
0.0
 10
278.5702464377664
 20
-335.9909769888363
 30
0.0
 10
280.6719332015773
 20
-341.9524299428858
 30
0.0
  0
SPLINE
  5
61
330
41
100
AcDbEntity
  8
Layer 1
 62
   156
420
  1785491
370
     9
100
AcDbSpline
210
0.0
220
0.0
230
1.0
 70
     8
 71
     3
 72
     8
 73
     4
 74
     0
 42
0.0000000001
 43
0.0000000001
 12
1.0
 22
0.0
 32
0.0
 13
1.0
 23
0.0
 33
0.0
 40
0.0
 40
0.0
 40
0.0
 40
0.0
 40
1.0
 40
1.0
 40
1.0
 40
1.0
 10
227.8549699873183
 20
-255.6516973838397
 30
0.0
 10
227.8549699873183
 20
-255.6516973838397
 30
0.0
 10
280.6719332015773
 20
-316.5547162099738
 30
0.0
 10
284.8752958064688
 20
-338.5851697874496
 30
0.0
  0
SPLINE
  5
62
330
41
100
AcDbEntity
  8
Layer 1
 62
   156
420
  1785491
370
     9
100
AcDbSpline
210
0.0
220
0.0
230
1.0
 70
     8
 71
     3
 72
    86
 73
    82
 74
     0
 42
0.0000000001
 43
0.0000000001
 12
1.0
 22
0.0
 32
0.0
 13
1.0
 23
0.0
 33
0.0
 40
0.0
 40
0.0
 40
0.0
 40
0.0
 40
1.0
 40
1.0
 40
1.0
 40
2.0
 40
2.0
 40
2.0
 40
3.0
 40
3.0
 40
3.0
 40
4.0
 40
4.0
 40
4.0
 40
5.0
 40
5.0
 40
5.0
 40
6.0
 40
6.0
 40
6.0
 40
7.0
 40
7.0
 40
7.0
 40
8.0
 40
8.0
 40
8.0
 40
9.0
 40
9.0
 40
9.0
 40
10.0
 40
10.0
 40
10.0
 40
11.0
 40
11.0
 40
11.0
 40
12.0
 40
12.0
 40
12.0
 40
13.0
 40
13.0
 40
13.0
 40
14.0
 40
14.0
 40
14.0
 40
15.0
 40
15.0
 40
15.0
 40
16.0
 40
16.0
 40
16.0
 40
17.0
 40
17.0
 40
17.0
 40
18.0
 40
18.0
 40
18.0
 40
19.0
 40
19.0
 40
19.0
 40
20.0
 40
20.0
 40
20.0
 40
21.0
 40
21.0
 40
21.0
 40
22.0
 40
22.0
 40
22.0
 40
23.0
 40
23.0
 40
23.0
 40
24.0
 40
24.0
 40
24.0
 40
25.0
 40
25.0
 40
25.0
 40
26.0
 40
26.0
 40
26.0
 40
27.0
 40
27.0
 40
27.0
 40
27.0
 10
294.8683186194503
 20
-338.0640243465004
 30
0.0
 10
294.8683186194503
 20
-338.0640243465004
 30
0.0
 10
275.0254481787661
 20
-332.2285760413179
 30
0.0
 10
276.4742941088234
 20
-359.5733543284914
 30
0.0
 10
278.060569866554
 20
-389.6497770874212
 30
0.0
 10
294.0780370352859
 20
-387.5595373478809
 30
0.0
 10
294.0780370352859
 20
-387.8172264668228
 30
0.0
 10
294.0780370352859
 20
-387.8172264668228
 30
0.0
 10
293.0300554094483
 20
-592.0241222120058
 30
0.0
 10
290.401521538015
 20
-598.2432642849963
 30
0.0
 10
289.8746635076614
 20
-598.5582322162336
 30
0.0
 10
289.3306349408977
 20
-598.3062666094302
 30
0.0
 10
288.8209583696871
 20
-597.9855751660562
 30
0.0
 10
278.3125463960914
 20
-587.6088695079998
 30
0.0
 10
277.1271240198457
 20
-582.7583895814878
 30
0.0
 10
265.1755896283303
 20
-574.6494399210678
 30
0.0
 10
258.4753994675439
 20
-570.1196514379317
 30
0.0
 10
250.6527892549457
 20
-567.3364953569471
 30
0.0
 10
242.8359025544851
 20
-565.0687393593107
 30
0.0
 10
238.8959635034034
 20
-563.963489843909
 30
0.0
 10
235.8722888398888
 20
-564.9370330437723
 30
0.0
 10
233.2437549684564
 20
-561.9648918349521
 30
0.0
 10
233.2437549684564
 20
-561.9648918349521
 30
0.0
 10
233.1120377301841
 20
-561.707202716012
 30
0.0
 10
233.1120377301841
 20
-561.707202716012
 30
0.0
 10
225.4955831818315
 20
-539.0296208941836
 30
0.0
 10
217.8734051213432
 20
-525.8755045127455
 30
0.0
 10
198.689099026552
 20
-511.6848426070101
 30
0.0
 10
198.689099026552
 20
-511.6848426070101
 30
0.0
 10
198.689099026552
 20
-511.9425426486832
 30
0.0
 10
198.689099026552
 20
-511.9425426486832
 30
0.0
 10
199.8745214027977
 20
-490.4332126666905
 30
0.0
 10
193.9588783913068
 20
-474.8910591508848
 30
0.0
 10
177.1454170490069
 20
-462.4527640821761
 30
0.0
 10
180.8906474601154
 20
-451.3029582990966
 30
0.0
 10
181.0853561000886
 20
-444.0587395715484
 30
0.0
 10
179.7682164855714
 20
-432.3935337051225
 30
0.0
 10
179.0466607379767
 20
-425.716248515615
 30
0.0
 10
178.0616814365731
 20
-421.8335773540994
 30
0.0
 10
174.2534487010307
 20
-416.3245330816962
 30
0.0
 10
171.2297740375161
 20
-411.915003889826
 30
0.0
 10
166.9634200309229
 20
-406.4746963767266
 30
0.0
 10
168.996380958165
 20
-401.555490613644
 30
0.0
 10
178.6515199458954
 20
-388.7850461545504
 30
0.0
 10
179.4418015300598
 20
-379.2616025596253
 30
0.0
 10
176.881982572464
 20
-363.4617599248777
 30
0.0
 10
175.8970032710604
 20
-357.3628771431531
 30
0.0
 10
173.6635992689762
 20
-354.327733609899
 30
0.0
 10
172.6786199675735
 20
-348.1715938613415
 30
0.0
 10
172.6786199675735
 20
-348.1715938613415
 30
0.0
 10
172.9363200092466
 20
-347.9138828969353
 30
0.0
 10
172.9363200092466
 20
-347.9138828969353
 30
0.0
 10
176.2921440631417
 20
-343.4986301929293
 30
0.0
 10
179.9056572359787
 20
-342.147138582859
 30
0.0
 10
182.6601848335467
 20
-337.2852116320746
 30
0.0
 10
190.0876542540627
 20
-324.1940757296052
 30
0.0
 10
190.5457973705788
 20
-314.6820791589525
 30
0.0
 10
190.5457973705788
 20
-299.7126045387922
 30
0.0
 10
197.8358260406867
 20
-290.1204569527636
 30
0.0
 10
208.0865434339748
 20
-289.0782097617948
 30
0.0
 10
214.1968896240724
 20
-278.7243981522843
 30
0.0
 10
217.478264329261
 20
-273.1466389660436
 30
0.0
 10
221.0287915617637
 20
-270.9361399352383
 30
0.0
 10
223.6573254331961
 20
-264.9804323387916
 30
0.0
 10
225.4268628066275
 20
-260.9660439390027
 30
0.0
 10
225.2951510297225
 20
-257.9251768936119
 30
0.0
 10
228.3875460684412
 20
-254.8786081815524
 30
0.0
 10
247.9612639818124
 20
-254.8786081815524
 30
0.0
 10
259.7868046471922
 20
-251.9637239395615
 30
0.0
 10
277.522264811927
 20
-243.2191149045284
 30
0.0
 10
283.833048615501
 20
-240.1095438680331
 30
0.0
 10
285.9977158582806
 20
-236.7995406794289
 30
0.0
 10
292.5032083018268
 20
-233.6269673184997
 30
0.0
 10
292.5032083018268
 20
-233.6269673184997
 30
0.0
 10
292.4344824652562
 20
-233.7529501219014
 30
0.0
 10
292.4344824652562
 20
-233.7529501219014
 30
0.0
 10
293.1445911885767
 20
-233.5983279123511
 30
0.0
 10
293.814613481476
 20
-234.2053697262818
 30
0.0
 10
293.814613481476
 20
-234.9212019617389
 30
0.0
 10
293.814613481476
 20
-234.9212019617389
 30
0.0
 10
298.4131168784488
 20
-323.5526928428553
 30
0.0
 10
295.0000249349887
 20
-337.8063352275585
 30
0.0
  0
SPLINE
  5
63
330
41
100
AcDbEntity
  8
Layer 1
 62
   156
420
  1785491
370
     9
100
AcDbSpline
210
0.0
220
0.0
230
1.0
 70
     8
 71
     3
 72
     8
 73
     4
 74
     0
 42
0.0000000001
 43
0.0000000001
 12
1.0
 22
0.0
 32
0.0
 13
1.0
 23
0.0
 33
0.0
 40
0.0
 40
0.0
 40
0.0
 40
0.0
 40
1.0
 40
1.0
 40
1.0
 40
1.0
 10
409.7170122059124
 20
-318.3677806747482
 30
0.0
 10
409.7170122059124
 20
-318.3677806747482
 30
0.0
 10
369.5158712411976
 20
-316.6039558907214
 30
0.0
 10
363.0905516584935
 20
-329.2713334404252
 30
0.0
  0
SPLINE
  5
64
330
41
100
AcDbEntity
  8
Layer 1
 62
   156
420
  1785491
370
     9
100
AcDbSpline
210
0.0
220
0.0
230
1.0
 70
     8
 71
     3
 72
     8
 73
     4
 74
     0
 42
0.0000000001
 43
0.0000000001
 12
1.0
 22
0.0
 32
0.0
 13
1.0
 23
0.0
 33
0.0
 40
0.0
 40
0.0
 40
0.0
 40
0.0
 40
1.0
 40
1.0
 40
1.0
 40
1.0
 10
410.3469480683889
 20
-267.2516399200831
 30
0.0
 10
410.3469480683889
 20
-267.2516399200831
 30
0.0
 10
377.1151443304061
 20
-277.5653432537056
 30
0.0
 10
362.3174624562052
 20
-308.5007515879024
 30
0.0
  0
SPLINE
  5
65
330
41
100
AcDbEntity
  8
Layer 1
 62
   156
420
  1785491
370
     9
100
AcDbSpline
210
0.0
220
0.0
230
1.0
 70
     8
 71
     3
 72
     8
 73
     4
 74
     0
 42
0.0000000001
 43
0.0000000001
 12
1.0
 22
0.0
 32
0.0
 13
1.0
 23
0.0
 33
0.0
 40
0.0
 40
0.0
 40
0.0
 40
0.0
 40
1.0
 40
1.0
 40
1.0
 40
1.0
 10
410.2724987196816
 20
-260.6258881852709
 30
0.0
 10
410.2724987196816
 20
-260.6258881852709
 30
0.0
 10
372.7915115115156
 20
-270.7162653182386
 30
0.0
 10
361.8994057701111
 20
-307.5444007699152
 30
0.0
  0
SPLINE
  5
66
330
41
100
AcDbEntity
  8
Layer 1
 62
   156
420
  1785491
370
     9
100
AcDbSpline
210
0.0
220
0.0
230
1.0
 70
     8
 71
     3
 72
     8
 73
     4
 74
     0
 42
0.0000000001
 43
0.0000000001
 12
1.0
 22
0.0
 32
0.0
 13
1.0
 23
0.0
 33
0.0
 40
0.0
 40
0.0
 40
0.0
 40
0.0
 40
1.0
 40
1.0
 40
1.0
 40
1.0
 10
360.4391237385153
 20
-364.1065943952826
 30
0.0
 10
360.4391237385153
 20
-364.1065943952826
 30
0.0
 10
392.9665422653143
 20
-394.3777039487177
 30
0.0
 10
409.4364071929595
 20
-393.7821310045274
 30
0.0
  0
SPLINE
  5
67
330
41
100
AcDbEntity
  8
Layer 1
 62
   156
420
  1785491
370
     9
100
AcDbSpline
210
0.0
220
0.0
230
1.0
 70
     8
 71
     3
 72
     8
 73
     4
 74
     0
 42
0.0000000001
 43
0.0000000001
 12
1.0
 22
0.0
 32
0.0
 13
1.0
 23
0.0
 33
0.0
 40
0.0
 40
0.0
 40
0.0
 40
0.0
 40
1.0
 40
1.0
 40
1.0
 40
1.0
 10
363.0905516584935
 20
-353.0598664443278
 30
0.0
 10
363.0905516584935
 20
-353.0598664443278
 30
0.0
 10
403.852902649116
 20
-363.7343476517472
 30
0.0
 10
409.7170122059124
 20
-362.2568732382751
 30
0.0
  0
SPLINE
  5
68
330
41
100
AcDbEntity
  8
Layer 1
 62
   156
420
  1785491
370
     9
100
AcDbSpline
210
0.0
220
0.0
230
1.0
 70
     8
 71
     3
 72
     8
 73
     4
 74
     0
 42
0.0000000001
 43
0.0000000001
 12
1.0
 22
0.0
 32
0.0
 13
1.0
 23
0.0
 33
0.0
 40
0.0
 40
0.0
 40
0.0
 40
0.0
 40
1.0
 40
1.0
 40
1.0
 40
1.0
 10
361.6245242692949
 20
-349.0855644749608
 30
0.0
 10
361.6245242692949
 20
-349.0855644749608
 30
0.0
 10
407.7642241395151
 20
-349.5952410461723
 30
0.0
 10
409.9976172188653
 20
-351.0669919475076
 30
0.0
  0
SPLINE
  5
69
330
41
100
AcDbEntity
  8
Layer 1
 62
   156
420
  1785491
370
     9
100
AcDbSpline
210
0.0
220
0.0
230
1.0
 70
     8
 71
     3
 72
     8
 73
     4
 74
     0
 42
0.0000000001
 43
0.0000000001
 12
1.0
 22
0.0
 32
0.0
 13
1.0
 23
0.0
 33
0.0
 40
0.0
 40
0.0
 40
0.0
 40
0.0
 40
1.0
 40
1.0
 40
1.0
 40
1.0
 10
361.4126450929125
 20
-389.3668783005196
 30
0.0
 10
361.4126450929125
 20
-389.3668783005196
 30
0.0
 10
392.4053103939423
 20
-435.323294709573
 30
0.0
 10
409.4421307050961
 20
-433.8515438082377
 30
0.0
  0
SPLINE
  5
6A
330
41
100
AcDbEntity
  8
Layer 1
 62
   156
420
  1785491
370
     9
100
AcDbSpline
210
0.0
220
0.0
230
1.0
 70
     8
 71
     3
 72
     8
 73
     4
 74
     0
 42
0.0000000001
 43
0.0000000001
 12
1.0
 22
0.0
 32
0.0
 13
1.0
 23
0.0
 33
0.0
 40
0.0
 40
0.0
 40
0.0
 40
0.0
 40
1.0
 40
1.0
 40
1.0
 40
1.0
 10
361.1320400799596
 20
-418.8247903757792
 30
0.0
 10
361.1320400799596
 20
-418.8247903757792
 30
0.0
 10
392.130428893126
 20
-487.1037342449963
 30
0.0
 10
409.1558021800065
 20
-482.0929085967982
 30
0.0
  0
SPLINE
  5
6B
330
41
100
AcDbEntity
  8
Layer 1
 62
   156
420
  1785491
370
     9
100
AcDbSpline
210
0.0
220
0.0
230
1.0
 70
     8
 71
     3
 72
     8
 73
     4
 74
     0
 42
0.0000000001
 43
0.0000000001
 12
1.0
 22
0.0
 32
0.0
 13
1.0
 23
0.0
 33
0.0
 40
0.0
 40
0.0
 40
0.0
 40
0.0
 40
1.0
 40
1.0
 40
1.0
 40
1.0
 10
371.7435408084111
 20
-504.5585893967782
 30
0.0
 10
371.7435408084111
 20
-504.5585893967782
 30
0.0
 10
393.2414019206644
 20
-589.9946128684187
 30
0.0
 10
409.7112886937757
 20
-591.1742898870616
 30
0.0
  0
SPLINE
  5
6C
330
41
100
AcDbEntity
  8
Layer 1
 62
   156
420
  1785491
370
     9
100
AcDbSpline
210
0.0
220
0.0
230
1.0
 70
     8
 71
     3
 72
     8
 73
     4
 74
     0
 42
0.0000000001
 43
0.0000000001
 12
1.0
 22
0.0
 32
0.0
 13
1.0
 23
0.0
 33
0.0
 40
0.0
 40
0.0
 40
0.0
 40
0.0
 40
1.0
 40
1.0
 40
1.0
 40
1.0
 10
368.3934511893858
 20
-490.4137592790667
 30
0.0
 10
368.3934511893858
 20
-490.4137592790667
 30
0.0
 10
393.0352462564188
 20
-578.2091367879948
 30
0.0
 10
409.5051111840639
 20
-579.3888356521038
 30
0.0
  0
SPLINE
  5
6D
330
41
100
AcDbEntity
  8
Layer 1
 62
   156
420
  1785491
370
     9
100
AcDbSpline
210
0.0
220
0.0
230
1.0
 70
     8
 71
     3
 72
     8
 73
     4
 74
     0
 42
0.0000000001
 43
0.0000000001
 12
1.0
 22
0.0
 32
0.0
 13
1.0
 23
0.0
 33
0.0
 40
0.0
 40
0.0
 40
0.0
 40
0.0
 40
1.0
 40
1.0
 40
1.0
 40
1.0
 10
362.2487366196365
 20
-456.8269011794291
 30
0.0
 10
362.2487366196365
 20
-456.8269011794291
 30
0.0
 10
392.3366064028378
 20
-540.5735492157437
 30
0.0
 10
409.3619578442522
 20
-542.343075666442
 30
0.0
  0
SPLINE
  5
6E
330
41
100
AcDbEntity
  8
Layer 1
 62
   156
420
  1785491
370
     9
100
AcDbSpline
210
0.0
220
0.0
230
1.0
 70
     8
 71
     3
 72
     8
 73
     4
 74
     0
 42
0.0000000001
 43
0.0000000001
 12
1.0
 22
0.0
 32
0.0
 13
1.0
 23
0.0
 33
0.0
 40
0.0
 40
0.0
 40
0.0
 40
0.0
 40
1.0
 40
1.0
 40
1.0
 40
1.0
 10
364.7627347119396
 20
-473.0333534759957
 30
0.0
 10
364.7627347119396
 20
-473.0333534759957
 30
0.0
 10
389.2670999512975
 20
-560.3820567381426
 30
0.0
 10
409.3619578442522
 20
-566.2747838556224
 30
0.0
  0
SPLINE
  5
6F
330
41
100
AcDbEntity
  8
Layer 1
 62
   156
420
  1785491
370
     9
100
AcDbSpline
210
0.0
220
0.0
230
1.0
 70
     8
 71
     3
 72
     8
 73
     4
 74
     0
 42
0.0000000001
 43
0.0000000001
 12
1.0
 22
0.0
 32
0.0
 13
1.0
 23
0.0
 33
0.0
 40
0.0
 40
0.0
 40
0.0
 40
0.0
 40
1.0
 40
1.0
 40
1.0
 40
1.0
 10
363.0905516584935
 20
-410.8762082825124
 30
0.0
 10
363.0905516584935
 20
-410.8762082825124
 30
0.0
 10
380.4022534704654
 20
-454.1010239107418
 30
0.0
 10
409.1558021800065
 20
-461.7690009910566
 30
0.0
  0
SPLINE
  5
70
330
41
100
AcDbEntity
  8
Layer 1
 62
   156
420
  1785491
370
     9
100
AcDbSpline
210
0.0
220
0.0
230
1.0
 70
     8
 71
     3
 72
     8
 73
     4
 74
     0
 42
0.0000000001
 43
0.0000000001
 12
1.0
 22
0.0
 32
0.0
 13
1.0
 23
0.0
 33
0.0
 40
0.0
 40
0.0
 40
0.0
 40
0.0
 40
1.0
 40
1.0
 40
1.0
 40
1.0
 10
360.5765535661903
 20
-425.6051643201426
 30
0.0
 10
360.5765535661903
 20
-425.6051643201426
 30
0.0
 10
384.027224590307
 20
-492.6299599765407
 30
0.0
 10
409.1558021800065
 20
-501.4604653845563
 30
0.0
  0
SPLINE
  5
71
330
41
100
AcDbEntity
  8
Layer 1
 62
   156
420
  1785491
370
     9
100
AcDbSpline
210
0.0
220
0.0
230
1.0
 70
     8
 71
     3
 72
     8
 73
     4
 74
     0
 42
0.0000000001
 43
0.0000000001
 12
1.0
 22
0.0
 32
0.0
 13
1.0
 23
0.0
 33
0.0
 40
0.0
 40
0.0
 40
0.0
 40
0.0
 40
1.0
 40
1.0
 40
1.0
 40
1.0
 10
361.9051511277139
 20
-435.9875934903357
 30
0.0
 10
361.9051511277139
 20
-435.9875934903357
 30
0.0
 10
378.4437200464636
 20
-507.7998885942779
 30
0.0
 10
409.4306618353567
 20
-513.9846677489841
 30
0.0
  0
SPLINE
  5
72
330
41
100
AcDbEntity
  8
Layer 1
 62
   156
420
  1785491
370
     9
100
AcDbSpline
210
0.0
220
0.0
230
1.0
 70
     8
 71
     3
 72
     8
 73
     4
 74
     0
 42
0.0000000001
 43
0.0000000001
 12
1.0
 22
0.0
 32
0.0
 13
1.0
 23
0.0
 33
0.0
 40
0.0
 40
0.0
 40
0.0
 40
0.0
 40
1.0
 40
1.0
 40
1.0
 40
1.0
 10
361.9738551188184
 20
-415.2914609865193
 30
0.0
 10
361.9738551188184
 20
-415.2914609865193
 30
0.0
 10
379.0049300723695
 20
-463.0174256917362
 30
0.0
 10
409.1558021800065
 20
-474.2130304946349
 30
0.0
  0
SPLINE
  5
73
330
41
100
AcDbEntity
  8
Layer 1
 62
   156
420
  1785491
370
     9
100
AcDbSpline
210
0.0
220
0.0
230
1.0
 70
     8
 71
     3
 72
     8
 73
     4
 74
     0
 42
0.0000000001
 43
0.0000000001
 12
1.0
 22
0.0
 32
0.0
 13
1.0
 23
0.0
 33
0.0
 40
0.0
 40
0.0
 40
0.0
 40
0.0
 40
1.0
 40
1.0
 40
1.0
 40
1.0
 10
360.5765535661903
 20
-392.3103801031912
 30
0.0
 10
360.5765535661903
 20
-392.3103801031912
 30
0.0
 10
379.0049300723695
 20
-438.2782653819831
 30
0.0
 10
409.1558021800065
 20
-447.9906722592787
 30
0.0
  0
SPLINE
  5
74
330
41
100
AcDbEntity
  8
Layer 1
 62
   156
420
  1785491
370
     9
100
AcDbSpline
210
0.0
220
0.0
230
1.0
 70
     8
 71
     3
 72
     8
 73
     4
 74
     0
 42
0.0000000001
 43
0.0000000001
 12
1.0
 22
0.0
 32
0.0
 13
1.0
 23
0.0
 33
0.0
 40
0.0
 40
0.0
 40
0.0
 40
0.0
 40
1.0
 40
1.0
 40
1.0
 40
1.0
 10
362.3919118049125
 20
-386.1255791030198
 30
0.0
 10
362.3919118049125
 20
-386.1255791030198
 30
0.0
 10
382.9105280506319
 20
-421.1841881039982
 30
0.0
 10
409.1558021800065
 20
-427.076915221478
 30
0.0
  0
SPLINE
  5
75
330
41
100
AcDbEntity
  8
Layer 1
 62
   156
420
  1785491
370
     9
100
AcDbSpline
210
0.0
220
0.0
230
1.0
 70
     8
 71
     3
 72
     8
 73
     4
 74
     0
 42
0.0000000001
 43
0.0000000001
 12
1.0
 22
0.0
 32
0.0
 13
1.0
 23
0.0
 33
0.0
 40
0.0
 40
0.0
 40
0.0
 40
0.0
 40
1.0
 40
1.0
 40
1.0
 40
1.0
 10
362.8099466455424
 20
-384.3617761644582
 30
0.0
 10
362.8099466455424
 20
-384.3617761644582
 30
0.0
 10
394.6387253187586
 20
-412.640011221074
 30
0.0
 10
409.7170122059124
 20
-409.1009364742113
 30
0.0
  0
SPLINE
  5
76
330
41
100
AcDbEntity
  8
Layer 1
 62
   156
420
  1785491
370
     9
100
AcDbSpline
210
0.0
220
0.0
230
1.0
 70
     8
 71
     3
 72
     8
 73
     4
 74
     0
 42
0.0000000001
 43
0.0000000001
 12
1.0
 22
0.0
 32
0.0
 13
1.0
 23
0.0
 33
0.0
 40
0.0
 40
0.0
 40
0.0
 40
0.0
 40
1.0
 40
1.0
 40
1.0
 40
1.0
 10
409.3676813563889
 20
-398.5009046154992
 30
0.0
 10
409.3676813563889
 20
-398.5009046154992
 30
0.0
 10
377.8138060294532
 20
-397.2467564026829
 30
0.0
 10
359.9523412158505
 20
-368.6650004391013
 30
0.0
  0
SPLINE
  5
77
330
41
100
AcDbEntity
  8
Layer 1
 62
   156
420
  1785491
370
     9
100
AcDbSpline
210
0.0
220
0.0
230
1.0
 70
     8
 71
     3
 72
     8
 73
     4
 74
     0
 42
0.0000000001
 43
0.0000000001
 12
1.0
 22
0.0
 32
0.0
 13
1.0
 23
0.0
 33
0.0
 40
0.0
 40
0.0
 40
0.0
 40
0.0
 40
1.0
 40
1.0
 40
1.0
 40
1.0
 10
409.7170122059124
 20
-389.8078290351605
 30
0.0
 10
409.7170122059124
 20
-389.8078290351605
 30
0.0
 10
367.6260636537663
 20
-369.9935980006248
 30
0.0
 10
362.042580955389
 20
-360.2811911233312
 30
0.0
  0
SPLINE
  5
78
330
41
100
AcDbEntity
  8
Layer 1
 62
   156
420
  1785491
370
     9
100
AcDbSpline
210
0.0
220
0.0
230
1.0
 70
     8
 71
     3
 72
     8
 73
     4
 74
     0
 42
0.0000000001
 43
0.0000000001
 12
1.0
 22
0.0
 32
0.0
 13
1.0
 23
0.0
 33
0.0
 40
0.0
 40
0.0
 40
0.0
 40
0.0
 40
1.0
 40
1.0
 40
1.0
 40
1.0
 10
363.5086083445894
 20
-355.7800202008766
 30
0.0
 10
363.5086083445894
 20
-355.7800202008766
 30
0.0
 10
404.1277841499323
 20
-375.8175992815341
 30
0.0
 10
409.7170122059124
 20
-374.0480728308357
 30
0.0
  0
SPLINE
  5
79
330
41
100
AcDbEntity
  8
Layer 1
 62
   156
420
  1785491
370
     9
100
AcDbSpline
210
0.0
220
0.0
230
1.0
 70
     8
 71
     3
 72
     8
 73
     4
 74
     0
 42
0.0000000001
 43
0.0000000001
 12
1.0
 22
0.0
 32
0.0
 13
1.0
 23
0.0
 33
0.0
 40
0.0
 40
0.0
 40
0.0
 40
0.0
 40
1.0
 40
1.0
 40
1.0
 40
1.0
 10
410.2724987196816
 20
-240.8861064994444
 30
0.0
 10
410.2724987196816
 20
-240.8861064994444
 30
0.0
 10
369.7220269054433
 20
-251.2685356696365
 30
0.0
 10
359.9466177037139
 20
-302.235777726888
 30
0.0
  0
SPLINE
  5
7A
330
41
100
AcDbEntity
  8
Layer 1
 62
   156
420
  1785491
370
     9
100
AcDbSpline
210
0.0
220
0.0
230
1.0
 70
     8
 71
     3
 72
     8
 73
     4
 74
     0
 42
0.0000000001
 43
0.0000000001
 12
1.0
 22
0.0
 32
0.0
 13
1.0
 23
0.0
 33
0.0
 40
0.0
 40
0.0
 40
0.0
 40
0.0
 40
1.0
 40
1.0
 40
1.0
 40
1.0
 10
410.0663212099698
 20
-302.3846764243026
 30
0.0
 10
410.0663212099698
 20
-302.3846764243026
 30
0.0
 10
370.0713577549668
 20
-307.6131047610197
 30
0.0
 10
361.1377635920962
 20
-324.1116090948126
 30
0.0
  0
POLYLINE
  5
7B
330
41
100
AcDbEntity
  8
Layer 1
 62
   156
420
  1785491
370
     9
100
AcDb2dPolyline
 66
     1
 10
0.0
 20
0.0
 30
0.0
  0
VERTEX
  5
7C
330
7B
100
AcDbEntity
  8
Layer 1
 62
   156
420
  1785491
370
     9
100
AcDbVertex
100
AcDb2dVertex
 10
409.5738370206345
 20
-341.3431162004745
 30
0.0
  0
VERTEX
  5
7D
330
7B
100
AcDbEntity
  8
Layer 1
 62
   156
420
  1785491
370
     9
100
AcDbVertex
100
AcDb2dVertex
 10
360.2959485532374
 20
-341.6409135953027
 30
0.0
  0
SEQEND
  5
7E
330
7B
100
AcDbEntity
  8
Layer 1
 62
   156
420
  1785491
370
     9
  0
SPLINE
  5
7F
330
41
100
AcDbEntity
  8
Layer 1
 62
   156
420
  1785491
370
     9
100
AcDbSpline
210
0.0
220
0.0
230
1.0
 70
     8
 71
     3
 72
     8
 73
     4
 74
     0
 42
0.0000000001
 43
0.0000000001
 12
1.0
 22
0.0
 32
0.0
 13
1.0
 23
0.0
 33
0.0
 40
0.0
 40
0.0
 40
0.0
 40
0.0
 40
1.0
 40
1.0
 40
1.0
 40
1.0
 10
409.7170122059124
 20
-326.3221081256179
 30
0.0
 10
409.7170122059124
 20
-326.3221081256179
 30
0.0
 10
369.6533010688727
 20
-322.7887568908918
 30
0.0
 10
364.0698183704953
 20
-331.332933773816
 30
0.0
  0
SPLINE
  5
80
330
41
100
AcDbEntity
  8
Layer 1
 62
   156
420
  1785491
370
     9
100
AcDbSpline
210
0.0
220
0.0
230
1.0
 70
     8
 71
     3
 72
     8
 73
     4
 74
     0
 42
0.0000000001
 43
0.0000000001
 12
1.0
 22
0.0
 32
0.0
 13
1.0
 23
0.0
 33
0.0
 40
0.0
 40
0.0
 40
0.0
 40
0.0
 40
1.0
 40
1.0
 40
1.0
 40
1.0
 10
409.7170122059124
 20
-310.1213793411862
 30
0.0
 10
409.7170122059124
 20
-310.1213793411862
 30
0.0
 10
366.7899721270442
 20
-313.5058537239647
 30
0.0
 10
362.3231859683419
 20
-327.0608344096208
 30
0.0
  0
SPLINE
  5
81
330
41
100
AcDbEntity
  8
Layer 1
 62
   156
420
  1785491
370
     9
100
AcDbSpline
210
0.0
220
0.0
230
1.0
 70
     8
 71
     3
 72
     8
 73
     4
 74
     0
 42
0.0000000001
 43
0.0000000001
 12
1.0
 22
0.0
 32
0.0
 13
1.0
 23
0.0
 33
0.0
 40
0.0
 40
0.0
 40
0.0
 40
0.0
 40
1.0
 40
1.0
 40
1.0
 40
1.0
 10
409.7170122059124
 20
-277.6340690902762
 30
0.0
 10
409.7170122059124
 20
-277.6340690902762
 30
0.0
 10
372.1615756490392
 20
-290.3815976553587
 30
0.0
 10
362.6725168178673
 20
-309.2394778719063
 30
0.0
  0
SPLINE
  5
82
330
41
100
AcDbEntity
  8
Layer 1
 62
   156
420
  1785491
370
     9
100
AcDbSpline
210
0.0
220
0.0
230
1.0
 70
     8
 71
     3
 72
     8
 73
     4
 74
     0
 42
0.0000000001
 43
0.0000000001
 12
1.0
 22
0.0
 32
0.0
 13
1.0
 23
0.0
 33
0.0
 40
0.0
 40
0.0
 40
0.0
 40
0.0
 40
1.0
 40
1.0
 40
1.0
 40
1.0
 10
410.3469480683889
 20
-252.8949087805231
 30
0.0
 10
410.3469480683889
 20
-252.8949087805231
 30
0.0
 10
367.9009451545826
 20
-264.6746395033442
 30
0.0
 10
360.9258844157139
 20
-305.3339017391099
 30
0.0
  0
SPLINE
  5
83
330
41
100
AcDbEntity
  8
Layer 1
 62
   156
420
  1785491
370
     9
100
AcDbSpline
210
0.0
220
0.0
230
1.0
 70
     8
 71
     3
 72
     8
 73
     4
 74
     0
 42
0.0000000001
 43
0.0000000001
 12
1.0
 22
0.0
 32
0.0
 13
1.0
 23
0.0
 33
0.0
 40
0.0
 40
0.0
 40
0.0
 40
0.0
 40
1.0
 40
1.0
 40
1.0
 40
1.0
 10
409.7857161970169
 20
-290.9657235752766
 30
0.0
 10
409.7857161970169
 20
-290.9657235752766
 30
0.0
 10
384.1703779301188
 20
-290.0895456181333
 30
0.0
 10
363.2280033316365
 20
-310.7055052611049
 30
0.0
  0
SPLINE
  5
84
330
41
100
AcDbEntity
  8
Layer 1
 62
   156
420
  1785491
370
     9
100
AcDbSpline
210
0.0
220
0.0
230
1.0
 70
     8
 71
     3
 72
     8
 73
     4
 74
     0
 42
0.0000000001
 43
0.0000000001
 12
1.0
 22
0.0
 32
0.0
 13
1.0
 23
0.0
 33
0.0
 40
0.0
 40
0.0
 40
0.0
 40
0.0
 40
1.0
 40
1.0
 40
1.0
 40
1.0
 10
410.40420503522
 20
-318.3677806747482
 30
0.0
 10
410.40420503522
 20
-318.3677806747482
 30
0.0
 10
449.4886494602597
 20
-316.6039558907214
 30
0.0
 10
455.9139471974959
 20
-329.2713334404252
 30
0.0
  0
SPLINE
  5
85
330
41
100
AcDbEntity
  8
Layer 1
 62
   156
420
  1785491
370
     9
100
AcDbSpline
210
0.0
220
0.0
230
1.0
 70
     8
 71
     3
 72
     8
 73
     4
 74
     0
 42
0.0000000001
 43
0.0000000001
 12
1.0
 22
0.0
 32
0.0
 13
1.0
 23
0.0
 33
0.0
 40
0.0
 40
0.0
 40
0.0
 40
0.0
 40
1.0
 40
1.0
 40
1.0
 40
1.0
 10
410.3354791986494
 20
-267.2516399200831
 30
0.0
 10
410.3354791986494
 20
-267.2516399200831
 30
0.0
 10
441.8836528589145
 20
-277.5653432537056
 30
0.0
 10
456.6813347331154
 20
-308.5007515879024
 30
0.0
  0
SPLINE
  5
86
330
41
100
AcDbEntity
  8
Layer 1
 62
   156
420
  1785491
370
     9
100
AcDbSpline
210
0.0
220
0.0
230
1.0
 70
     8
 71
     3
 72
     8
 73
     4
 74
     0
 42
0.0000000001
 43
0.0000000001
 12
1.0
 22
0.0
 32
0.0
 13
1.0
 23
0.0
 33
0.0
 40
0.0
 40
0.0
 40
0.0
 40
0.0
 40
1.0
 40
1.0
 40
1.0
 40
1.0
 10
410.40420503522
 20
-260.6258881852709
 30
0.0
 10
410.40420503522
 20
-260.6258881852709
 30
0.0
 10
446.2129873444756
 20
-270.7162653182386
 30
0.0
 10
457.0993695737434
 20
-307.5444007699152
 30
0.0
  0
SPLINE
  5
87
330
41
100
AcDbEntity
  8
Layer 1
 62
   156
420
  1785491
370
     9
100
AcDbSpline
210
0.0
220
0.0
230
1.0
 70
     8
 71
     3
 72
     8
 73
     4
 74
     0
 42
0.0000000001
 43
0.0000000001
 12
1.0
 22
0.0
 32
0.0
 13
1.0
 23
0.0
 33
0.0
 40
0.0
 40
0.0
 40
0.0
 40
0.0
 40
1.0
 40
1.0
 40
1.0
 40
1.0
 10
458.565396962942
 20
-364.1065943952826
 30
0.0
 10
458.565396962942
 20
-364.1065943952826
 30
0.0
 10
426.5991884620489
 20
-394.3777039487177
 30
0.0
 10
410.1236000222671
 20
-393.7821310045274
 30
0.0
  0
SPLINE
  5
88
330
41
100
AcDbEntity
  8
Layer 1
 62
   156
420
  1785491
370
     9
100
AcDbSpline
210
0.0
220
0.0
230
1.0
 70
     8
 71
     3
 72
     8
 73
     4
 74
     0
 42
0.0000000001
 43
0.0000000001
 12
1.0
 22
0.0
 32
0.0
 13
1.0
 23
0.0
 33
0.0
 40
0.0
 40
0.0
 40
0.0
 40
0.0
 40
1.0
 40
1.0
 40
1.0
 40
1.0
 10
455.9139471974959
 20
-353.0598664443278
 30
0.0
 10
455.9139471974959
 20
-353.0598664443278
 30
0.0
 10
416.2682927465503
 20
-363.7343476517472
 30
0.0
 10
410.40420503522
 20
-362.2568732382751
 30
0.0
  0
SPLINE
  5
89
330
41
100
AcDbEntity
  8
Layer 1
 62
   156
420
  1785491
370
     9
100
AcDbSpline
210
0.0
220
0.0
230
1.0
 70
     8
 71
     3
 72
     8
 73
     4
 74
     0
 42
0.0000000001
 43
0.0000000001
 12
1.0
 22
0.0
 32
0.0
 13
1.0
 23
0.0
 33
0.0
 40
0.0
 40
0.0
 40
0.0
 40
0.0
 40
1.0
 40
1.0
 40
1.0
 40
1.0
 10
457.3799745866963
 20
-349.0855644749608
 30
0.0
 10
457.3799745866963
 20
-349.0855644749608
 30
0.0
 10
412.3569931016191
 20
-349.5952410461723
 30
0.0
 10
410.1236000222671
 20
-351.0669919475076
 30
0.0
  0
SPLINE
  5
8A
330
41
100
AcDbEntity
  8
Layer 1
 62
   156
420
  1785491
370
     9
100
AcDbSpline
210
0.0
220
0.0
230
1.0
 70
     8
 71
     3
 72
     8
 73
     4
 74
     0
 42
0.0000000001
 43
0.0000000001
 12
1.0
 22
0.0
 32
0.0
 13
1.0
 23
0.0
 33
0.0
 40
0.0
 40
0.0
 40
0.0
 40
0.0
 40
1.0
 40
1.0
 40
1.0
 40
1.0
 10
457.5918756085448
 20
-389.3668783005196
 30
0.0
 10
457.5918756085448
 20
-389.3668783005196
 30
0.0
 10
427.1603984879548
 20
-435.323294709573
 30
0.0
 10
410.1293235344037
 20
-433.8515438082377
 30
0.0
  0
SPLINE
  5
8B
330
41
100
AcDbEntity
  8
Layer 1
 62
   156
420
  1785491
370
     9
100
AcDbSpline
210
0.0
220
0.0
230
1.0
 70
     8
 71
     3
 72
     8
 73
     4
 74
     0
 42
0.0000000001
 43
0.0000000001
 12
1.0
 22
0.0
 32
0.0
 13
1.0
 23
0.0
 33
0.0
 40
0.0
 40
0.0
 40
0.0
 40
0.0
 40
1.0
 40
1.0
 40
1.0
 40
1.0
 10
457.8724806214977
 20
-418.8247903757792
 30
0.0
 10
457.8724806214977
 20
-418.8247903757792
 30
0.0
 10
426.8740699628652
 20
-487.1037342449963
 30
0.0
 10
409.8487185214508
 20
-482.0929085967982
 30
0.0
  0
SPLINE
  5
8C
330
41
100
AcDbEntity
  8
Layer 1
 62
   156
420
  1785491
370
     9
100
AcDbSpline
210
0.0
220
0.0
230
1.0
 70
     8
 71
     3
 72
     8
 73
     4
 74
     0
 42
0.0000000001
 43
0.0000000001
 12
1.0
 22
0.0
 32
0.0
 13
1.0
 23
0.0
 33
0.0
 40
0.0
 40
0.0
 40
0.0
 40
0.0
 40
1.0
 40
1.0
 40
1.0
 40
1.0
 10
447.2609798930462
 20
-504.5585893967782
 30
0.0
 10
447.2609798930462
 20
-504.5585893967782
 30
0.0
 10
425.7630969353268
 20
-589.9946128684187
 30
0.0
 10
409.2932320076816
 20
-591.1742898870616
 30
0.0
  0
SPLINE
  5
8D
330
41
100
AcDbEntity
  8
Layer 1
 62
   156
420
  1785491
370
     9
100
AcDbSpline
210
0.0
220
0.0
230
1.0
 70
     8
 71
     3
 72
     8
 73
     4
 74
     0
 42
0.0000000001
 43
0.0000000001
 12
1.0
 22
0.0
 32
0.0
 13
1.0
 23
0.0
 33
0.0
 40
0.0
 40
0.0
 40
0.0
 40
0.0
 40
1.0
 40
1.0
 40
1.0
 40
1.0
 10
450.6110695120715
 20
-490.4137592790667
 30
0.0
 10
450.6110695120715
 20
-490.4137592790667
 30
0.0
 10
425.9749979571752
 20
-578.2091367879948
 30
0.0
 10
409.4993876719273
 20
-579.3888356521038
 30
0.0
  0
SPLINE
  5
8E
330
41
100
AcDbEntity
  8
Layer 1
 62
   156
420
  1785491
370
     9
100
AcDbSpline
210
0.0
220
0.0
230
1.0
 70
     8
 71
     3
 72
     8
 73
     4
 74
     0
 42
0.0000000001
 43
0.0000000001
 12
1.0
 22
0.0
 32
0.0
 13
1.0
 23
0.0
 33
0.0
 40
0.0
 40
0.0
 40
0.0
 40
0.0
 40
1.0
 40
1.0
 40
1.0
 40
1.0
 10
456.750038724218
 20
-456.8269011794291
 30
0.0
 10
456.750038724218
 20
-456.8269011794291
 30
0.0
 10
426.6679142986195
 20
-540.5735492157437
 30
0.0
 10
409.6368393450684
 20
-542.343075666442
 30
0.0
  0
SPLINE
  5
8F
330
41
100
AcDbEntity
  8
Layer 1
 62
   156
420
  1785491
370
     9
100
AcDbSpline
210
0.0
220
0.0
230
1.0
 70
     8
 71
     3
 72
     8
 73
     4
 74
     0
 42
0.0000000001
 43
0.0000000001
 12
1.0
 22
0.0
 32
0.0
 13
1.0
 23
0.0
 33
0.0
 40
0.0
 40
0.0
 40
0.0
 40
0.0
 40
1.0
 40
1.0
 40
1.0
 40
1.0
 10
454.2360406319149
 20
-473.0333534759957
 30
0.0
 10
454.2360406319149
 20
-473.0333534759957
 30
0.0
 10
429.7373989046937
 20
-560.3820567381426
 30
0.0
 10
409.6368393450684
 20
-566.2747838556224
 30
0.0
  0
SPLINE
  5
90
330
41
100
AcDbEntity
  8
Layer 1
 62
   156
420
  1785491
370
     9
100
AcDbSpline
210
0.0
220
0.0
230
1.0
 70
     8
 71
     3
 72
     8
 73
     4
 74
     0
 42
0.0000000001
 43
0.0000000001
 12
1.0
 22
0.0
 32
0.0
 13
1.0
 23
0.0
 33
0.0
 40
0.0
 40
0.0
 40
0.0
 40
0.0
 40
1.0
 40
1.0
 40
1.0
 40
1.0
 10
455.9139471974959
 20
-410.8762082825124
 30
0.0
 10
455.9139471974959
 20
-410.8762082825124
 30
0.0
 10
438.6022672309919
 20
-454.1010239107418
 30
0.0
 10
409.8487185214508
 20
-461.7690009910566
 30
0.0
  0
SPLINE
  5
91
330
41
100
AcDbEntity
  8
Layer 1
 62
   156
420
  1785491
370
     9
100
AcDbSpline
210
0.0
220
0.0
230
1.0
 70
     8
 71
     3
 72
     8
 73
     4
 74
     0
 42
0.0000000001
 43
0.0000000001
 12
1.0
 22
0.0
 32
0.0
 13
1.0
 23
0.0
 33
0.0
 40
0.0
 40
0.0
 40
0.0
 40
0.0
 40
1.0
 40
1.0
 40
1.0
 40
1.0
 10
458.427967135267
 20
-425.6051643201426
 30
0.0
 10
458.427967135267
 20
-425.6051643201426
 30
0.0
 10
434.9772961111503
 20
-492.6299599765407
 30
0.0
 10
409.8487185214508
 20
-501.4604653845563
 30
0.0
  0
SPLINE
  5
92
330
41
100
AcDbEntity
  8
Layer 1
 62
   156
420
  1785491
370
     9
100
AcDbSpline
210
0.0
220
0.0
230
1.0
 70
     8
 71
     3
 72
     8
 73
     4
 74
     0
 42
0.0000000001
 43
0.0000000001
 12
1.0
 22
0.0
 32
0.0
 13
1.0
 23
0.0
 33
0.0
 40
0.0
 40
0.0
 40
0.0
 40
0.0
 40
1.0
 40
1.0
 40
1.0
 40
1.0
 10
457.0993695737434
 20
-435.9875934903357
 30
0.0
 10
457.0993695737434
 20
-435.9875934903357
 30
0.0
 10
440.5550552973909
 20
-507.7998885942779
 30
0.0
 10
409.5681135084978
 20
-513.9846677489841
 30
0.0
  0
SPLINE
  5
93
330
41
100
AcDbEntity
  8
Layer 1
 62
   156
420
  1785491
370
     9
100
AcDbSpline
210
0.0
220
0.0
230
1.0
 70
     8
 71
     3
 72
     8
 73
     4
 74
     0
 42
0.0000000001
 43
0.0000000001
 12
1.0
 22
0.0
 32
0.0
 13
1.0
 23
0.0
 33
0.0
 40
0.0
 40
0.0
 40
0.0
 40
0.0
 40
1.0
 40
1.0
 40
1.0
 40
1.0
 10
457.0306655826389
 20
-415.2914609865193
 30
0.0
 10
457.0306655826389
 20
-415.2914609865193
 30
0.0
 10
439.9995687836199
 20
-463.0174256917362
 30
0.0
 10
409.8487185214508
 20
-474.2130304946349
 30
0.0
  0
SPLINE
  5
94
330
41
100
AcDbEntity
  8
Layer 1
 62
   156
420
  1785491
370
     9
100
AcDbSpline
210
0.0
220
0.0
230
1.0
 70
     8
 71
     3
 72
     8
 73
     4
 74
     0
 42
0.0000000001
 43
0.0000000001
 12
1.0
 22
0.0
 32
0.0
 13
1.0
 23
0.0
 33
0.0
 40
0.0
 40
0.0
 40
0.0
 40
0.0
 40
1.0
 40
1.0
 40
1.0
 40
1.0
 10
458.427967135267
 20
-392.3103801031912
 30
0.0
 10
458.427967135267
 20
-392.3103801031912
 30
0.0
 10
439.9995687836199
 20
-438.2782653819831
 30
0.0
 10
409.8487185214508
 20
-447.9906722592787
 30
0.0
  0
SPLINE
  5
95
330
41
100
AcDbEntity
  8
Layer 1
 62
   156
420
  1785491
370
     9
100
AcDbSpline
210
0.0
220
0.0
230
1.0
 70
     8
 71
     3
 72
     8
 73
     4
 74
     0
 42
0.0000000001
 43
0.0000000001
 12
1.0
 22
0.0
 32
0.0
 13
1.0
 23
0.0
 33
0.0
 40
0.0
 40
0.0
 40
0.0
 40
0.0
 40
1.0
 40
1.0
 40
1.0
 40
1.0
 10
456.612608896543
 20
-386.1255791030198
 30
0.0
 10
456.612608896543
 20
-386.1255791030198
 30
0.0
 10
436.0939926508254
 20
-421.1841881039982
 30
0.0
 10
409.8487185214508
 20
-427.076915221478
 30
0.0
  0
SPLINE
  5
96
330
41
100
AcDbEntity
  8
Layer 1
 62
   156
420
  1785491
370
     9
100
AcDbSpline
210
0.0
220
0.0
230
1.0
 70
     8
 71
     3
 72
     8
 73
     4
 74
     0
 42
0.0000000001
 43
0.0000000001
 12
1.0
 22
0.0
 32
0.0
 13
1.0
 23
0.0
 33
0.0
 40
0.0
 40
0.0
 40
0.0
 40
0.0
 40
1.0
 40
1.0
 40
1.0
 40
1.0
 10
456.1945740559167
 20
-384.3617761644582
 30
0.0
 10
456.1945740559167
 20
-384.3617761644582
 30
0.0
 10
424.9270054086046
 20
-412.640011221074
 30
0.0
 10
409.8487185214508
 20
-409.1009364742113
 30
0.0
  0
SPLINE
  5
97
330
41
100
AcDbEntity
  8
Layer 1
 62
   156
420
  1785491
370
     9
100
AcDbSpline
210
0.0
220
0.0
230
1.0
 70
     8
 71
     3
 72
     8
 73
     4
 74
     0
 42
0.0000000001
 43
0.0000000001
 12
1.0
 22
0.0
 32
0.0
 13
1.0
 23
0.0
 33
0.0
 40
0.0
 40
0.0
 40
0.0
 40
0.0
 40
1.0
 40
1.0
 40
1.0
 40
1.0
 10
410.1980493709743
 20
-398.5009046154992
 30
0.0
 10
410.1980493709743
 20
-398.5009046154992
 30
0.0
 10
441.1849911598674
 20
-397.2467564026829
 30
0.0
 10
459.0579029977434
 20
-368.6650004391013
 30
0.0
  0
SPLINE
  5
98
330
41
100
AcDbEntity
  8
Layer 1
 62
   156
420
  1785491
370
     9
100
AcDbSpline
210
0.0
220
0.0
230
1.0
 70
     8
 71
     3
 72
     8
 73
     4
 74
     0
 42
0.0000000001
 43
0.0000000001
 12
1.0
 22
0.0
 32
0.0
 13
1.0
 23
0.0
 33
0.0
 40
0.0
 40
0.0
 40
0.0
 40
0.0
 40
1.0
 40
1.0
 40
1.0
 40
1.0
 10
409.8487185214508
 20
-389.8078290351605
 30
0.0
 10
409.8487185214508
 20
-389.8078290351605
 30
0.0
 10
451.378435202223
 20
-369.9935980006248
 30
0.0
 10
456.9619397460683
 20
-360.2811911233312
 30
0.0
  0
SPLINE
  5
99
330
41
100
AcDbEntity
  8
Layer 1
 62
   156
420
  1785491
370
     9
100
AcDbSpline
210
0.0
220
0.0
230
1.0
 70
     8
 71
     3
 72
     8
 73
     4
 74
     0
 42
0.0000000001
 43
0.0000000001
 12
1.0
 22
0.0
 32
0.0
 13
1.0
 23
0.0
 33
0.0
 40
0.0
 40
0.0
 40
0.0
 40
0.0
 40
1.0
 40
1.0
 40
1.0
 40
1.0
 10
455.4959123568678
 20
-355.7800202008766
 30
0.0
 10
455.4959123568678
 20
-355.7800202008766
 30
0.0
 10
415.4322012198281
 20
-375.8175992815341
 30
0.0
 10
409.8487185214508
 20
-374.0480728308357
 30
0.0
  0
SPLINE
  5
9A
330
41
100
AcDbEntity
  8
Layer 1
 62
   156
420
  1785491
370
     9
100
AcDbSpline
210
0.0
220
0.0
230
1.0
 70
     8
 71
     3
 72
     8
 73
     4
 74
     0
 42
0.0000000001
 43
0.0000000001
 12
1.0
 22
0.0
 32
0.0
 13
1.0
 23
0.0
 33
0.0
 40
0.0
 40
0.0
 40
0.0
 40
0.0
 40
1.0
 40
1.0
 40
1.0
 40
1.0
 10
410.40420503522
 20
-240.8861064994444
 30
0.0
 10
410.40420503522
 20
-240.8861064994444
 30
0.0
 10
449.2882173081507
 20
-251.2685356696365
 30
0.0
 10
459.0579029977434
 20
-302.235777726888
 30
0.0
  0
SPLINE
  5
9B
330
41
100
AcDbEntity
  8
Layer 1
 62
   156
420
  1785491
370
     9
100
AcDbSpline
210
0.0
220
0.0
230
1.0
 70
     8
 71
     3
 72
     8
 73
     4
 74
     0
 42
0.0000000001
 43
0.0000000001
 12
1.0
 22
0.0
 32
0.0
 13
1.0
 23
0.0
 33
0.0
 40
0.0
 40
0.0
 40
0.0
 40
0.0
 40
1.0
 40
1.0
 40
1.0
 40
1.0
 10
410.0548741856965
 20
-302.3846764243026
 30
0.0
 10
410.0548741856965
 20
-302.3846764243026
 30
0.0
 10
448.9331629464905
 20
-307.6131047610197
 30
0.0
 10
457.8724806214977
 20
-324.1116090948126
 30
0.0
  0
POLYLINE
  5
9C
330
41
100
AcDbEntity
  8
Layer 1
 62
   156
420
  1785491
370
     9
100
AcDb2dPolyline
 66
     1
 10
0.0
 20
0.0
 30
0.0
  0
VERTEX
  5
9D
330
9C
100
AcDbEntity
  8
Layer 1
 62
   156
420
  1785491
370
     9
100
AcDbVertex
100
AcDb2dVertex
 10
409.9861483491259
 20
-341.3431162004745
 30
0.0
  0
VERTEX
  5
9E
330
9C
100
AcDbEntity
  8
Layer 1
 62
   156
420
  1785491
370
     9
100
AcDbVertex
100
AcDb2dVertex
 10
458.7028486360832
 20
-341.6409135953027
 30
0.0
  0
SEQEND
  5
9F
330
9C
100
AcDbEntity
  8
Layer 1
 62
   156
420
  1785491
370
     9
  0
SPLINE
  5
A0
330
41
100
AcDbEntity
  8
Layer 1
 62
   156
420
  1785491
370
     9
100
AcDbSpline
210
0.0
220
0.0
230
1.0
 70
     8
 71
     3
 72
     8
 73
     4
 74
     0
 42
0.0000000001
 43
0.0000000001
 12
1.0
 22
0.0
 32
0.0
 13
1.0
 23
0.0
 33
0.0
 40
0.0
 40
0.0
 40
0.0
 40
0.0
 40
1.0
 40
1.0
 40
1.0
 40
1.0
 10
410.40420503522
 20
-326.3221081256179
 30
0.0
 10
410.40420503522
 20
-326.3221081256179
 30
0.0
 10
449.3511977871185
 20
-322.7887568908918
 30
0.0
 10
454.934702330962
 20
-331.332933773816
 30
0.0
  0
SPLINE
  5
A1
330
41
100
AcDbEntity
  8
Layer 1
 62
   156
420
  1785491
370
     9
100
AcDbSpline
210
0.0
220
0.0
230
1.0
 70
     8
 71
     3
 72
     8
 73
     4
 74
     0
 42
0.0000000001
 43
0.0000000001
 12
1.0
 22
0.0
 32
0.0
 13
1.0
 23
0.0
 33
0.0
 40
0.0
 40
0.0
 40
0.0
 40
0.0
 40
1.0
 40
1.0
 40
1.0
 40
1.0
 10
410.40420503522
 20
-310.1213793411862
 30
0.0
 10
410.40420503522
 20
-310.1213793411862
 30
0.0
 10
452.214526728947
 20
-313.5058537239647
 30
0.0
 10
456.6870582452502
 20
-327.0608344096208
 30
0.0
  0
SPLINE
  5
A2
330
41
100
AcDbEntity
  8
Layer 1
 62
   156
420
  1785491
370
     9
100
AcDbSpline
210
0.0
220
0.0
230
1.0
 70
     8
 71
     3
 72
     8
 73
     4
 74
     0
 42
0.0000000001
 43
0.0000000001
 12
1.0
 22
0.0
 32
0.0
 13
1.0
 23
0.0
 33
0.0
 40
0.0
 40
0.0
 40
0.0
 40
0.0
 40
1.0
 40
1.0
 40
1.0
 40
1.0
 10
410.40420503522
 20
-277.6340690902762
 30
0.0
 10
410.40420503522
 20
-277.6340690902762
 30
0.0
 10
446.8371996948154
 20
-290.3815976553587
 30
0.0
 10
456.3320038835918
 20
-309.2394778719063
 30
0.0
  0
SPLINE
  5
A3
330
41
100
AcDbEntity
  8
Layer 1
 62
   156
420
  1785491
370
     9
100
AcDbSpline
210
0.0
220
0.0
230
1.0
 70
     8
 71
     3
 72
     8
 73
     4
 74
     0
 42
0.0000000001
 43
0.0000000001
 12
1.0
 22
0.0
 32
0.0
 13
1.0
 23
0.0
 33
0.0
 40
0.0
 40
0.0
 40
0.0
 40
0.0
 40
1.0
 40
1.0
 40
1.0
 40
1.0
 10
410.3354791986494
 20
-252.8949087805231
 30
0.0
 10
410.3354791986494
 20
-252.8949087805231
 30
0.0
 10
451.0978301892719
 20
-264.6746395033442
 30
0.0
 10
458.0786362857434
 20
-305.3339017391099
 30
0.0
  0
SPLINE
  5
A4
330
41
100
AcDbEntity
  8
Layer 1
 62
   156
420
  1785491
370
     9
100
AcDbSpline
210
0.0
220
0.0
230
1.0
 70
     8
 71
     3
 72
     8
 73
     4
 74
     0
 42
0.0000000001
 43
0.0000000001
 12
1.0
 22
0.0
 32
0.0
 13
1.0
 23
0.0
 33
0.0
 40
0.0
 40
0.0
 40
0.0
 40
0.0
 40
1.0
 40
1.0
 40
1.0
 40
1.0
 10
410.3354791986494
 20
-290.9657235752766
 30
0.0
 10
410.3354791986494
 20
-290.9657235752766
 30
0.0
 10
434.8341209258724
 20
-290.0895456181333
 30
0.0
 10
455.7765173698208
 20
-310.7055052611049
 30
0.0
  0
SPLINE
  5
A5
330
41
100
AcDbEntity
  8
Layer 1
 62
   156
420
  1785491
370
     9
100
AcDbSpline
210
0.0
220
0.0
230
1.0
 70
     8
 71
     3
 72
   146
 73
   142
 74
     0
 42
0.0000000001
 43
0.0000000001
 12
1.0
 22
0.0
 32
0.0
 13
1.0
 23
0.0
 33
0.0
 40
0.0
 40
0.0
 40
0.0
 40
0.0
 40
1.0
 40
1.0
 40
1.0
 40
2.0
 40
2.0
 40
2.0
 40
3.0
 40
3.0
 40
3.0
 40
4.0
 40
4.0
 40
4.0
 40
5.0
 40
5.0
 40
5.0
 40
6.0
 40
6.0
 40
6.0
 40
7.0
 40
7.0
 40
7.0
 40
8.0
 40
8.0
 40
8.0
 40
9.0
 40
9.0
 40
9.0
 40
10.0
 40
10.0
 40
10.0
 40
11.0
 40
11.0
 40
11.0
 40
12.0
 40
12.0
 40
12.0
 40
13.0
 40
13.0
 40
13.0
 40
14.0
 40
14.0
 40
14.0
 40
15.0
 40
15.0
 40
15.0
 40
16.0
 40
16.0
 40
16.0
 40
17.0
 40
17.0
 40
17.0
 40
18.0
 40
18.0
 40
18.0
 40
19.0
 40
19.0
 40
19.0
 40
20.0
 40
20.0
 40
20.0
 40
21.0
 40
21.0
 40
21.0
 40
22.0
 40
22.0
 40
22.0
 40
23.0
 40
23.0
 40
23.0
 40
24.0
 40
24.0
 40
24.0
 40
25.0
 40
25.0
 40
25.0
 40
26.0
 40
26.0
 40
26.0
 40
27.0
 40
27.0
 40
27.0
 40
28.0
 40
28.0
 40
28.0
 40
29.0
 40
29.0
 40
29.0
 40
30.0
 40
30.0
 40
30.0
 40
31.0
 40
31.0
 40
31.0
 40
32.0
 40
32.0
 40
32.0
 40
33.0
 40
33.0
 40
33.0
 40
34.0
 40
34.0
 40
34.0
 40
35.0
 40
35.0
 40
35.0
 40
36.0
 40
36.0
 40
36.0
 40
37.0
 40
37.0
 40
37.0
 40
38.0
 40
38.0
 40
38.0
 40
39.0
 40
39.0
 40
39.0
 40
40.0
 40
40.0
 40
40.0
 40
41.0
 40
41.0
 40
41.0
 40
42.0
 40
42.0
 40
42.0
 40
43.0
 40
43.0
 40
43.0
 40
44.0
 40
44.0
 40
44.0
 40
45.0
 40
45.0
 40
45.0
 40
46.0
 40
46.0
 40
46.0
 40
47.0
 40
47.0
 40
47.0
 40
47.0
 10
410.2667752075449
 20
-233.9625573698031
 30
0.0
 10
410.2667752075449
 20
-233.9625573698031
 30
0.0
 10
369.9167355454156
 20
-241.1838820488056
 30
0.0
 10
362.0998379222219
 20
-285.3707720071607
 30
0.0
 10
362.0998379222219
 20
-285.3707720071607
 30
0.0
 10
362.0998379222219
 20
-285.9663449513519
 30
0.0
 10
362.0998379222219
 20
-285.9663449513519
 30
0.0
 10
359.6545656664875
 20
-290.3815976553587
 30
0.0
 10
359.305234816964
 20
-293.6973243560997
 30
0.0
 10
359.305234816964
 20
-298.7768758408693
 30
0.0
 10
359.305234816964
 20
-303.7877014890673
 30
0.0
 10
361.1950424043935
 20
-306.1413538596844
 30
0.0
 10
362.9359294489441
 20
-310.7112287732416
 30
0.0
 10
361.5443514084509
 20
-314.5423774027968
 30
0.0
 10
360.1470498558228
 20
-316.6726817272911
 30
0.0
 10
360.1470498558228
 20
-320.7271565575011
 30
0.0
 10
360.1470498558228
 20
-324.7071820390047
 30
0.0
 10
361.8192329092672
 20
-326.3221081256179
 30
0.0
 10
363.4971613203161
 20
-329.855459360344
 30
0.0
 10
363.6345911479912
 20
-330.8175336904687
 30
0.0
 10
363.777766333269
 20
-331.332933773816
 30
0.0
 10
363.777766333269
 20
-332.289284591805
 30
0.0
 10
363.777766333269
 20
-336.6358114592404
 30
0.0
 10
359.8664448428699
 20
-338.3251868945608
 30
0.0
 10
359.8664448428699
 20
-342.671713761998
 30
0.0
 10
359.8664448428699
 20
-348.1979394935433
 30
0.0
 10
363.2165563073631
 20
-350.8493674135234
 30
0.0
 10
363.2165563073631
 20
-356.3755931450687
 30
0.0
 10
363.2165563073631
 20
-356.3755931450687
 30
0.0
 10
362.9359294489441
 20
-357.549568497041
 30
0.0
 10
362.9359294489441
 20
-357.549568497041
 30
0.0
 10
361.3324722320685
 20
-361.6784926759592
 30
0.0
 10
359.5858398299169
 20
-364.1065943952826
 30
0.0
 10
359.5858398299169
 20
-368.5962964479968
 30
0.0
 10
359.5858398299169
 20
-374.340124868062
 30
0.0
 10
362.5178946083161
 20
-377.1404733309209
 30
0.0
 10
362.9359294489441
 20
-382.8843017509862
 30
0.0
 10
362.9359294489441
 20
-382.8843017509862
 30
0.0
 10
362.6553244359911
 20
-382.0024002817054
 30
0.0
 10
362.6553244359911
 20
-382.0024002817054
 30
0.0
 10
362.6553244359911
 20
-387.4541766645434
 30
0.0
 10
360.1470498558228
 20
-390.3289526306444
 30
0.0
 10
360.1470498558228
 20
-395.7750055013466
 30
0.0
 10
360.1470498558228
 20
-398.2775565693773
 30
0.0
 10
359.763377933481
 20
-399.6347716915843
 30
0.0
 10
360.1470498558228
 20
-402.1144287110692
 30
0.0
 10
360.7025363695921
 20
-405.7222074490364
 30
0.0
 10
362.3804429351749
 20
-407.3371335356496
 30
0.0
 10
362.6553244359911
 20
-410.8762082825124
 30
0.0
 10
362.6553244359911
 20
-410.8762082825124
 30
0.0
 10
362.6553244359911
 20
-410.286358850457
 30
0.0
 10
362.6553244359911
 20
-410.286358850457
 30
0.0
 10
360.4219313566391
 20
-419.9357634033186
 30
0.0
 10
359.305234816964
 20
-426.2694631009035
 30
0.0
 10
361.5443514084509
 20
-435.9188676537651
 30
0.0
 10
361.5443514084509
 20
-440.3398438699078
 30
0.0
 10
361.2637463954979
 20
-442.7679674346982
 30
0.0
 10
361.2637463954979
 20
-447.1832201387042
 30
0.0
 10
361.2637463954979
 20
-453.9578487254657
 30
0.0
 10
362.1685637587925
 20
-457.7145261608457
 30
0.0
 10
362.6553244359911
 20
-464.4949001052082
 30
0.0
 10
362.6553244359911
 20
-464.4949001052082
 30
0.0
 10
362.6553244359911
 20
-463.3152012410992
 30
0.0
 10
362.6553244359911
 20
-463.3152012410992
 30
0.0
 10
388.3451120515947
 20
-594.7076411217895
 30
0.0
 10
409.2817849834082
 20
-598.3898910539283
 30
0.0
 10
409.2817849834082
 20
-598.3898910539283
 30
0.0
 10
409.2817849834082
 20
-598.3898910539283
 30
0.0
 10
409.5681135084978
 20
-598.3898910539283
 30
0.0
 10
409.5681135084978
 20
-598.3898910539283
 30
0.0
 10
409.5681135084978
 20
-598.3898910539283
 30
0.0
 10
430.510509952448
 20
-594.7076411217895
 30
0.0
 10
456.1945740559167
 20
-463.3152012410992
 30
0.0
 10
456.1945740559167
 20
-463.3152012410992
 30
0.0
 10
456.1945740559167
 20
-464.4949001052082
 30
0.0
 10
456.1945740559167
 20
-464.4949001052082
 30
0.0
 10
456.6813347331154
 20
-457.7145261608457
 30
0.0
 10
457.5918756085448
 20
-453.9578487254657
 30
0.0
 10
457.5918756085448
 20
-447.1832201387042
 30
0.0
 10
457.5918756085448
 20
-442.7679674346982
 30
0.0
 10
457.3112705955918
 20
-440.3398438699078
 30
0.0
 10
457.3112705955918
 20
-435.9188676537651
 30
0.0
 10
459.5446636749421
 20
-426.2694631009035
 30
0.0
 10
458.427967135267
 20
-419.9357634033186
 30
0.0
 10
456.1945740559167
 20
-410.286358850457
 30
0.0
 10
456.1945740559167
 20
-410.286358850457
 30
0.0
 10
456.1945740559167
 20
-410.8762082825124
 30
0.0
 10
456.1945740559167
 20
-410.8762082825124
 30
0.0
 10
456.4751790688679
 20
-407.3371335356496
 30
0.0
 10
458.147362122314
 20
-405.7222074490364
 30
0.0
 10
458.7085721482199
 20
-402.1144287110692
 30
0.0
 10
459.0865205584269
 20
-399.6347716915843
 30
0.0
 10
458.7085721482199
 20
-398.2775565693773
 30
0.0
 10
458.7085721482199
 20
-395.7750055013466
 30
0.0
 10
458.7085721482199
 20
-390.3289526306444
 30
0.0
 10
456.1945740559167
 20
-387.4541766645434
 30
0.0
 10
456.1945740559167
 20
-382.0024002817054
 30
0.0
 10
456.1945740559167
 20
-382.0024002817054
 30
0.0
 10
455.9139471974959
 20
-382.8843017509862
 30
0.0
 10
455.9139471974959
 20
-382.8843017509862
 30
0.0
 10
456.3320038835918
 20
-377.1404733309209
 30
0.0
 10
459.2640586619891
 20
-374.340124868062
 30
0.0
 10
459.2640586619891
 20
-368.5962964479968
 30
0.0
 10
459.2640586619891
 20
-364.1065943952826
 30
0.0
 10
457.5174262598375
 20
-361.6784926759592
 30
0.0
 10
455.9139471974959
 20
-357.549568497041
 30
0.0
 10
455.9139471974959
 20
-357.549568497041
 30
0.0
 10
455.6333421845429
 20
-356.3755931450687
 30
0.0
 10
455.6333421845429
 20
-356.3755931450687
 30
0.0
 10
455.6333421845429
 20
-350.8493674135234
 30
0.0
 10
458.9891771611728
 20
-348.1979394935433
 30
0.0
 10
458.9891771611728
 20
-342.671713761998
 30
0.0
 10
458.9891771611728
 20
-338.3251868945608
 30
0.0
 10
455.0778556707737
 20
-336.6358114592404
 30
0.0
 10
455.0778556707737
 20
-332.289284591805
 30
0.0
 10
455.0778556707737
 20
-331.332933773816
 30
0.0
 10
455.2153073439149
 20
-330.8175336904687
 30
0.0
 10
455.3584606837267
 20
-329.855459360344
 30
0.0
 10
457.0306655826389
 20
-326.3221081256179
 30
0.0
 10
458.7085721482199
 20
-324.7071820390047
 30
0.0
 10
458.7085721482199
 20
-320.7271565575011
 30
0.0
 10
458.7085721482199
 20
-316.6726817272911
 30
0.0
 10
457.3112705955918
 20
-314.5423774027968
 30
0.0
 10
455.9139471974959
 20
-310.7112287732416
 30
0.0
 10
457.6605795996493
 20
-306.1413538596844
 30
0.0
 10
459.5446636749421
 20
-303.7877014890673
 30
0.0
 10
459.5446636749421
 20
-298.7768758408693
 30
0.0
 10
459.5446636749421
 20
-293.6973243560997
 30
0.0
 10
459.1953328254185
 20
-290.3815976553587
 30
0.0
 10
456.750038724218
 20
-285.9663449513519
 30
0.0
 10
456.750038724218
 20
-285.9663449513519
 30
0.0
 10
456.750038724218
 20
-285.3707720071607
 30
0.0
 10
456.750038724218
 20
-285.3707720071607
 30
0.0
 10
448.9331629464905
 20
-241.1838820488056
 30
0.0
 10
410.40420503522
 20
-233.8136805178547
 30
0.0
 10
410.40420503522
 20
-233.8136805178547
 30
0.0
 10
410.40420503522
 20
-233.8136805178547
 30
0.0
 10
410.3183086622394
 20
-235.8810043633812
 30
0.0
 10
410.3183086622394
 20
-235.8810043633812
 30
0.0
 10
410.3183086622394
 20
-235.8810043633812
 30
0.0
 10
409.2875084955449
 20
-598.2409923565137
 30
0.0
 10
409.2875084955449
 20
-598.2409923565137
 30
0.0
  0
ENDBLK
  5
44
330
41
100
AcDbEntity
  8
0
100
AcDbBlockEnd
  0
ENDSEC
  0
SECTION
  2
ENTITIES
  0
INSERT
  5
42
330
1F
100
AcDbEntity
  8
Layer 1
100
AcDbBlockReference
  2
block 2
 10
0.0
 20
0.0
 30
0.0
  0
ENDSEC
  0
SECTION
  2
OBJECTS
  0
DICTIONARY
  5
C
330
0
100
AcDbDictionary
281
     1
  3
ACAD_GROUP
350
D
  3
ACAD_LAYOUT
350
1A
  3
ACAD_MATERIAL
350
3B
  3
ACAD_MLEADERSTYLE
350
A7
  3
ACAD_MLINESTYLE
350
17
  3
ACAD_PLOTSETTINGS
350
19
  3
ACAD_PLOTSTYLENAME
350
E
  3
ACAD_TABLESTYLE
350
A6
  3
ACAD_VISUALSTYLE
350
2A
  0
SUN
  5
3F
330
29
100
AcDbSun
 90
        1
290
     0
 63
     7
421
 16777215
 40
1.0
291
     1
 91
  2455826
 92
 54000000
292
     0
 70
     2
 71
   256
280
     1
  0
DICTIONARY
  5
D
102
{ACAD_REACTORS
330
C
102
}
330
C
100
AcDbDictionary
281
     1
  0
DICTIONARY
  5
1A
102
{ACAD_REACTORS
330
C
102
}
330
C
100
AcDbDictionary
281
     1
  3
Layout1
350
1E
  3
Layout2
350
26
  3
Model
350
22
  0
DICTIONARY
  5
3B
102
{ACAD_REACTORS
330
C
102
}
330
C
100
AcDbDictionary
281
     1
  3
ByBlock
350
3D
  3
ByLayer
350
3C
  3
Global
350
3E
  0
DICTIONARY
  5
A7
102
{ACAD_REACTORS
330
C
102
}
330
C
100
AcDbDictionary
281
     1
  0
DICTIONARY
  5
17
102
{ACAD_REACTORS
330
C
102
}
330
C
100
AcDbDictionary
281
     1
  3
Standard
350
18
  0
DICTIONARY
  5
19
102
{ACAD_REACTORS
330
C
102
}
330
C
100
AcDbDictionary
281
     1
  0
ACDBDICTIONARYWDFLT
  5
E
102
{ACAD_REACTORS
330
C
102
}
330
C
100
AcDbDictionary
281
     1
  3
Normal
350
F
100
AcDbDictionaryWithDefault
340
F
  0
DICTIONARY
  5
A6
102
{ACAD_REACTORS
330
C
102
}
330
C
100
AcDbDictionary
281
     1
  0
DICTIONARY
  5
2A
102
{ACAD_REACTORS
330
C
102
}
330
C
100
AcDbDictionary
281
     1
  3
2dWireframe
350
2F
  3
3D Hidden
350
31
  3
3dWireframe
350
30
  3
Basic
350
32
  3
Brighten
350
36
  3
ColorChange
350
3A
  3
Conceptual
350
34
  3
Dim
350
35
  3
Facepattern
350
39
  3
Flat
350
2B
  3
FlatWithEdges
350
2C
  3
Gouraud
350
2D
  3
GouraudWithEdges
350
2E
  3
Linepattern
350
38
  3
Realistic
350
33
  3
Thicken
350
37
  0
LAYOUT
  5
1E
102
{ACAD_REACTORS
330
1A
102
}
330
1A
100
AcDbPlotSettings
  1

  2
none_device
  4

  6

 40
0.0
 41
0.0
 42
0.0
 43
0.0
 44
0.0
 45
0.0
 46
0.0
 47
0.0
 48
0.0
 49
0.0
140
0.0
141
0.0
142
1.0
143
1.0
 70
   688
 72
     0
 73
     0
 74
     5
  7

 75
    16
 76
     0
 77
     2
 78
   300
147
1.0
148
0.0
149
0.0
100
AcDbLayout
  1
Layout1
 70
     1
 71
     1
 10
0.0
 20
0.0
 11
12.0
 21
9.0
 12
0.0
 22
0.0
 32
0.0
 14
1.000000000000000E+20
 24
1.000000000000000E+20
 34
1.000000000000000E+20
 15
-1.000000000000000E+20
 25
-1.000000000000000E+20
 35
-1.000000000000000E+20
146
0.0
 13
0.0
 23
0.0
 33
0.0
 16
1.0
 26
0.0
 36
0.0
 17
0.0
 27
1.0
 37
0.0
 76
     0
330
1B
  0
LAYOUT
  5
26
102
{ACAD_REACTORS
330
1A
102
}
330
1A
100
AcDbPlotSettings
  1

  2
none_device
  4

  6

 40
0.0
 41
0.0
 42
0.0
 43
0.0
 44
0.0
 45
0.0
 46
0.0
 47
0.0
 48
0.0
 49
0.0
140
0.0
141
0.0
142
1.0
143
1.0
 70
   688
 72
     0
 73
     0
 74
     5
  7

 75
    16
 76
     0
 77
     2
 78
   300
147
1.0
148
0.0
149
0.0
100
AcDbLayout
  1
Layout2
 70
     1
 71
     2
 10
0.0
 20
0.0
 11
0.0
 21
0.0
 12
0.0
 22
0.0
 32
0.0
 14
0.0
 24
0.0
 34
0.0
 15
0.0
 25
0.0
 35
0.0
146
0.0
 13
0.0
 23
0.0
 33
0.0
 16
1.0
 26
0.0
 36
0.0
 17
0.0
 27
1.0
 37
0.0
 76
     0
330
23
  0
LAYOUT
  5
22
102
{ACAD_REACTORS
330
1A
102
}
330
1A
100
AcDbPlotSettings
  1

  2
none_device
  4

  6

 40
0.0
 41
0.0
 42
0.0
 43
0.0
 44
0.0
 45
0.0
 46
0.0
 47
0.0
 48
0.0
 49
0.0
140
0.0
141
0.0
142
1.0
143
1.0
 70
  1712
 72
     0
 73
     0
 74
     0
  7

 75
     0
 76
     0
 77
     2
 78
   300
147
1.0
148
0.0
149
0.0
100
AcDbLayout
  1
Model
 70
     1
 71
     0
 10
0.0
 20
0.0
 11
12.0
 21
9.0
 12
0.0
 22
0.0
 32
0.0
 14
1.000000000000000E+20
 24
1.000000000000000E+20
 34
1.000000000000000E+20
 15
-1.000000000000000E+20
 25
-1.000000000000000E+20
 35
-1.000000000000000E+20
146
0.0
 13
0.0
 23
0.0
 33
0.0
 16
1.0
 26
0.0
 36
0.0
 17
0.0
 27
1.0
 37
0.0
 76
     0
330
1F
331
29
  0
MATERIAL
  5
3D
102
{ACAD_REACTORS
330
3B
102
}
330
3B
100
AcDbMaterial
  1
ByBlock
 72
     1
 94
      127
  0
MATERIAL
  5
3C
102
{ACAD_REACTORS
330
3B
102
}
330
3B
100
AcDbMaterial
  1
ByLayer
 72
     1
 94
      127
  0
MATERIAL
  5
3E
102
{ACAD_REACTORS
330
3B
102
}
330
3B
100
AcDbMaterial
  1
Global
 72
     1
 94
      127
  0
MLINESTYLE
  5
18
102
{ACAD_REACTORS
330
17
102
}
330
17
100
AcDbMlineStyle
  2
Standard
 70
     0
  3

 62
   256
 51
90.0
 52
90.0
 71
     2
 49
0.5
 62
   256
  6
BYLAYER
 49
-0.5
 62
   256
  6
BYLAYER
  0
ACDBPLACEHOLDER
  5
F
102
{ACAD_REACTORS
330
E
102
}
330
E
  0
VISUALSTYLE
  5
2F
102
{ACAD_REACTORS
330
2A
102
}
330
2A
100
AcDbVisualStyle
  2
2dWireframe
 70
     4
177
     2
291
     0
 71
     0
176
     1
 72
     2
176
     1
 73
     0
176
     1
 90
        0
176
     1
 40
-0.6
176
     1
 41
-30.0
176
     1
 62
     5
 63
     7
421
 16777215
176
     1
 74
     1
176
     1
 91
        4
176
     1
 64
     7
176
     1
 65
   257
176
     1
 75
     1
176
     1
175
     1
176
     1
 42
1.0
176
     1
 92
        0
176
     1
 66
   257
176
     1
 43
1.0
176
     1
 76
     1
176
     1
 77
     6
176
     1
 78
     2
176
     1
 67
     7
176
     1
 79
     5
176
     1
170
     0
176
     1
171
     0
176
     1
290
     0
176
     1
 93
        1
176
     1
 44
0.0
176
     1
173
     0
176
     1
  0
VISUALSTYLE
  5
31
102
{ACAD_REACTORS
330
2A
102
}
330
2A
100
AcDbVisualStyle
  2
3D Hidden
 70
     6
177
     2
291
     0
 71
     1
176
     1
 72
     2
176
     1
 73
     2
176
     1
 90
        0
176
     1
 40
-0.6
176
     1
 41
-30.0
176
     1
 62
     5
 63
     7
421
 16777215
176
     1
 74
     2
176
     1
 91
        2
176
     1
 64
     7
176
     1
 65
   257
176
     1
 75
     2
176
     1
175
     1
176
     1
 42
40.0
176
     1
 92
        0
176
     1
 66
   257
176
     1
 43
1.0
176
     1
 76
     1
176
     1
 77
     6
176
     1
 78
     2
176
     1
 67
     7
176
     1
 79
     3
176
     1
170
     0
176
     1
171
     0
176
     1
290
     0
176
     1
 93
        1
176
     1
 44
0.0
176
     1
173
     0
176
     1
  0
VISUALSTYLE
  5
30
102
{ACAD_REACTORS
330
2A
102
}
330
2A
100
AcDbVisualStyle
  2
3dWireframe
 70
     5
177
     2
291
     0
 71
     0
176
     1
 72
     2
176
     1
 73
     0
176
     1
 90
        0
176
     1
 40
-0.6
176
     1
 41
-30.0
176
     1
 62
     5
 63
     7
421
 16777215
176
     1
 74
     1
176
     1
 91
        4
176
     1
 64
     7
176
     1
 65
   257
176
     1
 75
     1
176
     1
175
     1
176
     1
 42
1.0
176
     1
 92
        0
176
     1
 66
   257
176
     1
 43
1.0
176
     1
 76
     1
176
     1
 77
     6
176
     1
 78
     2
176
     1
 67
     7
176
     1
 79
     5
176
     1
170
     0
176
     1
171
     0
176
     1
290
     0
176
     1
 93
        1
176
     1
 44
0.0
176
     1
173
     0
176
     1
  0
VISUALSTYLE
  5
32
102
{ACAD_REACTORS
330
2A
102
}
330
2A
100
AcDbVisualStyle
  2
Basic
 70
     7
177
     2
291
     1
 71
     1
176
     1
 72
     0
176
     1
 73
     1
176
     1
 90
        0
176
     1
 40
-0.6
176
     1
 41
-30.0
176
     1
 62
     5
 63
     7
421
 16777215
176
     1
 74
     0
176
     1
 91
        4
176
     1
 64
     7
176
     1
 65
   257
176
     1
 75
     1
176
     1
175
     1
176
     1
 42
1.0
176
     1
 92
        8
176
     1
 66
     7
176
     1
 43
1.0
176
     1
 76
     1
176
     1
 77
     6
176
     1
 78
     2
176
     1
 67
     7
176
     1
 79
     5
176
     1
170
     0
176
     1
171
     0
176
     1
290
     0
176
     1
 93
        1
176
     1
 44
0.0
176
     1
173
     0
176
     1
  0
VISUALSTYLE
  5
36
102
{ACAD_REACTORS
330
2A
102
}
330
2A
100
AcDbVisualStyle
  2
Brighten
 70
    12
177
     2
291
     1
 71
     2
176
     1
 72
     2
176
     1
 73
     0
176
     1
 90
        0
176
     1
 40
-0.6
176
     1
 41
-30.0
176
     1
 62
     5
 63
     7
421
 16777215
176
     1
 74
     1
176
     1
 91
        4
176
     1
 64
     7
176
     1
 65
   257
176
     1
 75
     1
176
     1
175
     1
176
     1
 42
1.0
176
     1
 92
        8
176
     1
 66
     7
176
     1
 43
1.0
176
     1
 76
     1
176
     1
 77
     6
176
     1
 78
     2
176
     1
 67
     7
176
     1
 79
     5
176
     1
170
     0
176
     1
171
     0
176
     1
290
     0
176
     1
 93
        1
176
     1
 44
50.0
176
     1
173
     0
176
     1
  0
VISUALSTYLE
  5
3A
102
{ACAD_REACTORS
330
2A
102
}
330
2A
100
AcDbVisualStyle
  2
ColorChange
 70
    16
177
     2
291
     1
 71
     2
176
     1
 72
     2
176
     1
 73
     3
176
     1
 90
        0
176
     1
 40
-0.6
176
     1
 41
-30.0
176
     1
 62
     5
 63
     8
421
  8421504
176
     1
 74
     1
176
     1
 91
        4
176
     1
 64
     7
176
     1
 65
   257
176
     1
 75
     1
176
     1
175
     1
176
     1
 42
1.0
176
     1
 92
        8
176
     1
 66
     8
424
  8421504
176
     1
 43
1.0
176
     1
 76
     1
176
     1
 77
     6
176
     1
 78
     2
176
     1
 67
     7
176
     1
 79
     5
176
     1
170
     0
176
     1
171
     0
176
     1
290
     0
176
     1
 93
        1
176
     1
 44
0.0
176
     1
173
     0
176
     1
  0
VISUALSTYLE
  5
34
102
{ACAD_REACTORS
330
2A
102
}
330
2A
100
AcDbVisualStyle
  2
Conceptual
 70
     9
177
     2
291
     0
 71
     3
176
     1
 72
     2
176
     1
 73
     0
176
     1
 90
        0
176
     1
 40
-0.6
176
     1
 41
-30.0
176
     1
 62
     5
 63
     7
421
 16777215
176
     1
 74
     2
176
     1
 91
        2
176
     1
 64
     7
176
     1
 65
   257
176
     1
 75
     1
176
     1
175
     1
176
     1
 42
40.0
176
     1
 92
        8
176
     1
 66
     7
176
     1
 43
1.0
176
     1
 76
     1
176
     1
 77
     6
176
     1
 78
     2
176
     1
 67
     7
176
     1
 79
     3
176
     1
170
     0
176
     1
171
     0
176
     1
290
     0
176
     1
 93
        1
176
     1
 44
0.0
176
     1
173
     0
176
     1
  0
VISUALSTYLE
  5
35
102
{ACAD_REACTORS
330
2A
102
}
330
2A
100
AcDbVisualStyle
  2
Dim
 70
    11
177
     2
291
     1
 71
     2
176
     1
 72
     2
176
     1
 73
     0
176
     1
 90
        0
176
     1
 40
-0.6
176
     1
 41
-30.0
176
     1
 62
     5
 63
     7
421
 16777215
176
     1
 74
     1
176
     1
 91
        4
176
     1
 64
     7
176
     1
 65
   257
176
     1
 75
     1
176
     1
175
     1
176
     1
 42
1.0
176
     1
 92
        8
176
     1
 66
     7
176
     1
 43
1.0
176
     1
 76
     1
176
     1
 77
     6
176
     1
 78
     2
176
     1
 67
     7
176
     1
 79
     5
176
     1
170
     0
176
     1
171
     0
176
     1
290
     0
176
     1
 93
        1
176
     1
 44
-50.0
176
     1
173
     0
176
     1
  0
VISUALSTYLE
  5
39
102
{ACAD_REACTORS
330
2A
102
}
330
2A
100
AcDbVisualStyle
  2
Facepattern
 70
    15
177
     2
291
     1
 71
     2
176
     1
 72
     2
176
     1
 73
     0
176
     1
 90
        0
176
     1
 40
-0.6
176
     1
 41
-30.0
176
     1
 62
     5
 63
     7
421
 16777215
176
     1
 74
     1
176
     1
 91
        4
176
     1
 64
     7
176
     1
 65
   257
176
     1
 75
     1
176
     1
175
     1
176
     1
 42
1.0
176
     1
 92
        8
176
     1
 66
     7
176
     1
 43
1.0
176
     1
 76
     1
176
     1
 77
     6
176
     1
 78
     2
176
     1
 67
     7
176
     1
 79
     5
176
     1
170
     0
176
     1
171
     0
176
     1
290
     0
176
     1
 93
        1
176
     1
 44
0.0
176
     1
173
     0
176
     1
  0
VISUALSTYLE
  5
2B
102
{ACAD_REACTORS
330
2A
102
}
330
2A
100
AcDbVisualStyle
  2
Flat
 70
     0
177
     2
291
     1
 71
     2
176
     1
 72
     1
176
     1
 73
     1
176
     1
 90
        2
176
     1
 40
-0.6
176
     1
 41
30.0
176
     1
 62
     5
 63
     7
421
 16777215
176
     1
 74
     0
176
     1
 91
        4
176
     1
 64
     7
176
     1
 65
   257
176
     1
 75
     1
176
     1
175
     1
176
     1
 42
1.0
176
     1
 92
        8
176
     1
 66
     7
176
     1
 43
1.0
176
     1
 76
     1
176
     1
 77
     6
176
     1
 78
     2
176
     1
 67
     7
176
     1
 79
     5
176
     1
170
     0
176
     1
171
     0
176
     1
290
     0
176
     1
 93
       13
176
     1
 44
0.0
176
     1
173
     0
176
     1
  0
VISUALSTYLE
  5
2C
102
{ACAD_REACTORS
330
2A
102
}
330
2A
100
AcDbVisualStyle
  2
FlatWithEdges
 70
     1
177
     2
291
     1
 71
     2
176
     1
 72
     1
176
     1
 73
     1
176
     1
 90
        2
176
     1
 40
-0.6
176
     1
 41
30.0
176
     1
 62
     5
 63
     7
421
 16777215
176
     1
 74
     1
176
     1
 91
        4
176
     1
 64
     7
176
     1
 65
   257
176
     1
 75
     1
176
     1
175
     1
176
     1
 42
1.0
176
     1
 92
        0
176
     1
 66
   257
176
     1
 43
1.0
176
     1
 76
     1
176
     1
 77
     6
176
     1
 78
     2
176
     1
 67
     7
176
     1
 79
     5
176
     1
170
     0
176
     1
171
     0
176
     1
290
     0
176
     1
 93
       13
176
     1
 44
0.0
176
     1
173
     0
176
     1
  0
VISUALSTYLE
  5
2D
102
{ACAD_REACTORS
330
2A
102
}
330
2A
100
AcDbVisualStyle
  2
Gouraud
 70
     2
177
     2
291
     1
 71
     2
176
     1
 72
     2
176
     1
 73
     1
176
     1
 90
        2
176
     1
 40
-0.6
176
     1
 41
30.0
176
     1
 62
     5
 63
     7
421
 16777215
176
     1
 74
     0
176
     1
 91
        4
176
     1
 64
     7
176
     1
 65
   257
176
     1
 75
     1
176
     1
175
     1
176
     1
 42
1.0
176
     1
 92
        0
176
     1
 66
     7
176
     1
 43
1.0
176
     1
 76
     1
176
     1
 77
     6
176
     1
 78
     2
176
     1
 67
     7
176
     1
 79
     5
176
     1
170
     0
176
     1
171
     0
176
     1
290
     0
176
     1
 93
       13
176
     1
 44
0.0
176
     1
173
     0
176
     1
  0
VISUALSTYLE
  5
2E
102
{ACAD_REACTORS
330
2A
102
}
330
2A
100
AcDbVisualStyle
  2
GouraudWithEdges
 70
     3
177
     2
291
     1
 71
     2
176
     1
 72
     2
176
     1
 73
     1
176
     1
 90
        2
176
     1
 40
-0.6
176
     1
 41
30.0
176
     1
 62
     5
 63
     7
421
 16777215
176
     1
 74
     1
176
     1
 91
        4
176
     1
 64
     7
176
     1
 65
   257
176
     1
 75
     1
176
     1
175
     1
176
     1
 42
1.0
176
     1
 92
        0
176
     1
 66
   257
176
     1
 43
1.0
176
     1
 76
     1
176
     1
 77
     6
176
     1
 78
     2
176
     1
 67
     7
176
     1
 79
     5
176
     1
170
     0
176
     1
171
     0
176
     1
290
     0
176
     1
 93
       13
176
     1
 44
0.0
176
     1
173
     0
176
     1
  0
VISUALSTYLE
  5
38
102
{ACAD_REACTORS
330
2A
102
}
330
2A
100
AcDbVisualStyle
  2
Linepattern
 70
    14
177
     2
291
     1
 71
     2
176
     1
 72
     2
176
     1
 73
     0
176
     1
 90
        0
176
     1
 40
-0.6
176
     1
 41
-30.0
176
     1
 62
     5
 63
     7
421
 16777215
176
     1
 74
     1
176
     1
 91
        4
176
     1
 64
     7
176
     1
 65
   257
176
     1
 75
     7
176
     1
175
     7
176
     1
 42
1.0
176
     1
 92
        8
176
     1
 66
     7
176
     1
 43
1.0
176
     1
 76
     1
176
     1
 77
     6
176
     1
 78
     2
176
     1
 67
     7
176
     1
 79
     5
176
     1
170
     0
176
     1
171
     0
176
     1
290
     0
176
     1
 93
        1
176
     1
 44
0.0
176
     1
173
     0
176
     1
  0
VISUALSTYLE
  5
33
102
{ACAD_REACTORS
330
2A
102
}
330
2A
100
AcDbVisualStyle
  2
Realistic
 70
     8
177
     2
291
     0
 71
     2
176
     1
 72
     2
176
     1
 73
     0
176
     1
 90
        0
176
     1
 40
-0.6
176
     1
 41
-30.0
176
     1
 62
     5
 63
     7
421
 16777215
176
     1
 74
     1
176
     1
 91
        0
176
     1
 64
     7
176
     1
 65
   257
176
     1
 75
     1
176
     1
175
     1
176
     1
 42
1.0
176
     1
 92
        8
176
     1
 66
     8
424
  7895160
176
     1
 43
1.0
176
     1
 76
     1
176
     1
 77
     6
176
     1
 78
     2
176
     1
 67
     7
176
     1
 79
     5
176
     1
170
     0
176
     1
171
     0
176
     1
290
     0
176
     1
 93
       13
176
     1
 44
0.0
176
     1
173
     0
176
     1
  0
VISUALSTYLE
  5
37
102
{ACAD_REACTORS
330
2A
102
}
330
2A
100
AcDbVisualStyle
  2
Thicken
 70
    13
177
     2
291
     1
 71
     2
176
     1
 72
     2
176
     1
 73
     0
176
     1
 90
        0
176
     1
 40
-0.6
176
     1
 41
-30.0
176
     1
 62
     5
 63
     7
421
 16777215
176
     1
 74
     1
176
     1
 91
        4
176
     1
 64
     7
176
     1
 65
   257
176
     1
 75
     1
176
     1
175
     1
176
     1
 42
1.0
176
     1
 92
       12
176
     1
 66
     7
176
     1
 43
1.0
176
     1
 76
     1
176
     1
 77
     6
176
     1
 78
     2
176
     1
 67
     7
176
     1
 79
     5
176
     1
170
     0
176
     1
171
     0
176
     1
290
     0
176
     1
 93
        1
176
     1
 44
0.0
176
     1
173
     0
176
     1
  0
ENDSEC
  0
EOF
