  0
SECTION
  2
HEADER
  9
$ACADVER
  1
AC1024
  9
$ACADMAINTVER
 70
     6
  9
$DWGCODEPAGE
  3
UNDEFINED
  9
$INSBASE
 10
0.0
 20
0.0
 30
0.0
  9
$EXTMIN
 10
1.000000000000000E+20
 20
1.000000000000000E+20
 30
1.000000000000000E+20
  9
$EXTMAX
 10
-1.000000000000000E+20
 20
-1.000000000000000E+20
 30
-1.000000000000000E+20
  9
$LIMMIN
 10
0.0
 20
0.0
  9
$LIMMAX
 10
12.0
 20
9.0
  9
$ORTHOMODE
 70
     0
  9
$REGENMODE
 70
     1
  9
$FILLMODE
 70
     1
  9
$QTEXTMODE
 70
     0
  9
$MIRRTEXT
 70
     1
  9
$LTSCALE
 40
1.0
  9
$ATTMODE
 70
     1
  9
$TEXTSIZE
 40
0.2
  9
$TRACEWID
 40
0.05
  9
$TEXTSTYLE
  7
Standard
  9
$CLAYER
  8
0
  9
$CELTYPE
  6
ByLayer
  9
$CECOLOR
 62
   256
  9
$CELTSCALE
 40
1.0
  9
$DISPSILH
 70
     0
  9
$DIMSCALE
 40
1.0
  9
$DIMASZ
 40
0.18
  9
$DIMEXO
 40
0.0625
  9
$DIMDLI
 40
0.38
  9
$DIMRND
 40
0.0
  9
$DIMDLE
 40
0.0
  9
$DIMEXE
 40
0.18
  9
$DIMTP
 40
0.0
  9
$DIMTM
 40
0.0
  9
$DIMTXT
 40
0.18
  9
$DIMCEN
 40
0.09
  9
$DIMTSZ
 40
0.0
  9
$DIMTOL
 70
     0
  9
$DIMLIM
 70
     0
  9
$DIMTIH
 70
     1
  9
$DIMTOH
 70
     1
  9
$DIMSE1
 70
     0
  9
$DIMSE2
 70
     0
  9
$DIMTAD
 70
     0
  9
$DIMZIN
 70
     0
  9
$DIMBLK
  1

  9
$DIMASO
 70
     1
  9
$DIMSHO
 70
     1
  9
$DIMPOST
  1

  9
$DIMAPOST
  1

  9
$DIMALT
 70
     0
  9
$DIMALTD
 70
     2
  9
$DIMALTF
 40
25.4
  9
$DIMLFAC
 40
1.0
  9
$DIMTOFL
 70
     0
  9
$DIMTVP
 40
0.0
  9
$DIMTIX
 70
     0
  9
$DIMSOXD
 70
     0
  9
$DIMSAH
 70
     0
  9
$DIMBLK1
  1

  9
$DIMBLK2
  1

  9
$DIMSTYLE
  2
Standard
  9
$DIMCLRD
 70
     0
  9
$DIMCLRE
 70
     0
  9
$DIMCLRT
 70
     0
  9
$DIMTFAC
 40
1.0
  9
$DIMGAP
 40
0.09
  9
$DIMJUST
 70
     0
  9
$DIMSD1
 70
     0
  9
$DIMSD2
 70
     0
  9
$DIMTOLJ
 70
     1
  9
$DIMTZIN
 70
     0
  9
$DIMALTZ
 70
     0
  9
$DIMALTTZ
 70
     0
  9
$DIMUPT
 70
     0
  9
$DIMDEC
 70
     4
  9
$DIMTDEC
 70
     4
  9
$DIMALTU
 70
     2
  9
$DIMALTTD
 70
     2
  9
$DIMTXSTY
  7
Standard
  9
$DIMAUNIT
 70
     0
  9
$DIMADEC
 70
     0
  9
$DIMALTRND
 40
0.0
  9
$DIMAZIN
 70
     0
  9
$DIMDSEP
 70
    46
  9
$DIMATFIT
 70
     3
  9
$DIMFRAC
 70
     0
  9
$DIMLDRBLK
  1

  9
$DIMLUNIT
 70
     2
  9
$DIMLWD
 70
    -2
  9
$DIMLWE
 70
    -2
  9
$DIMTMOVE
 70
     0
  9
$DIMFXL
 40
1.0
  9
$DIMFXLON
 70
     0
  9
$DIMJOGANG
 40
0.7853981633974483
  9
$DIMTFILL
 70
     0
  9
$DIMTFILLCLR
 70
     0
  9
$DIMARCSYM
 70
     0
  9
$DIMLTYPE
  6

  9
$DIMLTEX1
  6

  9
$DIMLTEX2
  6

  9
$DIMTXTDIRECTION
 70
     0
  9
$LUNITS
 70
     2
  9
$LUPREC
 70
     4
  9
$SKETCHINC
 40
0.1
  9
$FILLETRAD
 40
0.5
  9
$AUNITS
 70
     0
  9
$AUPREC
 70
     0
  9
$MENU
  1
.
  9
$ELEVATION
 40
0.0
  9
$PELEVATION
 40
0.0
  9
$THICKNESS
 40
0.0
  9
$LIMCHECK
 70
     0
  9
$CHAMFERA
 40
0.5
  9
$CHAMFERB
 40
0.5
  9
$CHAMFERC
 40
1.0
  9
$CHAMFERD
 40
0.0
  9
$SKPOLY
 70
     0
  9
$TDCREATE
 40
2458113.717557859
  9
$TDUCREATE
 40
2458113.634224537
  9
$TDUPDATE
 40
2458113.717557859
  9
$TDUUPDATE
 40
2458113.634224537
  9
$TDINDWG
 40
0.0000000116
  9
$TDUSRTIMER
 40
0.0000000116
  9
$USRTIMER
 70
     1
  9
$ANGBASE
 50
0.0
  9
$ANGDIR
 70
     0
  9
$PDMODE
 70
     0
  9
$PDSIZE
 40
0.0
  9
$PLINEWID
 40
0.0
  9
$SPLFRAME
 70
     0
  9
$SPLINETYPE
 70
     6
  9
$SPLINESEGS
 70
     8
  9
$HANDSEED
  5
87
  9
$SURFTAB1
 70
     6
  9
$SURFTAB2
 70
     6
  9
$SURFTYPE
 70
     6
  9
$SURFU
 70
     6
  9
$SURFV
 70
     6
  9
$UCSBASE
  2

  9
$UCSNAME
  2

  9
$UCSORG
 10
0.0
 20
0.0
 30
0.0
  9
$UCSXDIR
 10
1.0
 20
0.0
 30
0.0
  9
$UCSYDIR
 10
0.0
 20
1.0
 30
0.0
  9
$UCSORTHOREF
  2

  9
$UCSORTHOVIEW
 70
     0
  9
$UCSORGTOP
 10
0.0
 20
0.0
 30
0.0
  9
$UCSORGBOTTOM
 10
0.0
 20
0.0
 30
0.0
  9
$UCSORGLEFT
 10
0.0
 20
0.0
 30
0.0
  9
$UCSORGRIGHT
 10
0.0
 20
0.0
 30
0.0
  9
$UCSORGFRONT
 10
0.0
 20
0.0
 30
0.0
  9
$UCSORGBACK
 10
0.0
 20
0.0
 30
0.0
  9
$PUCSBASE
  2

  9
$PUCSNAME
  2

  9
$PUCSORG
 10
0.0
 20
0.0
 30
0.0
  9
$PUCSXDIR
 10
1.0
 20
0.0
 30
0.0
  9
$PUCSYDIR
 10
0.0
 20
1.0
 30
0.0
  9
$PUCSORTHOREF
  2

  9
$PUCSORTHOVIEW
 70
     0
  9
$PUCSORGTOP
 10
0.0
 20
0.0
 30
0.0
  9
$PUCSORGBOTTOM
 10
0.0
 20
0.0
 30
0.0
  9
$PUCSORGLEFT
 10
0.0
 20
0.0
 30
0.0
  9
$PUCSORGRIGHT
 10
0.0
 20
0.0
 30
0.0
  9
$PUCSORGFRONT
 10
0.0
 20
0.0
 30
0.0
  9
$PUCSORGBACK
 10
0.0
 20
0.0
 30
0.0
  9
$USERI1
 70
     0
  9
$USERI2
 70
     0
  9
$USERI3
 70
     0
  9
$USERI4
 70
     0
  9
$USERI5
 70
     0
  9
$USERR1
 40
0.0
  9
$USERR2
 40
0.0
  9
$USERR3
 40
0.0
  9
$USERR4
 40
0.0
  9
$USERR5
 40
0.0
  9
$WORLDVIEW
 70
     1
  9
$SHADEDGE
 70
     3
  9
$SHADEDIF
 70
    70
  9
$TILEMODE
 70
     1
  9
$MAXACTVP
 70
    64
  9
$PINSBASE
 10
0.0
 20
0.0
 30
0.0
  9
$PLIMCHECK
 70
     0
  9
$PEXTMIN
 10
1.000000000000000E+20
 20
1.000000000000000E+20
 30
1.000000000000000E+20
  9
$PEXTMAX
 10
-1.000000000000000E+20
 20
-1.000000000000000E+20
 30
-1.000000000000000E+20
  9
$PLIMMIN
 10
0.0
 20
0.0
  9
$PLIMMAX
 10
12.0
 20
9.0
  9
$UNITMODE
 70
     0
  9
$VISRETAIN
 70
     1
  9
$PLINEGEN
 70
     0
  9
$PSLTSCALE
 70
     1
  9
$TREEDEPTH
 70
  3020
  9
$CMLSTYLE
  2
Standard
  9
$CMLJUST
 70
     0
  9
$CMLSCALE
 40
1.0
  9
$PROXYGRAPHICS
 70
     1
  9
$MEASUREMENT
 70
     0
  9
$CELWEIGHT
370
    -1
  9
$ENDCAPS
280
     0
  9
$JOINSTYLE
280
     0
  9
$LWDISPLAY
290
     1
  9
$INSUNITS
 70
     1
  9
$HYPERLINKBASE
  1

  9
$STYLESHEET
  1

  9
$XEDIT
290
     1
  9
$CEPSNTYPE
380
     0
  9
$PSTYLEMODE
290
     1
  9
$FINGERPRINTGUID
  2
{4C0DB905-86A8-4D0C-647C-370DACDD2AB4}
  9
$VERSIONGUID
  2
{FAEB1C32-E019-11D5-929B-00C0DF256EC4}
  9
$EXTNAMES
290
     1
  9
$PSVPSCALE
 40
0.0
  9
$OLESTARTUP
290
     0
  9
$SORTENTS
280
   127
  9
$INDEXCTL
280
     0
  9
$HIDETEXT
280
     1
  9
$XCLIPFRAME
280
     2
  9
$HALOGAP
280
     0
  9
$OBSCOLOR
 70
   257
  9
$OBSLTYPE
280
     0
  9
$INTERSECTIONDISPLAY
280
     0
  9
$INTERSECTIONCOLOR
 70
   257
  9
$DIMASSOC
280
     2
  9
$PROJECTNAME
  1

  9
$CAMERADISPLAY
290
     0
  9
$LENSLENGTH
 40
50.0
  9
$CAMERAHEIGHT
 40
0.0
  9
$STEPSPERSEC
 40
2.0
  9
$STEPSIZE
 40
6.0
  9
$3DDWFPREC
 40
2.0
  9
$PSOLWIDTH
 40
0.25
  9
$PSOLHEIGHT
 40
4.0
  9
$LOFTANG1
 40
1.570796326794897
  9
$LOFTANG2
 40
1.570796326794897
  9
$LOFTMAG1
 40
0.0
  9
$LOFTMAG2
 40
0.0
  9
$LOFTPARAM
 70
     7
  9
$LOFTNORMALS
280
     1
  9
$LATITUDE
 40
37.795
  9
$LONGITUDE
 40
-122.394
  9
$NORTHDIRECTION
 40
0.0
  9
$TIMEZONE
 70
 -8000
  9
$LIGHTGLYPHDISPLAY
280
     1
  9
$TILEMODELIGHTSYNCH
280
     1
  9
$CMATERIAL
347
3C
  9
$SOLIDHIST
280
     1
  9
$SHOWHIST
280
     1
  9
$DWFFRAME
280
     2
  9
$DGNFRAME
280
     2
  9
$REALWORLDSCALE
290
     1
  9
$INTERFERECOLOR
 62
   256
  9
$CSHADOW
280
     0
  9
$SHADOWPLANELOCATION
 40
0.0
  0
ENDSEC
  0
SECTION
  2
CLASSES
  0
CLASS
  1
ACDBDICTIONARYWDFLT
  2
AcDbDictionaryWithDefault
  3
ObjectDBX Classes
 90
        0
 91
        4
280
     0
281
     0
  0
CLASS
  1
VISUALSTYLE
  2
AcDbVisualStyle
  3
ObjectDBX Classes
 90
     4095
 91
        4
280
     0
281
     0
  0
CLASS
  1
MATERIAL
  2
AcDbMaterial
  3
ObjectDBX Classes
 90
     1153
 91
        4
280
     0
281
     0
  0
CLASS
  1
SUN
  2
AcDbSun
  3
SCENEOE
 90
     1024
 91
        4
280
     0
281
     0
  0
ENDSEC
  0
SECTION
  2
TABLES
  0
TABLE
  2
VPORT
  5
8
330
0
100
AcDbSymbolTable
 70
     1
  0
VPORT
  5
29
330
8
100
AcDbSymbolTableRecord
100
AcDbViewportTableRecord
  2
*Active
 70
     0
 10
0.0
 20
0.0
 11
1.0
 21
1.0
 12
0.0
 22
0.0
 13
0.0
 23
0.0
 14
0.5
 24
0.5
 15
0.5
 25
0.5
 16
0.0
 26
0.0
 36
1.0
 17
297.6379999999999
 27
-420.9449999999997
 37
0.0
 40
841.8899999999994
 41
0.7070709950231031
 42
50.0
 43
0.0
 44
0.0
 50
0.0
 51
0.0
 71
     0
 72
   100
 73
     1
 74
     3
 75
     0
 76
     0
 77
     0
 78
     0
281
     0
 65
     1
110
0.0
120
0.0
130
0.0
111
1.0
121
0.0
131
0.0
112
0.0
122
1.0
132
0.0
 79
     0
146
0.0
 60
     3
 61
     5
292
     1
282
     1
141
0.0
142
0.0
 63
   250
361
3F
  0
ENDTAB
  0
TABLE
  2
LTYPE
  5
5
330
0
100
AcDbSymbolTable
 70
     1
  0
LTYPE
  5
14
330
5
100
AcDbSymbolTableRecord
100
AcDbLinetypeTableRecord
  2
ByBlock
 70
     0
  3

 72
    65
 73
     0
 40
0.0
  0
LTYPE
  5
15
330
5
100
AcDbSymbolTableRecord
100
AcDbLinetypeTableRecord
  2
ByLayer
 70
     0
  3

 72
    65
 73
     0
 40
0.0
  0
LTYPE
  5
16
330
5
100
AcDbSymbolTableRecord
100
AcDbLinetypeTableRecord
  2
Continuous
 70
     0
  3
Solid line
 72
    65
 73
     0
 40
0.0
  0
ENDTAB
  0
TABLE
  2
LAYER
  5
2
330
0
100
AcDbSymbolTable
 70
     2
  0
LAYER
  5
10
330
2
100
AcDbSymbolTableRecord
100
AcDbLayerTableRecord
  2
0
 70
     0
 62
     7
  6
Continuous
370
    -3
390
F
347
3E
  0
LAYER
  5
40
330
2
100
AcDbSymbolTableRecord
100
AcDbLayerTableRecord
  2
Layer 1
 70
     0
 62
     7
  6
Continuous
370
    -3
390
F
347
3E
  0
ENDTAB
  0
TABLE
  2
STYLE
  5
3
330
0
100
AcDbSymbolTable
 70
     1
  0
STYLE
  5
11
330
3
100
AcDbSymbolTableRecord
100
AcDbTextStyleTableRecord
  2
Standard
 70
     0
 40
0.0
 41
1.0
 50
0.0
 71
     0
 42
0.2
  3
txt
  4

  0
ENDTAB
  0
TABLE
  2
VIEW
  5
6
330
0
100
AcDbSymbolTable
 70
     0
  0
ENDTAB
  0
TABLE
  2
UCS
  5
7
330
0
100
AcDbSymbolTable
 70
     0
  0
ENDTAB
  0
TABLE
  2
APPID
  5
9
330
0
100
AcDbSymbolTable
 70
     1
  0
APPID
  5
12
330
9
100
AcDbSymbolTableRecord
100
AcDbRegAppTableRecord
  2
ACAD
 70
     0
  0
ENDTAB
  0
TABLE
  2
DIMSTYLE
  5
A
330
0
100
AcDbSymbolTable
 70
     1
100
AcDbDimStyleTable
  0
DIMSTYLE
105
27
330
A
100
AcDbSymbolTableRecord
100
AcDbDimStyleTableRecord
  2
Standard
 70
     0
178
     0
340
11
  0
ENDTAB
  0
TABLE
  2
BLOCK_RECORD
  5
1
330
0
100
AcDbSymbolTable
 70
     2
  0
BLOCK_RECORD
  5
1F
330
1
100
AcDbSymbolTableRecord
100
AcDbBlockTableRecord
  2
*Model_Space
340
22
 70
     0
280
     1
281
     0
  0
BLOCK_RECORD
  5
1B
330
1
100
AcDbSymbolTableRecord
100
AcDbBlockTableRecord
  2
*Paper_Space
340
1E
 70
     0
280
     1
281
     0
  0
BLOCK_RECORD
  5
23
330
1
100
AcDbSymbolTableRecord
100
AcDbBlockTableRecord
  2
*Paper_Space0
340
26
 70
     0
280
     1
281
     0
  0
BLOCK_RECORD
  5
41
330
1
100
AcDbSymbolTableRecord
100
AcDbBlockTableRecord
  2
block 2
340
0
102
{BLKREFS
331
42
102
}
 70
     0
280
     1
281
     0
  0
ENDTAB
  0
ENDSEC
  0
SECTION
  2
BLOCKS
  0
BLOCK
  5
20
330
1F
100
AcDbEntity
  8
0
100
AcDbBlockBegin
  2
*Model_Space
 70
     0
 10
0.0
 20
0.0
 30
0.0
  3
*Model_Space
  1

  0
ENDBLK
  5
21
330
1F
100
AcDbEntity
  8
0
100
AcDbBlockEnd
  0
BLOCK
  5
1C
330
1B
100
AcDbEntity
 67
     1
  8
0
100
AcDbBlockBegin
  2
*Paper_Space
 70
     0
 10
0.0
 20
0.0
 30
0.0
  3
*Paper_Space
  1

  0
ENDBLK
  5
1D
330
1B
100
AcDbEntity
 67
     1
  8
0
100
AcDbBlockEnd
  0
BLOCK
  5
24
330
23
100
AcDbEntity
  8
0
100
AcDbBlockBegin
  2
*Paper_Space0
 70
     0
 10
0.0
 20
0.0
 30
0.0
  3
*Paper_Space0
  1

  0
ENDBLK
  5
25
330
23
100
AcDbEntity
  8
0
100
AcDbBlockEnd
  0
BLOCK
  5
43
330
41
100
AcDbEntity
  8
0
100
AcDbBlockBegin
  2
block 2
 70
     0
 10
0.0
 20
0.0
 30
0.0
  3
block 2
  1

  0
SPLINE
  5
45
330
41
100
AcDbEntity
  8
Layer 1
 62
   156
420
  1785491
370
    35
100
AcDbSpline
210
0.0
220
0.0
230
1.0
 70
     8
 71
     3
 72
    14
 73
    10
 74
     0
 42
0.0000000001
 43
0.0000000001
 12
1.0
 22
0.0
 32
0.0
 13
1.0
 23
0.0
 33
0.0
 40
0.0
 40
0.0
 40
0.0
 40
0.0
 40
1.0
 40
1.0
 40
1.0
 40
2.0
 40
2.0
 40
2.0
 40
3.0
 40
3.0
 40
3.0
 40
3.0
 10
91.8876443198651
 20
-223.4460032069001
 30
0.0
 10
91.8876443198651
 20
-223.4460032069001
 30
0.0
 10
99.92459422120191
 20
-281.1887914277377
 30
0.0
 10
113.9816468057434
 20
-354.4650321155586
 30
0.0
 10
122.2545291273827
 20
-397.7625715229569
 30
0.0
 10
132.0343392152972
 20
-446.4865838154874
 30
0.0
 10
141.85220391446
 20
-491.9075168201562
 30
0.0
 10
159.364532457339
 20
-572.8706873660994
 30
0.0
 10
181.2834877234618
 20
-636.755285162204
 30
0.0
 10
189.1225561866577
 20
-654.2980617489902
 30
0.0
  0
SPLINE
  5
46
330
41
100
AcDbEntity
  8
Layer 1
 62
   156
420
  1785491
370
    35
100
AcDbSpline
210
0.0
220
0.0
230
1.0
 70
     8
 71
     3
 72
    11
 73
     7
 74
     0
 42
0.0000000001
 43
0.0000000001
 12
1.0
 22
0.0
 32
0.0
 13
1.0
 23
0.0
 33
0.0
 40
0.0
 40
0.0
 40
0.0
 40
0.0
 40
1.0
 40
1.0
 40
1.0
 40
2.0
 40
2.0
 40
2.0
 40
2.0
 10
84.60415920893774
 20
-224.3364941748732
 30
0.0
 10
84.60415920893774
 20
-224.3364941748732
 30
0.0
 10
76.2323366218634
 20
-321.1375540778026
 30
0.0
 10
73.71317924103641
 20
-437.0949118910703
 30
0.0
 10
70.94286677886157
 20
-563.8366983031028
 30
0.0
 10
74.9232880255513
 20
-713.4716394809002
 30
0.0
 10
99.17874053449759
 20
-784.6397287388354
 30
0.0
  0
SPLINE
  5
47
330
41
100
AcDbEntity
  8
Layer 1
 62
   156
420
  1785491
370
    35
100
AcDbSpline
210
0.0
220
0.0
230
1.0
 70
     8
 71
     3
 72
    11
 73
     7
 74
     0
 42
0.0000000001
 43
0.0000000001
 12
1.0
 22
0.0
 32
0.0
 13
1.0
 23
0.0
 33
0.0
 40
0.0
 40
0.0
 40
0.0
 40
0.0
 40
1.0
 40
1.0
 40
1.0
 40
2.0
 40
2.0
 40
2.0
 40
2.0
 10
91.95614153139013
 20
-223.4460032069001
 30
0.0
 10
91.61365728831242
 20
-221.6498662016647
 30
0.0
 10
89.93168230228184
 20
-221.063870189093
 30
0.0
 10
88.36386933546055
 20
-221.063870189093
 30
0.0
 10
86.21763789071429
 20
-221.063870189093
 30
0.0
 10
85.00752865256345
 20
-222.0989440020221
 30
0.0
 10
84.60415920893774
 20
-224.4202244810676
 30
0.0
  0
SPLINE
  5
48
330
41
100
AcDbEntity
  8
Layer 1
 62
   156
420
  1785491
370
    35
100
AcDbSpline
210
0.0
220
0.0
230
1.0
 70
     8
 71
     3
 72
     8
 73
     4
 74
     0
 42
0.0000000001
 43
0.0000000001
 12
1.0
 22
0.0
 32
0.0
 13
1.0
 23
0.0
 33
0.0
 40
0.0
 40
0.0
 40
0.0
 40
0.0
 40
1.0
 40
1.0
 40
1.0
 40
1.0
 10
114.0197014169926
 20
-354.7390137034809
 30
0.0
 10
114.0197014169926
 20
-354.7390137034809
 30
0.0
 10
88.44758693985113
 20
-360.9189432135781
 30
0.0
 10
76.0192356981297
 20
-370.4475914156046
 30
0.0
  0
SPLINE
  5
49
330
41
100
AcDbEntity
  8
Layer 1
 62
   156
420
  1785491
370
    35
100
AcDbSpline
210
0.0
220
0.0
230
1.0
 70
     8
 71
     3
 72
    62
 73
    58
 74
     0
 42
0.0000000001
 43
0.0000000001
 12
1.0
 22
0.0
 32
0.0
 13
1.0
 23
0.0
 33
0.0
 40
0.0
 40
0.0
 40
0.0
 40
0.0
 40
1.0
 40
1.0
 40
1.0
 40
2.0
 40
2.0
 40
2.0
 40
3.0
 40
3.0
 40
3.0
 40
4.0
 40
4.0
 40
4.0
 40
5.0
 40
5.0
 40
5.0
 40
6.0
 40
6.0
 40
6.0
 40
7.0
 40
7.0
 40
7.0
 40
8.0
 40
8.0
 40
8.0
 40
9.0
 40
9.0
 40
9.0
 40
10.0
 40
10.0
 40
10.0
 40
11.0
 40
11.0
 40
11.0
 40
12.0
 40
12.0
 40
12.0
 40
13.0
 40
13.0
 40
13.0
 40
14.0
 40
14.0
 40
14.0
 40
15.0
 40
15.0
 40
15.0
 40
16.0
 40
16.0
 40
16.0
 40
17.0
 40
17.0
 40
17.0
 40
18.0
 40
18.0
 40
18.0
 40
19.0
 40
19.0
 40
19.0
 40
19.0
 10
161.0160648430947
 20
-727.5134789307485
 30
0.0
 10
158.8698370274342
 20
-729.2867381685519
 30
0.0
 10
157.3096342570452
 20
-730.4892725938716
 30
0.0
 10
154.5393195266897
 20
-730.4892725938716
 30
0.0
 10
152.8573463552048
 20
-730.4892725938716
 30
0.0
 10
151.906002848471
 20
-729.8956119485592
 30
0.0
 10
150.2240224188108
 20
-729.8956119485592
 30
0.0
 10
148.1995650042481
 20
-729.8956119485592
 30
0.0
 10
146.1751075896846
 20
-731.219909516798
 30
0.0
 10
146.1751075896846
 20
-733.4574596896491
 30
0.0
 10
146.1751075896846
 20
-734.8502163639969
 30
0.0
 10
147.2482214975144
 20
-735.5504270175425
 30
0.0
 10
147.2482214975144
 20
-736.9583968265815
 30
0.0
 10
147.2482214975144
 20
-736.9583968265815
 30
0.0
 10
147.2482214975144
 20
-743.0698381978709
 30
0.0
 10
147.2482214975144
 20
-743.0698381978709
 30
0.0
 10
147.2482214975144
 20
-745.0562555175347
 30
0.0
 10
145.2922594799329
 20
-745.9695081221416
 30
0.0
 10
143.4809020818302
 20
-745.9695081221416
 30
0.0
 10
141.9206993114421
 20
-745.9695081221416
 30
0.0
 10
141.2281242579402
 20
-744.7822448969109
 30
0.0
 10
139.6983622732814
 20
-744.7822448969109
 30
0.0
 10
137.4684114096017
 20
-744.7822448969109
 30
0.0
 10
137.8032890853347
 20
-748.1842385929594
 30
0.0
 10
136.9965429399072
 20
-750.4217887658069
 30
0.0
 10
135.3754585980569
 20
-754.7218799971724
 30
0.0
 10
134.629601282265
 20
-757.4845736438292
 30
0.0
 10
131.5776947675558
 20
-760.8409279358075
 30
0.0
 10
131.5776947675558
 20
-760.8409279358075
 30
0.0
 10
130.4969706632937
 20
-760.5364910458029
 30
0.0
 10
130.4969706632937
 20
-760.5364910458029
 30
0.0
 10
130.5806864531387
 20
-759.349227820574
 30
0.0
 10
130.7861762731682
 20
-758.7403540405667
 30
0.0
 10
130.7861762731682
 20
-757.5683039500273
 30
0.0
 10
130.7861762731682
 20
-756.0766038347938
 30
0.0
 10
129.4390771483277
 20
-755.1861128668206
 30
0.0
 10
128.0843641979691
 20
-755.1861128668206
 30
0.0
 10
126.1892873809347
 20
-755.1861128668206
 30
0.0
 10
124.8345744305743
 20
-757.1877433211721
 30
0.0
 10
124.8345744305743
 20
-759.2731040817216
 30
0.0
 10
124.8345744305743
 20
-759.2731040817216
 30
0.0
 10
124.8345744305743
 20
-766.5794152455874
 30
0.0
 10
124.8345744305743
 20
-766.5794152455874
 30
0.0
 10
124.8345744305743
 20
-770.1336564193352
 30
0.0
 10
122.6198439597592
 20
-772.3712065921864
 30
0.0
 10
119.7125384354431
 20
-773.9162107442335
 30
0.0
 10
117.8022412255432
 20
-774.9664976918539
 30
0.0
 10
115.98327363101
 20
-774.2891067403434
 30
0.0
 10
114.3089070268688
 20
-775.7123477494697
 30
0.0
 10
112.8933088759613
 20
-776.8996109747004
 30
0.0
 10
113.365177345655
 20
-778.6196242410879
 30
0.0
 10
112.6725986630672
 20
-780.4690652831378
 30
0.0
 10
111.1885014860909
 20
-784.2668327427291
 30
0.0
 10
108.2888061582071
 20
-786.123822286725
 30
0.0
 10
104.5823719430709
 20
-786.123822286725
 30
0.0
 10
102.4133099090268
 20
-786.123822286725
 30
0.0
 10
101.1347043666237
 20
-785.530161641409
 30
0.0
 10
99.17874053449759
 20
-784.6397287388354
 30
0.0
  0
SPLINE
  5
4A
330
41
100
AcDbEntity
  8
Layer 1
 62
   156
420
  1785491
370
    35
100
AcDbSpline
210
0.0
220
0.0
230
1.0
 70
     8
 71
     3
 72
    56
 73
    52
 74
     0
 42
0.0000000001
 43
0.0000000001
 12
1.0
 22
0.0
 32
0.0
 13
1.0
 23
0.0
 33
0.0
 40
0.0
 40
0.0
 40
0.0
 40
0.0
 40
1.0
 40
1.0
 40
1.0
 40
2.0
 40
2.0
 40
2.0
 40
3.0
 40
3.0
 40
3.0
 40
4.0
 40
4.0
 40
4.0
 40
5.0
 40
5.0
 40
5.0
 40
6.0
 40
6.0
 40
6.0
 40
7.0
 40
7.0
 40
7.0
 40
8.0
 40
8.0
 40
8.0
 40
9.0
 40
9.0
 40
9.0
 40
10.0
 40
10.0
 40
10.0
 40
11.0
 40
11.0
 40
11.0
 40
12.0
 40
12.0
 40
12.0
 40
13.0
 40
13.0
 40
13.0
 40
14.0
 40
14.0
 40
14.0
 40
15.0
 40
15.0
 40
15.0
 40
16.0
 40
16.0
 40
16.0
 40
17.0
 40
17.0
 40
17.0
 40
17.0
 10
188.8485745987346
 20
-654.0164445610208
 30
0.0
 10
192.151639370245
 20
-659.5114055849608
 30
0.0
 10
191.405782054454
 20
-664.055023102168
 30
0.0
 10
192.3571255611878
 20
-670.6763948125754
 30
0.0
 10
191.6112755035711
 20
-670.8133710901893
 30
0.0
 10
191.0176366327796
 20
-670.9732251352343
 30
0.0
 10
190.1956700944866
 20
-670.9732251352343
 30
0.0
 10
190.1956700944866
 20
-673.9414122310118
 30
0.0
 10
187.5166922376729
 20
-675.7375492362462
 30
0.0
 10
184.807266336953
 20
-675.7375492362462
 30
0.0
 10
184.807266336953
 20
-679.1547560669824
 30
0.0
 10
182.6382043029089
 20
-680.7149733537208
 30
0.0
 10
182.097840436234
 20
-684.0637210783516
 30
0.0
 10
181.7096877563863
 20
-686.7350778514719
 30
0.0
 10
182.3642154568124
 20
-688.8965042854707
 30
0.0
 10
180.7507376823078
 20
-690.9133478745152
 30
0.0
 10
179.3960211028598
 20
-692.2528585774471
 30
0.0
 10
178.5207868186271
 20
-693.29553895772
 30
0.0
 10
176.678988634796
 20
-693.29553895772
 30
0.0
 10
175.1492266501364
 20
-693.29553895772
 30
0.0
 10
174.3272673700194
 20
-692.3974414224031
 30
0.0
 10
172.9192757864566
 20
-691.811445409834
 30
0.0
 10
172.7822849924951
 20
-692.3289823162977
 30
0.0
 10
172.1049230736844
 20
-692.3974414224031
 30
0.0
 10
172.1049230736844
 20
-692.9911020677173
 30
0.0
 10
172.1049230736844
 20
-696.1952088819926
 30
0.0
 10
175.8874701404093
 20
-696.8649932661574
 30
0.0
 10
175.8874701404093
 20
-700.0614935130889
 30
0.0
 10
175.8874701404093
 20
-701.4010042160189
 30
0.0
 10
176.1995063395807
 20
-702.1239765062019
 30
0.0
 10
175.8874701404093
 20
-703.4178478050635
 30
0.0
 10
175.4840970676951
 20
-705.0389176305634
 30
0.0
 10
174.2739851077295
 20
-703.6918003602841
 30
0.0
 10
173.1704304141695
 20
-703.6918003602841
 30
0.0
 10
172.5159027137424
 20
-703.6918003602841
 30
0.0
 10
172.2190869074348
 20
-703.1134109150607
 30
0.0
 10
171.5721730325295
 20
-703.1134109150607
 30
0.0
 10
168.2006128640396
 20
-703.1134109150607
 30
0.0
 10
169.0606267554067
 20
-708.3952719225363
 30
0.0
 10
167.2492693573058
 20
-711.44718932451
 30
0.0
 10
165.3618027367029
 20
-714.567565832589
 30
0.0
 10
162.568661046138
 20
-715.3210224575523
 30
0.0
 10
159.1514324408781
 20
-715.3210224575523
 30
0.0
 10
159.0601028255114
 20
-715.9755356416263
 30
0.0
 10
158.8698370274342
 20
-716.4322200093302
 30
0.0
 10
158.8698370274342
 20
-717.1019463280954
 30
0.0
 10
158.8698370274342
 20
-720.2984465750251
 30
0.0
 10
162.0967925764426
 20
-721.3411269552998
 30
0.0
 10
162.0967925764426
 20
-724.5300206348857
 30
0.0
 10
162.0967925764426
 20
-726.2424853993234
 30
0.0
 10
161.3128879075766
 20
-727.2090420407476
 30
0.0
 10
160.2017121303215
 20
-728.4039118333221
 30
0.0
  0
SPLINE
  5
4B
330
41
100
AcDbEntity
  8
Layer 1
 62
   156
420
  1785491
370
    35
100
AcDbSpline
210
0.0
220
0.0
230
1.0
 70
     8
 71
     3
 72
    20
 73
    16
 74
     0
 42
0.0000000001
 43
0.0000000001
 12
1.0
 22
0.0
 32
0.0
 13
1.0
 23
0.0
 33
0.0
 40
0.0
 40
0.0
 40
0.0
 40
0.0
 40
1.0
 40
1.0
 40
1.0
 40
2.0
 40
2.0
 40
2.0
 40
3.0
 40
3.0
 40
3.0
 40
4.0
 40
4.0
 40
4.0
 40
5.0
 40
5.0
 40
5.0
 40
5.0
 10
162.0054629610786
 20
-695.9592891634966
 30
0.0
 10
162.0054629610786
 20
-705.0922216673771
 30
0.0
 10
158.4208027761251
 20
-712.1245222106209
 30
0.0
 10
150.8633297263723
 20
-715.815739661979
 30
0.0
 10
147.1645057076694
 20
-717.6042700998696
 30
0.0
 10
144.0136521229851
 20
-715.8994699681771
 30
0.0
 10
140.7638623555913
 20
-718.5936464433289
 30
0.0
 10
142.1261855023831
 20
-720.0701334238729
 30
0.0
 10
142.9329316478124
 20
-721.455283530875
 30
0.0
 10
142.9329316478124
 20
-723.5406442914245
 30
0.0
 10
142.9329316478124
 20
-727.4069289225208
 30
0.0
 10
139.4167668598393
 20
-729.6901184994422
 30
0.0
 10
135.9234290320765
 20
-729.6901184994422
 30
0.0
 10
133.845696613399
 20
-729.6901184994422
 30
0.0
 10
132.764972509136
 20
-728.495248706864
 30
0.0
 10
131.0449447264
 20
-727.3003789142876
 30
0.0
  0
SPLINE
  5
4C
330
41
100
AcDbEntity
  8
Layer 1
 62
   156
420
  1785491
370
    35
100
AcDbSpline
210
0.0
220
0.0
230
1.0
 70
     8
 71
     3
 72
    29
 73
    25
 74
     0
 42
0.0000000001
 43
0.0000000001
 12
1.0
 22
0.0
 32
0.0
 13
1.0
 23
0.0
 33
0.0
 40
0.0
 40
0.0
 40
0.0
 40
0.0
 40
1.0
 40
1.0
 40
1.0
 40
2.0
 40
2.0
 40
2.0
 40
3.0
 40
3.0
 40
3.0
 40
4.0
 40
4.0
 40
4.0
 40
5.0
 40
5.0
 40
5.0
 40
6.0
 40
6.0
 40
6.0
 40
7.0
 40
7.0
 40
7.0
 40
8.0
 40
8.0
 40
8.0
 40
8.0
 10
137.171595603294
 20
-730.4892725938716
 30
0.0
 10
137.171595603294
 20
-738.7165009950913
 30
0.0
 10
133.4727715845902
 20
-747.5373319762257
 30
0.0
 10
126.0142383466346
 20
-747.5373319762257
 30
0.0
 10
123.7614568936569
 20
-747.5373319762257
 30
0.0
 10
122.772058775673
 20
-745.1780186604537
 30
0.0
 10
120.5268911482153
 20
-745.1780186604537
 30
0.0
 10
119.2711143805664
 20
-745.1780186604537
 30
0.0
 10
118.1599458614855
 20
-744.0820342433653
 30
0.0
 10
117.3760411926196
 20
-745.1780186604537
 30
0.0
 10
116.9955023382909
 20
-745.6650712321407
 30
0.0
 10
116.9955023382909
 20
-746.2435187427654
 30
0.0
 10
116.9955023382909
 20
-746.9513359636567
 30
0.0
 10
116.9955023382909
 20
-750.6196756475802
 30
0.0
 10
119.8951976661747
 20
-752.1951060690062
 30
0.0
 10
119.8951976661747
 20
-755.8787169530206
 30
0.0
 10
119.8951976661747
 20
-760.6354344866904
 30
0.0
 10
117.1781615690215
 20
-763.9004519051232
 30
0.0
 10
113.0303032990096
 20
-765.3997585877041
 30
0.0
 10
113.0303032990096
 20
-765.3997585877041
 30
0.0
 10
110.8992922471289
 20
-764.9963782568138
 30
0.0
 10
110.8992922471289
 20
-764.9963782568138
 30
0.0
 10
109.438029288538
 20
-761.4193173810309
 30
0.0
 10
110.358928380454
 20
-759.4557778288035
 30
0.0
 10
110.8992922471289
 20
-755.8787169530206
 30
0.0
  0
SPLINE
  5
4D
330
41
100
AcDbEntity
  8
Layer 1
 62
   156
420
  1785491
370
    35
100
AcDbSpline
210
0.0
220
0.0
230
1.0
 70
     8
 71
     3
 72
    17
 73
    13
 74
     0
 42
0.0000000001
 43
0.0000000001
 12
1.0
 22
0.0
 32
0.0
 13
1.0
 23
0.0
 33
0.0
 40
0.0
 40
0.0
 40
0.0
 40
0.0
 40
1.0
 40
1.0
 40
1.0
 40
2.0
 40
2.0
 40
2.0
 40
3.0
 40
3.0
 40
3.0
 40
4.0
 40
4.0
 40
4.0
 40
4.0
 10
106.1882395211433
 20
-766.5946283802787
 30
0.0
 10
106.8275431996162
 20
-766.5946283802787
 30
0.0
 10
107.1167488094916
 20
-766.1836414820445
 30
0.0
 10
107.7256117022353
 20
-766.1836414820445
 30
0.0
 10
110.4350376029552
 20
-766.1836414820445
 30
0.0
 10
112.6725986630672
 20
-768.7713260143682
 30
0.0
 10
112.6725986630672
 20
-771.7395131101439
 30
0.0
 10
112.6725986630672
 20
-775.9101765658452
 30
0.0
 10
107.7256117022353
 20
-775.6057977412402
 30
0.0
 10
105.48044044569
 20
-778.9012414290555
 30
0.0
 10
103.9659024829834
 20
-781.1692178712856
 30
0.0
 10
104.0343978799647
 20
-783.6427458280341
 30
0.0
 10
101.872946042351
 20
-785.2409959514953
 30
0.0
  0
SPLINE
  5
4E
330
41
100
AcDbEntity
  8
Layer 1
 62
   156
420
  1785491
370
    35
100
AcDbSpline
210
0.0
220
0.0
230
1.0
 70
     8
 71
     3
 72
    47
 73
    43
 74
     0
 42
0.0000000001
 43
0.0000000001
 12
1.0
 22
0.0
 32
0.0
 13
1.0
 23
0.0
 33
0.0
 40
0.0
 40
0.0
 40
0.0
 40
0.0
 40
1.0
 40
1.0
 40
1.0
 40
2.0
 40
2.0
 40
2.0
 40
3.0
 40
3.0
 40
3.0
 40
4.0
 40
4.0
 40
4.0
 40
5.0
 40
5.0
 40
5.0
 40
6.0
 40
6.0
 40
6.0
 40
7.0
 40
7.0
 40
7.0
 40
8.0
 40
8.0
 40
8.0
 40
9.0
 40
9.0
 40
9.0
 40
10.0
 40
10.0
 40
10.0
 40
11.0
 40
11.0
 40
11.0
 40
12.0
 40
12.0
 40
12.0
 40
13.0
 40
13.0
 40
13.0
 40
14.0
 40
14.0
 40
14.0
 40
14.0
 10
191.8091551271682
 20
-666.520944491569
 30
0.0
 10
191.8091551271682
 20
-666.520944491569
 30
0.0
 10
189.0236200039471
 20
-666.6046167323657
 30
0.0
 10
189.0236200039471
 20
-666.6046167323657
 30
0.0
 10
189.0236200039471
 20
-666.6046167323657
 30
0.0
 10
186.8697783627686
 20
-665.0215797435922
 30
0.0
 10
186.8697783627686
 20
-665.0215797435922
 30
0.0
 10
185.332402552589
 20
-667.2515814144972
 30
0.0
 10
186.1467552653612
 20
-672.5562621240078
 30
0.0
 10
183.0872385542179
 20
-672.5562621240078
 30
0.0
 10
181.108442318251
 20
-672.5562621240078
 30
0.0
 10
180.1038238074016
 20
-670.9732251352343
 30
0.0
 10
178.1326413969527
 20
-670.9732251352343
 30
0.0
 10
178.1326413969527
 20
-670.9732251352343
 30
0.0
 10
176.0625155456191
 20
-670.9732251352343
 30
0.0
 10
176.0625155456191
 20
-670.9732251352343
 30
0.0
 10
176.0625155456191
 20
-671.7799277316135
 30
0.0
 10
175.7048109096777
 20
-672.2670383686964
 30
0.0
 10
175.7048109096777
 20
-673.0737990304733
 30
0.0
 10
175.7048109096777
 20
-674.9460017091606
 30
0.0
 10
177.1356294534507
 20
-675.8364926771319
 30
0.0
 10
177.1356294534507
 20
-677.7163599885644
 30
0.0
 10
177.1356294534507
 20
-680.4942667699161
 30
0.0
 10
173.726014673709
 20
-679.7636298469897
 30
0.0
 10
172.8279461710918
 20
-683.2645669839221
 30
0.0
 10
172.622459980149
 20
-684.0256301762274
 30
0.0
 10
173.6118508399568
 20
-684.1702710865829
 30
0.0
 10
174.2739851077295
 20
-684.4518302091528
 30
0.0
 10
178.650171045243
 20
-686.5371909697024
 30
0.0
 10
169.5781564036961
 20
-692.7932151859459
 30
0.0
 10
164.7986046516426
 20
-692.7932151859459
 30
0.0
 10
164.7986046516426
 20
-692.7932151859459
 30
0.0
 10
163.1166314801594
 20
-692.7932151859459
 30
0.0
 10
163.1166314801594
 20
-692.7932151859459
 30
0.0
 10
163.1166314801594
 20
-690.3121387272531
 30
0.0
 10
161.7466945078459
 20
-687.640723888735
 30
0.0
 10
159.4939166839549
 20
-687.640723888735
 30
0.0
 10
156.9062611843328
 20
-687.640723888735
 30
0.0
 10
154.1055056682462
 20
-689.3227043183942
 30
0.0
 10
154.1055056682462
 20
-692.1996126060294
 30
0.0
 10
154.1055056682462
 20
-696.0658391717261
 30
0.0
 10
161.3128879075766
 20
-693.6913127212665
 30
0.0
 10
161.6477583251353
 20
-697.5575392869578
 30
0.0
  0
SPLINE
  5
4F
330
41
100
AcDbEntity
  8
Layer 1
 62
   156
420
  1785491
370
    35
100
AcDbSpline
210
0.0
220
0.0
230
1.0
 70
     8
 71
     3
 72
     8
 73
     4
 74
     0
 42
0.0000000001
 43
0.0000000001
 12
1.0
 22
0.0
 32
0.0
 13
1.0
 23
0.0
 33
0.0
 40
0.0
 40
0.0
 40
0.0
 40
0.0
 40
1.0
 40
1.0
 40
1.0
 40
1.0
 10
130.7861762731682
 20
-760.5364910458029
 30
0.0
 10
128.9672086786341
 20
-760.1407172822601
 30
0.0
 10
126.1892873809347
 20
-760.6963450908497
 30
0.0
 10
124.971565224535
 20
-758.9154212203048
 30
0.0
  0
SPLINE
  5
50
330
41
100
AcDbEntity
  8
Layer 1
 62
   156
420
  1785491
370
    35
100
AcDbSpline
210
0.0
220
0.0
230
1.0
 70
     8
 71
     3
 72
     8
 73
     4
 74
     0
 42
0.0000000001
 43
0.0000000001
 12
1.0
 22
0.0
 32
0.0
 13
1.0
 23
0.0
 33
0.0
 40
0.0
 40
0.0
 40
0.0
 40
0.0
 40
1.0
 40
1.0
 40
1.0
 40
1.0
 10
85.40328789975774
 20
-365.0744225672843
 30
0.0
 10
85.40328789975774
 20
-365.0744225672843
 30
0.0
 10
102.1469330739064
 20
-718.5936464433289
 30
0.0
 10
117.2694911843892
 20
-744.7822448969109
 30
0.0
  0
SPLINE
  5
51
330
41
100
AcDbEntity
  8
Layer 1
 62
   156
420
  1785491
370
    35
100
AcDbSpline
210
0.0
220
0.0
230
1.0
 70
     8
 71
     3
 72
     8
 73
     4
 74
     0
 42
0.0000000001
 43
0.0000000001
 12
1.0
 22
0.0
 32
0.0
 13
1.0
 23
0.0
 33
0.0
 40
0.0
 40
0.0
 40
0.0
 40
0.0
 40
1.0
 40
1.0
 40
1.0
 40
1.0
 10
80.26603241903285
 20
-367.7533859077485
 30
0.0
 10
80.26603241903285
 20
-367.7533859077485
 30
0.0
 10
80.15948241080241
 20
-708.7681679186462
 30
0.0
 10
110.3893727952718
 20
-767.0817390173634
 30
0.0
  0
SPLINE
  5
52
330
41
100
AcDbEntity
  8
Layer 1
 62
   156
420
  1785491
370
    35
100
AcDbSpline
210
0.0
220
0.0
230
1.0
 70
     8
 71
     3
 72
     8
 73
     4
 74
     0
 42
0.0000000001
 43
0.0000000001
 12
1.0
 22
0.0
 32
0.0
 13
1.0
 23
0.0
 33
0.0
 40
0.0
 40
0.0
 40
0.0
 40
0.0
 40
1.0
 40
1.0
 40
1.0
 40
1.0
 10
110.3132672018592
 20
-356.1089506757944
 30
0.0
 10
110.3132672018592
 20
-356.1089506757944
 30
0.0
 10
160.7573036480371
 20
-628.1246764300977
 30
0.0
 10
186.1467552653612
 20
-668.0050380394587
 30
0.0
  0
SPLINE
  5
53
330
41
100
AcDbEntity
  8
Layer 1
 62
   156
420
  1785491
370
    35
100
AcDbSpline
210
0.0
220
0.0
230
1.0
 70
     8
 71
     3
 72
     8
 73
     4
 74
     0
 42
0.0000000001
 43
0.0000000001
 12
1.0
 22
0.0
 32
0.0
 13
1.0
 23
0.0
 33
0.0
 40
0.0
 40
0.0
 40
0.0
 40
0.0
 40
1.0
 40
1.0
 40
1.0
 40
1.0
 10
103.0830543732309
 20
-358.1714627016072
 30
0.0
 10
103.0830543732309
 20
-358.1714627016072
 30
0.0
 10
153.45859179334
 20
-662.4871992480821
 30
0.0
 10
172.3789119197809
 20
-689.2618517796345
 30
0.0
  0
SPLINE
  5
54
330
41
100
AcDbEntity
  8
Layer 1
 62
   156
420
  1785491
370
    35
100
AcDbSpline
210
0.0
220
0.0
230
1.0
 70
     8
 71
     3
 72
     8
 73
     4
 74
     0
 42
0.0000000001
 43
0.0000000001
 12
1.0
 22
0.0
 32
0.0
 13
1.0
 23
0.0
 33
0.0
 40
0.0
 40
0.0
 40
0.0
 40
0.0
 40
1.0
 40
1.0
 40
1.0
 40
1.0
 10
97.77836277645474
 20
-360.0817562824213
 30
0.0
 10
97.77836277645474
 20
-360.0817562824213
 30
0.0
 10
141.4488308417476
 20
-675.4407189135891
 30
0.0
 10
153.8619648660542
 20
-692.6942717450602
 30
0.0
  0
SPLINE
  5
55
330
41
100
AcDbEntity
  8
Layer 1
 62
   156
420
  1785491
370
    35
100
AcDbSpline
210
0.0
220
0.0
230
1.0
 70
     8
 71
     3
 72
     8
 73
     4
 74
     0
 42
0.0000000001
 43
0.0000000001
 12
1.0
 22
0.0
 32
0.0
 13
1.0
 23
0.0
 33
0.0
 40
0.0
 40
0.0
 40
0.0
 40
0.0
 40
1.0
 40
1.0
 40
1.0
 40
1.0
 10
92.88465263428225
 20
-361.6723998385396
 30
0.0
 10
92.88465263428225
 20
-361.6723998385396
 30
0.0
 10
127.5440003312933
 20
-703.5624306500176
 30
0.0
 10
140.4974873350138
 20
-718.4414570310291
 30
0.0
  0
SPLINE
  5
56
330
41
100
AcDbEntity
  8
Layer 1
 62
   156
420
  1785491
370
    35
100
AcDbSpline
210
0.0
220
0.0
230
1.0
 70
     8
 71
     3
 72
     8
 73
     4
 74
     0
 42
0.0000000001
 43
0.0000000001
 12
1.0
 22
0.0
 32
0.0
 13
1.0
 23
0.0
 33
0.0
 40
0.0
 40
0.0
 40
0.0
 40
0.0
 40
1.0
 40
1.0
 40
1.0
 40
1.0
 10
87.40491381775064
 20
-364.0545618890465
 30
0.0
 10
87.40491381775064
 20
-364.0545618890465
 30
0.0
 10
109.1868746608252
 20
-720.9530178245004
 30
0.0
 10
130.2305920136278
 20
-745.9695081221416
 30
0.0
  0
SPLINE
  5
57
330
41
100
AcDbEntity
  8
Layer 1
 62
   156
420
  1785491
370
    35
100
AcDbSpline
210
0.0
220
0.0
230
1.0
 70
     8
 71
     3
 72
     8
 73
     4
 74
     0
 42
0.0000000001
 43
0.0000000001
 12
1.0
 22
0.0
 32
0.0
 13
1.0
 23
0.0
 33
0.0
 40
0.0
 40
0.0
 40
0.0
 40
0.0
 40
1.0
 40
1.0
 40
1.0
 40
1.0
 10
77.75448614191009
 20
-369.7550163621036
 30
0.0
 10
77.75448614191009
 20
-369.7550163621036
 30
0.0
 10
71.77243806995557
 20
-731.219909516798
 30
0.0
 10
105.7924802739499
 20
-778.2543348123254
 30
0.0
  0
SPLINE
  5
58
330
41
100
AcDbEntity
  8
Layer 1
 62
   156
420
  1785491
370
    35
100
AcDbSpline
210
0.0
220
0.0
230
1.0
 70
     8
 71
     3
 72
    23
 73
    19
 74
     0
 42
0.0000000001
 43
0.0000000001
 12
1.0
 22
0.0
 32
0.0
 13
1.0
 23
0.0
 33
0.0
 40
0.0
 40
0.0
 40
0.0
 40
0.0
 40
1.0
 40
1.0
 40
1.0
 40
2.0
 40
2.0
 40
2.0
 40
3.0
 40
3.0
 40
3.0
 40
4.0
 40
4.0
 40
4.0
 40
5.0
 40
5.0
 40
5.0
 40
6.0
 40
6.0
 40
6.0
 40
6.0
 10
81.90234350465107
 20
-70.49279863925312
 30
0.0
 10
81.90234350465107
 20
-70.49279863925312
 30
0.0
 10
84.04857494939733
 20
-99.06358817604087
 30
0.0
 10
84.04857494939733
 20
-99.06358817604087
 30
0.0
 10
84.04857494939733
 20
-99.06358817604087
 30
0.0
 10
84.04857494939733
 20
-121.2336545208263
 30
0.0
 10
84.04857494939733
 20
-121.2336545208263
 30
0.0
 10
84.04857494939733
 20
-127.7789024923868
 30
0.0
 10
85.95126196286401
 20
-131.6451871234785
 30
0.0
 10
85.95126196286401
 20
-138.1904350950399
 30
0.0
 10
85.95126196286401
 20
-138.1904350950399
 30
0.0
 10
85.95126196286401
 20
-188.4746646743097
 30
0.0
 10
85.95126196286401
 20
-188.4746646743097
 30
0.0
 10
85.95126196286401
 20
-196.8007784510146
 30
0.0
 10
88.91945359500096
 20
-201.2759368621146
 30
0.0
 10
88.91945359500096
 20
-209.6020506388204
 30
0.0
 10
88.91945359500096
 20
-209.6020506388204
 30
0.0
 10
88.91945359500096
 20
-221.6498662016647
 30
0.0
 10
88.91945359500096
 20
-221.6498662016647
 30
0.0
  0
SPLINE
  5
59
330
41
100
AcDbEntity
  8
Layer 1
 62
   156
420
  1785491
370
    35
100
AcDbSpline
210
0.0
220
0.0
230
1.0
 70
     8
 71
     3
 72
    23
 73
    19
 74
     0
 42
0.0000000001
 43
0.0000000001
 12
1.0
 22
0.0
 32
0.0
 13
1.0
 23
0.0
 33
0.0
 40
0.0
 40
0.0
 40
0.0
 40
0.0
 40
1.0
 40
1.0
 40
1.0
 40
2.0
 40
2.0
 40
2.0
 40
3.0
 40
3.0
 40
3.0
 40
4.0
 40
4.0
 40
4.0
 40
5.0
 40
5.0
 40
5.0
 40
6.0
 40
6.0
 40
6.0
 40
6.0
 10
79.74089166703925
 20
-70.49279863925312
 30
0.0
 10
79.74089166703925
 20
-70.49279863925312
 30
0.0
 10
81.90234350465107
 20
-99.06358817604087
 30
0.0
 10
81.90234350465107
 20
-99.06358817604087
 30
0.0
 10
81.90234350465107
 20
-99.06358817604087
 30
0.0
 10
81.90234350465107
 20
-121.2336545208263
 30
0.0
 10
81.90234350465107
 20
-121.2336545208263
 30
0.0
 10
81.90234350465107
 20
-127.7789024923868
 30
0.0
 10
83.7898092179812
 20
-131.6451871234785
 30
0.0
 10
83.7898092179812
 20
-138.1904350950399
 30
0.0
 10
83.7898092179812
 20
-138.1904350950399
 30
0.0
 10
83.7898092179812
 20
-188.4746646743097
 30
0.0
 10
83.7898092179812
 20
-188.4746646743097
 30
0.0
 10
83.7898092179812
 20
-196.8007784510146
 30
0.0
 10
86.75800085011633
 20
-201.2759368621146
 30
0.0
 10
86.75800085011633
 20
-209.6020506388204
 30
0.0
 10
86.75800085011633
 20
-209.6020506388204
 30
0.0
 10
86.75800085011633
 20
-221.6498662016647
 30
0.0
 10
86.75800085011633
 20
-221.6498662016647
 30
0.0
  0
SPLINE
  5
5A
330
41
100
AcDbEntity
  8
Layer 1
 62
   156
420
  1785491
370
    35
100
AcDbSpline
210
0.0
220
0.0
230
1.0
 70
     8
 71
     3
 72
     8
 73
     4
 74
     0
 42
0.0000000001
 43
0.0000000001
 12
1.0
 22
0.0
 32
0.0
 13
1.0
 23
0.0
 33
0.0
 40
0.0
 40
0.0
 40
0.0
 40
0.0
 40
1.0
 40
1.0
 40
1.0
 40
1.0
 10
414.7096819919625
 20
-695.4143889374773
 30
0.0
 10
414.7096819919625
 20
-695.4143889374773
 30
0.0
 10
424.9613605495724
 20
-734.6173523371526
 30
0.0
 10
428.1426766945096
 20
-740.2493041550533
 30
0.0
  0
SPLINE
  5
5B
330
41
100
AcDbEntity
  8
Layer 1
 62
   156
420
  1785491
370
    35
100
AcDbSpline
210
0.0
220
0.0
230
1.0
 70
     8
 71
     3
 72
     8
 73
     4
 74
     0
 42
0.0000000001
 43
0.0000000001
 12
1.0
 22
0.0
 32
0.0
 13
1.0
 23
0.0
 33
0.0
 40
0.0
 40
0.0
 40
0.0
 40
0.0
 40
1.0
 40
1.0
 40
1.0
 40
1.0
 10
403.9481021279371
 20
-680.6419270810493
 30
0.0
 10
403.9481021279371
 20
-680.6419270810493
 30
0.0
 10
421.4984852820635
 20
-746.8554336980724
 30
0.0
 10
424.1470223531487
 20
-753.0353595790821
 30
0.0
  0
SPLINE
  5
5C
330
41
100
AcDbEntity
  8
Layer 1
 62
   156
420
  1785491
370
    35
100
AcDbSpline
210
0.0
220
0.0
230
1.0
 70
     8
 71
     3
 72
     8
 73
     4
 74
     0
 42
0.0000000001
 43
0.0000000001
 12
1.0
 22
0.0
 32
0.0
 13
1.0
 23
0.0
 33
0.0
 40
0.0
 40
0.0
 40
0.0
 40
0.0
 40
1.0
 40
1.0
 40
1.0
 40
1.0
 10
341.3040425611762
 20
-685.002885367523
 30
0.0
 10
341.3040425611762
 20
-685.002885367523
 30
0.0
 10
333.9824892299184
 20
-752.6167697425917
 30
0.0
 10
328.1374228792065
 20
-758.2487215604906
 30
0.0
  0
SPLINE
  5
5D
330
41
100
AcDbEntity
  8
Layer 1
 62
   156
420
  1785491
370
    35
100
AcDbSpline
210
0.0
220
0.0
230
1.0
 70
     8
 71
     3
 72
     8
 73
     4
 74
     0
 42
0.0000000001
 43
0.0000000001
 12
1.0
 22
0.0
 32
0.0
 13
1.0
 23
0.0
 33
0.0
 40
0.0
 40
0.0
 40
0.0
 40
0.0
 40
1.0
 40
1.0
 40
1.0
 40
1.0
 10
331.196946848524
 20
-685.002885367523
 30
0.0
 10
331.196946848524
 20
-685.002885367523
 30
0.0
 10
325.2072976528543
 20
-732.3797912770406
 30
0.0
 10
315.625374446714
 20
-745.3104513205508
 30
0.0
  0
SPLINE
  5
5E
330
41
100
AcDbEntity
  8
Layer 1
 62
   156
420
  1785491
370
    35
100
AcDbSpline
210
0.0
220
0.0
230
1.0
 70
     8
 71
     3
 72
     8
 73
     4
 74
     0
 42
0.0000000001
 43
0.0000000001
 12
1.0
 22
0.0
 32
0.0
 13
1.0
 23
0.0
 33
0.0
 40
0.0
 40
0.0
 40
0.0
 40
0.0
 40
1.0
 40
1.0
 40
1.0
 40
1.0
 10
391.7100062506652
 20
-671.6460216620017
 30
0.0
 10
391.7100062506652
 20
-671.6460216620017
 30
0.0
 10
404.6026153120129
 20
-743.2022744870537
 30
0.0
 10
409.9377513236068
 20
-754.9989354221852
 30
0.0
  0
SPLINE
  5
5F
330
41
100
AcDbEntity
  8
Layer 1
 62
   156
420
  1785491
370
    35
100
AcDbSpline
210
0.0
220
0.0
230
1.0
 70
     8
 71
     3
 72
     8
 73
     4
 74
     0
 42
0.0000000001
 43
0.0000000001
 12
1.0
 22
0.0
 32
0.0
 13
1.0
 23
0.0
 33
0.0
 40
0.0
 40
0.0
 40
0.0
 40
0.0
 40
1.0
 40
1.0
 40
1.0
 40
1.0
 10
362.7130747463543
 20
-675.4437818634178
 30
0.0
 10
362.7130747463543
 20
-675.4437818634178
 30
0.0
 10
364.1971682942421
 20
-757.6779169080855
 30
0.0
 10
362.5836760033872
 20
-767.8002112390786
 30
0.0
  0
SPLINE
  5
60
330
41
100
AcDbEntity
  8
Layer 1
 62
   156
420
  1785491
370
    35
100
AcDbSpline
210
0.0
220
0.0
230
1.0
 70
     8
 71
     3
 72
     8
 73
     4
 74
     0
 42
0.0000000001
 43
0.0000000001
 12
1.0
 22
0.0
 32
0.0
 13
1.0
 23
0.0
 33
0.0
 40
0.0
 40
0.0
 40
0.0
 40
0.0
 40
1.0
 40
1.0
 40
1.0
 40
1.0
 10
371.3664741477969
 20
-671.5014170425238
 30
0.0
 10
371.3664741477969
 20
-671.5014170425238
 30
0.0
 10
378.4140458911297
 20
-749.9530086495524
 30
0.0
 10
376.8081601676204
 20
-760.6308854255403
 30
0.0
  0
SPLINE
  5
61
330
41
100
AcDbEntity
  8
Layer 1
 62
   156
420
  1785491
370
    35
100
AcDbSpline
210
0.0
220
0.0
230
1.0
 70
     8
 71
     3
 72
     8
 73
     4
 74
     0
 42
0.0000000001
 43
0.0000000001
 12
1.0
 22
0.0
 32
0.0
 13
1.0
 23
0.0
 33
0.0
 40
0.0
 40
0.0
 40
0.0
 40
0.0
 40
1.0
 40
1.0
 40
1.0
 40
1.0
 10
385.4539820344198
 20
-678.1075465855429
 30
0.0
 10
385.4539820344198
 20
-678.1075465855429
 30
0.0
 10
393.5746604274063
 20
-762.1758678030656
 30
0.0
 10
397.3039107154909
 20
-768.9266019655661
 30
0.0
  0
SPLINE
  5
62
330
41
100
AcDbEntity
  8
Layer 1
 62
   156
420
  1785491
370
    35
100
AcDbSpline
210
0.0
220
0.0
230
1.0
 70
     8
 71
     3
 72
     8
 73
     4
 74
     0
 42
0.0000000001
 43
0.0000000001
 12
1.0
 22
0.0
 32
0.0
 13
1.0
 23
0.0
 33
0.0
 40
0.0
 40
0.0
 40
0.0
 40
0.0
 40
1.0
 40
1.0
 40
1.0
 40
1.0
 10
377.089777355588
 20
-668.1298568740331
 30
0.0
 10
377.089777355588
 20
-668.1298568740331
 30
0.0
 10
384.8070754176879
 20
-760.9124844680719
 30
0.0
 10
387.4480059214275
 20
-766.5292158931079
 30
0.0
  0
SPLINE
  5
63
330
41
100
AcDbEntity
  8
Layer 1
 62
   156
420
  1785491
370
    35
100
AcDbSpline
210
0.0
220
0.0
230
1.0
 70
     8
 71
     3
 72
     8
 73
     4
 74
     0
 42
0.0000000001
 43
0.0000000001
 12
1.0
 22
0.0
 32
0.0
 13
1.0
 23
0.0
 33
0.0
 40
0.0
 40
0.0
 40
0.0
 40
0.0
 40
1.0
 40
1.0
 40
1.0
 40
1.0
 10
349.2877156438517
 20
-678.6783512379461
 30
0.0
 10
349.2877156438517
 20
-678.6783512379461
 30
0.0
 10
344.0819493425242
 20
-755.4327456515402
 30
0.0
 10
340.3755187564766
 20
-766.681430709019
 30
0.0
  0
SPLINE
  5
64
330
41
100
AcDbEntity
  8
Layer 1
 62
   156
420
  1785491
370
    35
100
AcDbSpline
210
0.0
220
0.0
230
1.0
 70
     8
 71
     3
 72
     8
 73
     4
 74
     0
 42
0.0000000001
 43
0.0000000001
 12
1.0
 22
0.0
 32
0.0
 13
1.0
 23
0.0
 33
0.0
 40
0.0
 40
0.0
 40
0.0
 40
0.0
 40
1.0
 40
1.0
 40
1.0
 40
1.0
 10
356.997378105907
 20
-679.1045585290449
 30
0.0
 10
356.997378105907
 20
-679.1045585290449
 30
0.0
 10
354.7522213657103
 20
-758.9413002430792
 30
0.0
 10
352.0884711599374
 20
-763.4468631490345
 30
0.0
  0
SPLINE
  5
65
330
41
100
AcDbEntity
  8
Layer 1
 62
   156
420
  1785491
370
    35
100
AcDbSpline
210
0.0
220
0.0
230
1.0
 70
     8
 71
     3
 72
     8
 73
     4
 74
     0
 42
0.0000000001
 43
0.0000000001
 12
1.0
 22
0.0
 32
0.0
 13
1.0
 23
0.0
 33
0.0
 40
0.0
 40
0.0
 40
0.0
 40
0.0
 40
1.0
 40
1.0
 40
1.0
 40
1.0
 10
337.7117685507019
 20
-685.7030742465449
 30
0.0
 10
337.7117685507019
 20
-685.7030742465449
 30
0.0
 10
328.540803210095
 20
-739.6861096990815
 30
0.0
 10
320.549523560072
 20
-750.9347929420164
 30
0.0
  0
SPLINE
  5
66
330
41
100
AcDbEntity
  8
Layer 1
 62
   156
420
  1785491
370
    35
100
AcDbSpline
210
0.0
220
0.0
230
1.0
 70
     8
 71
     3
 72
    29
 73
    25
 74
     0
 42
0.0000000001
 43
0.0000000001
 12
1.0
 22
0.0
 32
0.0
 13
1.0
 23
0.0
 33
0.0
 40
0.0
 40
0.0
 40
0.0
 40
0.0
 40
1.0
 40
1.0
 40
1.0
 40
2.0
 40
2.0
 40
2.0
 40
3.0
 40
3.0
 40
3.0
 40
4.0
 40
4.0
 40
4.0
 40
5.0
 40
5.0
 40
5.0
 40
6.0
 40
6.0
 40
6.0
 40
7.0
 40
7.0
 40
7.0
 40
8.0
 40
8.0
 40
8.0
 40
8.0
 10
360.0645086425702
 20
-36.55955332036956
 30
0.0
 10
360.0645086425702
 20
-49.75659927171819
 30
0.0
 10
359.9275323649581
 20
-57.22276448063167
 30
0.0
 10
359.9275323649581
 20
-70.43502356666977
 30
0.0
 10
359.9275323649581
 20
-73.8065909933357
 30
0.0
 10
361.2670140351911
 20
-75.7853436802543
 30
0.0
 10
361.2670140351911
 20
-79.14930453957459
 30
0.0
 10
361.2670140351911
 20
-79.14930453957459
 30
0.0
 10
361.2670140351911
 20
-128.915997212378
 30
0.0
 10
361.2670140351911
 20
-128.915997212378
 30
0.0
 10
361.2670140351911
 20
-132.843134382234
 30
0.0
 10
360.460282406113
 20
-134.9589214121634
 30
0.0
 10
360.0645086425702
 20
-138.9013297821093
 30
0.0
 10
360.0645086425702
 20
-138.9013297821093
 30
0.0
 10
361.6551812313901
 20
-149.0083674293601
 30
0.0
 10
361.6551812313901
 20
-149.0083674293601
 30
0.0
 10
361.6551812313901
 20
-149.0083674293601
 30
0.0
 10
361.6551812313901
 20
-177.1224725984448
 30
0.0
 10
361.6551812313901
 20
-177.1224725984448
 30
0.0
 10
361.6551812313901
 20
-177.1224725984448
 30
0.0
 10
364.3037183024735
 20
-214.2324759283993
 30
0.0
 10
364.3037183024735
 20
-214.2324759283993
 30
0.0
 10
364.5929130250843
 20
-220.4276476058849
 30
0.0
 10
364.7146761680069
 20
-223.8068215998974
 30
0.0
 10
364.3037183024735
 20
-229.9867220772931
 30
0.0
  0
SPLINE
  5
67
330
41
100
AcDbEntity
  8
Layer 1
 62
   156
420
  1785491
370
    35
100
AcDbSpline
210
0.0
220
0.0
230
1.0
 70
     8
 71
     3
 72
    29
 73
    25
 74
     0
 42
0.0000000001
 43
0.0000000001
 12
1.0
 22
0.0
 32
0.0
 13
1.0
 23
0.0
 33
0.0
 40
0.0
 40
0.0
 40
0.0
 40
0.0
 40
1.0
 40
1.0
 40
1.0
 40
2.0
 40
2.0
 40
2.0
 40
3.0
 40
3.0
 40
3.0
 40
4.0
 40
4.0
 40
4.0
 40
5.0
 40
5.0
 40
5.0
 40
6.0
 40
6.0
 40
6.0
 40
7.0
 40
7.0
 40
7.0
 40
8.0
 40
8.0
 40
8.0
 40
8.0
 10
358.9914019929165
 20
-36.55955332036956
 30
0.0
 10
358.9914019929165
 20
-49.75659927171819
 30
0.0
 10
358.8620322826482
 20
-57.22276448063167
 30
0.0
 10
358.8620322826482
 20
-70.43502356666977
 30
0.0
 10
358.8620322826482
 20
-73.8065909933357
 30
0.0
 10
360.1939073855356
 20
-75.7853436802543
 30
0.0
 10
360.1939073855356
 20
-79.14930453957459
 30
0.0
 10
360.1939073855356
 20
-79.14930453957459
 30
0.0
 10
360.1939073855356
 20
-128.915997212378
 30
0.0
 10
360.1939073855356
 20
-128.915997212378
 30
0.0
 10
360.1939073855356
 20
-132.843134382234
 30
0.0
 10
359.3947823238032
 20
-134.9589214121634
 30
0.0
 10
358.9914019929165
 20
-138.9013297821093
 30
0.0
 10
358.9914019929165
 20
-138.9013297821093
 30
0.0
 10
360.597287716424
 20
-149.0083674293601
 30
0.0
 10
360.597287716424
 20
-149.0083674293601
 30
0.0
 10
360.597287716424
 20
-149.0083674293601
 30
0.0
 10
360.597287716424
 20
-177.1224725984448
 30
0.0
 10
360.597287716424
 20
-177.1224725984448
 30
0.0
 10
360.597287716424
 20
-177.1224725984448
 30
0.0
 10
363.2534313548531
 20
-214.2324759283993
 30
0.0
 10
363.2534313548531
 20
-214.2324759283993
 30
0.0
 10
363.5198063754306
 20
-220.4276476058849
 30
0.0
 10
363.6339629510057
 20
-223.8068215998974
 30
0.0
 10
363.2534313548531
 20
-229.9867220772931
 30
0.0
  0
SPLINE
  5
68
330
41
100
AcDbEntity
  8
Layer 1
 62
   156
420
  1785491
370
    35
100
AcDbSpline
210
0.0
220
0.0
230
1.0
 70
     8
 71
     3
 72
     8
 73
     4
 74
     0
 42
0.0000000001
 43
0.0000000001
 12
1.0
 22
0.0
 32
0.0
 13
1.0
 23
0.0
 33
0.0
 40
0.0
 40
0.0
 40
0.0
 40
0.0
 40
1.0
 40
1.0
 40
1.0
 40
1.0
 10
349.1507103335425
 20
-363.7988709019919
 30
0.0
 10
349.1507103335425
 20
-363.7988709019919
 30
0.0
 10
316.9648561169452
 20
-684.8506669225208
 30
0.0
 10
320.1537497965292
 20
-700.6049203295897
 30
0.0
  0
SPLINE
  5
69
330
41
100
AcDbEntity
  8
Layer 1
 62
   156
420
  1785491
370
    35
100
AcDbSpline
210
0.0
220
0.0
230
1.0
 70
     8
 71
     3
 72
     8
 73
     4
 74
     0
 42
0.0000000001
 43
0.0000000001
 12
1.0
 22
0.0
 32
0.0
 13
1.0
 23
0.0
 33
0.0
 40
0.0
 40
0.0
 40
0.0
 40
0.0
 40
1.0
 40
1.0
 40
1.0
 40
1.0
 10
358.7326335396829
 20
-360.9752956838693
 30
0.0
 10
358.7326335396829
 20
-360.9752956838693
 30
0.0
 10
351.5480855187379
 20
-665.4584855845642
 30
0.0
 10
354.1966225898213
 20
-668.2744614935145
 30
0.0
  0
SPLINE
  5
6A
330
41
100
AcDbEntity
  8
Layer 1
 62
   156
420
  1785491
370
    35
100
AcDbSpline
210
0.0
220
0.0
230
1.0
 70
     8
 71
     3
 72
     8
 73
     4
 74
     0
 42
0.0000000001
 43
0.0000000001
 12
1.0
 22
0.0
 32
0.0
 13
1.0
 23
0.0
 33
0.0
 40
0.0
 40
0.0
 40
0.0
 40
0.0
 40
1.0
 40
1.0
 40
1.0
 40
1.0
 10
365.9019684259365
 20
-360.4273325080248
 30
0.0
 10
365.9019684259365
 20
-360.4273325080248
 30
0.0
 10
387.4099440520022
 20
-668.1298568740331
 30
0.0
 10
386.5270886840735
 20
-677.1333688604245
 30
0.0
  0
SPLINE
  5
6B
330
41
100
AcDbEntity
  8
Layer 1
 62
   156
420
  1785491
370
    35
100
AcDbSpline
210
0.0
220
0.0
230
1.0
 70
     8
 71
     3
 72
     8
 73
     4
 74
     0
 42
0.0000000001
 43
0.0000000001
 12
1.0
 22
0.0
 32
0.0
 13
1.0
 23
0.0
 33
0.0
 40
0.0
 40
0.0
 40
0.0
 40
0.0
 40
1.0
 40
1.0
 40
1.0
 40
1.0
 10
374.6390981335771
 20
-364.0804880899595
 30
0.0
 10
374.6390981335771
 20
-364.0804880899595
 30
0.0
 10
418.9564982192114
 20
-676.7147826530199
 30
0.0
 10
417.1984230834005
 20
-700.8789019175128
 30
0.0
  0
SPLINE
  5
6C
330
41
100
AcDbEntity
  8
Layer 1
 62
   156
420
  1785491
370
    35
100
AcDbSpline
210
0.0
220
0.0
230
1.0
 70
     8
 71
     3
 72
     8
 73
     4
 74
     0
 42
0.0000000001
 43
0.0000000001
 12
1.0
 22
0.0
 32
0.0
 13
1.0
 23
0.0
 33
0.0
 40
0.0
 40
0.0
 40
0.0
 40
0.0
 40
1.0
 40
1.0
 40
1.0
 40
1.0
 10
385.8573333326076
 20
-368.0152318271603
 30
0.0
 10
385.8573333326076
 20
-368.0152318271603
 30
0.0
 10
371.6328491683744
 20
-352.8317975888476
 30
0.0
 10
344.2417743548722
 20
-364.9404947231506
 30
0.0
  0
SPLINE
  5
6D
330
41
100
AcDbEntity
  8
Layer 1
 62
   156
420
  1785491
370
    35
100
AcDbSpline
210
0.0
220
0.0
230
1.0
 70
     8
 71
     3
 72
    11
 73
     7
 74
     0
 42
0.0000000001
 43
0.0000000001
 12
1.0
 22
0.0
 32
0.0
 13
1.0
 23
0.0
 33
0.0
 40
0.0
 40
0.0
 40
0.0
 40
0.0
 40
1.0
 40
1.0
 40
1.0
 40
2.0
 40
2.0
 40
2.0
 40
2.0
 10
366.3129553241706
 20
-232.3689131604979
 30
0.0
 10
365.886755291247
 20
-230.9685499188054
 30
0.0
 10
365.0419617927437
 20
-229.8497457996791
 30
0.0
 10
363.649176085697
 20
-229.8497457996791
 30
0.0
 10
361.571450925192
 20
-229.8497457996791
 30
0.0
 10
360.4146139693439
 20
-231.7752525151845
 30
0.0
 10
359.9275323649581
 20
-233.9291304472363
 30
0.0
  0
POLYLINE
  5
6E
330
41
100
AcDbEntity
  8
Layer 1
 62
   156
420
  1785491
370
    35
100
AcDb2dPolyline
 66
     1
 10
0.0
 20
0.0
 30
0.0
  0
VERTEX
  5
6F
330
6E
100
AcDbEntity
  8
Layer 1
 62
   156
420
  1785491
370
    35
100
AcDbVertex
100
AcDb2dVertex
 10
366.4423250344371
 20
-232.2242722501414
 30
0.0
  0
VERTEX
  5
70
330
6E
100
AcDbEntity
  8
Layer 1
 62
   156
420
  1785491
370
    35
100
AcDbVertex
100
AcDb2dVertex
 10
389.9062626780833
 20
-396.1597922983246
 30
0.0
  0
VERTEX
  5
71
330
6E
100
AcDbEntity
  8
Layer 1
 62
   156
420
  1785491
370
    35
100
AcDbVertex
100
AcDb2dVertex
 10
420.767848359139
 20
-588.757366175083
 30
0.0
  0
VERTEX
  5
72
330
6E
100
AcDbEntity
  8
Layer 1
 62
   156
420
  1785491
370
    35
100
AcDbVertex
100
AcDb2dVertex
 10
436.5373076427186
 20
-708.748418424615
 30
0.0
  0
SEQEND
  5
73
330
6E
100
AcDbEntity
  8
Layer 1
 62
   156
420
  1785491
370
    35
  0
SPLINE
  5
74
330
41
100
AcDbEntity
  8
Layer 1
 62
   156
420
  1785491
370
    35
100
AcDbSpline
210
0.0
220
0.0
230
1.0
 70
     8
 71
     3
 72
    14
 73
    10
 74
     0
 42
0.0000000001
 43
0.0000000001
 12
1.0
 22
0.0
 32
0.0
 13
1.0
 23
0.0
 33
0.0
 40
0.0
 40
0.0
 40
0.0
 40
0.0
 40
1.0
 40
1.0
 40
1.0
 40
2.0
 40
2.0
 40
2.0
 40
3.0
 40
3.0
 40
3.0
 40
3.0
 10
360.0645086425702
 20
-233.6399066919257
 30
0.0
 10
360.0645086425702
 20
-233.6399066919257
 30
0.0
 10
347.5981286468468
 20
-341.6744439612758
 30
0.0
 10
333.3888576173031
 20
-455.7215081937338
 30
0.0
 10
327.0795293642423
 20
-506.3481784670294
 30
0.0
 10
318.7305378201017
 20
-558.146942379919
 30
0.0
 10
313.8672847945509
 20
-602.2283937143548
 30
0.0
 10
306.83495521861
 20
-666.4174356586409
 30
0.0
 10
304.8105050622198
 20
-716.0319098864438
 30
0.0
 10
306.4468170551099
 20
-719.8601108735893
 30
0.0
  0
SPLINE
  5
75
330
41
100
AcDbEntity
  8
Layer 1
 62
   156
420
  1785491
370
    35
100
AcDbSpline
210
0.0
220
0.0
230
1.0
 70
     8
 71
     3
 72
    17
 73
    13
 74
     0
 42
0.0000000001
 43
0.0000000001
 12
1.0
 22
0.0
 32
0.0
 13
1.0
 23
0.0
 33
0.0
 40
0.0
 40
0.0
 40
0.0
 40
0.0
 40
1.0
 40
1.0
 40
1.0
 40
2.0
 40
2.0
 40
2.0
 40
3.0
 40
3.0
 40
3.0
 40
4.0
 40
4.0
 40
4.0
 40
4.0
 10
348.1765471247709
 20
-675.3981206848221
 30
0.0
 10
350.2086038485049
 20
-671.4481420384072
 30
0.0
 10
352.4309408866666
 20
-668.2820680608584
 30
0.0
 10
356.6777280812148
 20
-668.2820680608584
 30
0.0
 10
359.1588335726065
 20
-668.2820680608584
 30
0.0
 10
360.597287716424
 20
-669.7737754342652
 30
0.0
 10
363.0783641751168
 20
-669.7737754342652
 30
0.0
 10
364.5853064577404
 20
-669.7737754342652
 30
0.0
 10
365.3007302459773
 20
-668.6473865223215
 30
0.0
 10
366.7848237938651
 20
-668.6473865223215
 30
0.0
 10
369.189805546408
 20
-668.6473865223215
 30
0.0
 10
370.5140740819497
 20
-669.9640484905176
 30
0.0
 10
372.6603164139578
 20
-670.9077781717315
 30
0.0
  0
SPLINE
  5
76
330
41
100
AcDbEntity
  8
Layer 1
 62
   156
420
  1785491
370
    35
100
AcDbSpline
210
0.0
220
0.0
230
1.0
 70
     8
 71
     3
 72
    11
 73
     7
 74
     0
 42
0.0000000001
 43
0.0000000001
 12
1.0
 22
0.0
 32
0.0
 13
1.0
 23
0.0
 33
0.0
 40
0.0
 40
0.0
 40
0.0
 40
0.0
 40
1.0
 40
1.0
 40
1.0
 40
2.0
 40
2.0
 40
2.0
 40
2.0
 10
330.0933848967888
 20
-683.2676371919242
 30
0.0
 10
332.2091719267173
 20
-677.5595761515197
 30
0.0
 10
336.2885565742745
 20
-673.8911929185488
 30
0.0
 10
342.1488070269788
 20
-673.8911929185488
 30
0.0
 10
345.5888916251497
 20
-673.8911929185488
 30
0.0
 10
347.6437680509171
 20
-675.2078548867448
 30
0.0
 10
350.6500170161198
 20
-676.9050484510972
 30
0.0
  0
SPLINE
  5
77
330
41
100
AcDbEntity
  8
Layer 1
 62
   156
420
  1785491
370
    35
100
AcDbSpline
210
0.0
220
0.0
230
1.0
 70
     8
 71
     3
 72
    11
 73
     7
 74
     0
 42
0.0000000001
 43
0.0000000001
 12
1.0
 22
0.0
 32
0.0
 13
1.0
 23
0.0
 33
0.0
 40
0.0
 40
0.0
 40
0.0
 40
0.0
 40
1.0
 40
1.0
 40
1.0
 40
2.0
 40
2.0
 40
2.0
 40
2.0
 10
309.5063265080789
 20
-710.1564100081778
 30
0.0
 10
307.9993987418038
 20
-712.690783245509
 30
0.0
 10
306.6675236389165
 20
-715.3164933563821
 30
0.0
 10
306.6675236389165
 20
-718.3227423215831
 30
0.0
 10
306.6675236389165
 20
-720.7505728088618
 30
0.0
 10
307.0480552350709
 20
-722.4401598058666
 30
0.0
 10
308.1135698337293
 20
-724.5102783990278
 30
0.0
  0
SPLINE
  5
78
330
41
100
AcDbEntity
  8
Layer 1
 62
   156
420
  1785491
370
    35
100
AcDbSpline
210
0.0
220
0.0
230
1.0
 70
     8
 71
     3
 72
    11
 73
     7
 74
     0
 42
0.0000000001
 43
0.0000000001
 12
1.0
 22
0.0
 32
0.0
 13
1.0
 23
0.0
 33
0.0
 40
0.0
 40
0.0
 40
0.0
 40
0.0
 40
1.0
 40
1.0
 40
1.0
 40
2.0
 40
2.0
 40
2.0
 40
2.0
 10
330.8012021176801
 20
-759.7480391303325
 30
0.0
 10
330.7022586767944
 20
-760.6841622441989
 30
0.0
 10
330.5424336644483
 20
-761.1560270848076
 30
0.0
 10
330.5424336644483
 20
-762.0845381876989
 30
0.0
 10
330.5424336644483
 20
-763.7665131737285
 30
0.0
 10
331.8590956326461
 20
-764.7939659029635
 30
0.0
 10
333.2899141764174
 20
-765.349550162502
 30
0.0
  0
SPLINE
  5
79
330
41
100
AcDbEntity
  8
Layer 1
 62
   156
420
  1785491
370
    35
100
AcDbSpline
210
0.0
220
0.0
230
1.0
 70
     8
 71
     3
 72
     8
 73
     4
 74
     0
 42
0.0000000001
 43
0.0000000001
 12
1.0
 22
0.0
 32
0.0
 13
1.0
 23
0.0
 33
0.0
 40
0.0
 40
0.0
 40
0.0
 40
0.0
 40
1.0
 40
1.0
 40
1.0
 40
1.0
 10
380.0883907207462
 20
-774.733601910495
 30
0.0
 10
378.4977471646271
 20
-775.2967972737406
 30
0.0
 10
377.5235839558572
 20
-775.4946768973368
 30
0.0
 10
375.8492100935437
 20
-775.4946768973368
 30
0.0
  0
SPLINE
  5
7A
330
41
100
AcDbEntity
  8
Layer 1
 62
   156
420
  1785491
370
    35
100
AcDbSpline
210
0.0
220
0.0
230
1.0
 70
     8
 71
     3
 72
    14
 73
    10
 74
     0
 42
0.0000000001
 43
0.0000000001
 12
1.0
 22
0.0
 32
0.0
 13
1.0
 23
0.0
 33
0.0
 40
0.0
 40
0.0
 40
0.0
 40
0.0
 40
1.0
 40
1.0
 40
1.0
 40
2.0
 40
2.0
 40
2.0
 40
3.0
 40
3.0
 40
3.0
 40
3.0
 10
416.9853230669378
 20
-755.6154048822718
 30
0.0
 10
414.138899114083
 20
-756.7417937942191
 30
0.0
 10
415.3794373434284
 20
-760.4938928170341
 30
0.0
 10
414.4965819755016
 20
-763.4849159457408
 30
0.0
 10
412.8069949784967
 20
-768.827662153768
 30
0.0
 10
408.4688709104084
 20
-771.3544306382992
 30
0.0
 10
403.1489770662047
 20
-771.3544306382992
 30
0.0
 10
402.266121698276
 20
-771.3544306382992
 30
0.0
 10
401.809466363271
 20
-770.9738935985151
 30
0.0
 10
401.0255834689306
 20
-770.6085769515939
 30
0.0
  0
SPLINE
  5
7B
330
41
100
AcDbEntity
  8
Layer 1
 62
   156
420
  1785491
370
    35
100
AcDbSpline
210
0.0
220
0.0
230
1.0
 70
     8
 71
     3
 72
    20
 73
    16
 74
     0
 42
0.0000000001
 43
0.0000000001
 12
1.0
 22
0.0
 32
0.0
 13
1.0
 23
0.0
 33
0.0
 40
0.0
 40
0.0
 40
0.0
 40
0.0
 40
1.0
 40
1.0
 40
1.0
 40
2.0
 40
2.0
 40
2.0
 40
3.0
 40
3.0
 40
3.0
 40
4.0
 40
4.0
 40
4.0
 40
5.0
 40
5.0
 40
5.0
 40
5.0
 10
435.7762444504133
 20
-708.3830999631518
 30
0.0
 10
437.2831867330369
 20
-709.2278934616515
 30
0.0
 10
438.2649565091524
 20
-710.0803007856757
 30
0.0
 10
438.9727737300436
 20
-711.7622739571616
 30
0.0
 10
438.1584065009192
 20
-712.317858216702
 30
0.0
 10
437.55716832096
 20
-712.7973332537404
 30
0.0
 10
437.55716832096
 20
-713.8171794156297
 30
0.0
 10
437.55716832096
 20
-718.5054015523165
 30
0.0
 10
441.4462436213907
 20
-720.3776405218796
 30
0.0
 10
441.4462436213907
 20
-725.0658626585646
 30
0.0
 10
441.4462436213907
 20
-728.5363626388535
 30
0.0
 10
436.3013879242226
 20
-727.0294348725802
 30
0.0
 10
434.0029561799129
 20
-729.3659357444922
 30
0.0
 10
431.3467835087831
 20
-732.0829718416444
 30
0.0
 10
432.2220323093661
 20
-736.1166699069945
 30
0.0
 10
429.0255030297394
 20
-737.9965227020748
 30
0.0
  0
SPLINE
  5
7C
330
41
100
AcDbEntity
  8
Layer 1
 62
   156
420
  1785491
370
    35
100
AcDbSpline
210
0.0
220
0.0
230
1.0
 70
     8
 71
     3
 72
    17
 73
    13
 74
     0
 42
0.0000000001
 43
0.0000000001
 12
1.0
 22
0.0
 32
0.0
 13
1.0
 23
0.0
 33
0.0
 40
0.0
 40
0.0
 40
0.0
 40
0.0
 40
1.0
 40
1.0
 40
1.0
 40
2.0
 40
2.0
 40
2.0
 40
3.0
 40
3.0
 40
3.0
 40
4.0
 40
4.0
 40
4.0
 40
4.0
 10
432.2372454440574
 20
-721.5040366920002
 30
0.0
 10
432.4046770237474
 20
-721.9758979035178
 30
0.0
 10
433.2038020854798
 20
-722.0672275188845
 30
0.0
 10
433.2038020854798
 20
-722.6152052110792
 30
0.0
 10
433.2038020854798
 20
-726.4738506130398
 30
0.0
 10
427.6175332207004
 20
-726.846779270938
 30
0.0
 10
427.6175332207004
 20
-730.6902042800339
 30
0.0
 10
427.6175332207004
 20
-732.9277653401477
 30
0.0
 10
430.4411084388194
 20
-733.315914390907
 30
0.0
 10
430.4411084388194
 20
-735.5534718219333
 30
0.0
 10
430.4411084388194
 20
-738.1867921292396
 30
0.0
 10
428.850464882702
 20
-739.3969004601186
 30
0.0
 10
427.2522147592354
 20
-741.3680864996531
 30
0.0
  0
SPLINE
  5
7D
330
41
100
AcDbEntity
  8
Layer 1
 62
   156
420
  1785491
370
    35
100
AcDbSpline
210
0.0
220
0.0
230
1.0
 70
     8
 71
     3
 72
    23
 73
    19
 74
     0
 42
0.0000000001
 43
0.0000000001
 12
1.0
 22
0.0
 32
0.0
 13
1.0
 23
0.0
 33
0.0
 40
0.0
 40
0.0
 40
0.0
 40
0.0
 40
1.0
 40
1.0
 40
1.0
 40
2.0
 40
2.0
 40
2.0
 40
3.0
 40
3.0
 40
3.0
 40
4.0
 40
4.0
 40
4.0
 40
5.0
 40
5.0
 40
5.0
 40
6.0
 40
6.0
 40
6.0
 40
6.0
 10
379.7383144266732
 20
-775.8599926369825
 30
0.0
 10
381.4279014236781
 20
-777.3516991031192
 30
0.0
 10
382.9348146736011
 20
-778.0975527898245
 30
0.0
 10
385.2256688832676
 20
-778.0975527898245
 30
0.0
 10
386.7401887005362
 20
-778.0975527898245
 30
0.0
 10
387.8056887828443
 20
-777.5419676230104
 30
0.0
 10
388.9549191713504
 20
-776.6058463236877
 30
0.0
 10
388.9549191713504
 20
-776.6058463236877
 30
0.0
 10
388.9549191713504
 20
-769.4897964215379
 30
0.0
 10
388.9549191713504
 20
-769.4897964215379
 30
0.0
 10
389.769286400473
 20
-768.7287223419698
 30
0.0
 10
390.2944008415816
 20
-768.2720760796838
 30
0.0
 10
391.0783127686245
 20
-767.6175520083452
 30
0.0
 10
394.0997748685186
 20
-770.3345899200413
 30
0.0
 10
395.2413986896772
 20
-774.3606750671406
 30
0.0
 10
399.2522661657295
 20
-774.3606750671406
 30
0.0
 10
401.7257650897773
 20
-774.3606750671406
 30
0.0
 10
400.3938899868881
 20
-770.3345899200413
 30
0.0
 10
401.3604466283123
 20
-767.9828686552646
 30
0.0
  0
SPLINE
  5
7E
330
41
100
AcDbEntity
  8
Layer 1
 62
   156
420
  1785491
370
    35
100
AcDbSpline
210
0.0
220
0.0
230
1.0
 70
     8
 71
     3
 72
    17
 73
    13
 74
     0
 42
0.0000000001
 43
0.0000000001
 12
1.0
 22
0.0
 32
0.0
 13
1.0
 23
0.0
 33
0.0
 40
0.0
 40
0.0
 40
0.0
 40
0.0
 40
1.0
 40
1.0
 40
1.0
 40
2.0
 40
2.0
 40
2.0
 40
3.0
 40
3.0
 40
3.0
 40
4.0
 40
4.0
 40
4.0
 40
4.0
 10
373.7106033615783
 20
-770.9738935985151
 30
0.0
 10
373.9693718148101
 20
-768.4471232994401
 30
0.0
 10
373.5279296144963
 20
-766.9554177405753
 30
0.0
 10
373.5279296144963
 20
-764.4134270486356
 30
0.0
 10
373.5279296144963
 20
-761.7953307632815
 30
0.0
 10
376.3743535673511
 20
-760.8592094639553
 30
0.0
 10
378.8554590587446
 20
-760.8592094639553
 30
0.0
 10
381.8693145912912
 20
-760.8592094639553
 30
0.0
 10
385.0506017035314
 20
-762.7466742700126
 30
0.0
 10
385.0506017035314
 20
-765.9279668258823
 30
0.0
 10
385.0506017035314
 20
-770.0529926920535
 30
0.0
 10
381.153919835755
 20
-771.3620408347306
 30
0.0
 10
380.811421076327
 20
-775.4794555971966
 30
0.0
  0
SPLINE
  5
7F
330
41
100
AcDbEntity
  8
Layer 1
 62
   156
420
  1785491
370
    35
100
AcDbSpline
210
0.0
220
0.0
230
1.0
 70
     8
 71
     3
 72
    26
 73
    22
 74
     0
 42
0.0000000001
 43
0.0000000001
 12
1.0
 22
0.0
 32
0.0
 13
1.0
 23
0.0
 33
0.0
 40
0.0
 40
0.0
 40
0.0
 40
0.0
 40
1.0
 40
1.0
 40
1.0
 40
2.0
 40
2.0
 40
2.0
 40
3.0
 40
3.0
 40
3.0
 40
4.0
 40
4.0
 40
4.0
 40
5.0
 40
5.0
 40
5.0
 40
6.0
 40
6.0
 40
6.0
 40
7.0
 40
7.0
 40
7.0
 40
7.0
 10
310.5794476740812
 20
-723.6502645076598
 30
0.0
 10
306.3402670468786
 20
-723.6502645076598
 30
0.0
 10
301.7281468745168
 20
-725.4464015128942
 30
0.0
 10
301.7281468745168
 20
-729.9367403968972
 30
0.0
 10
301.7281468745168
 20
-731.0631329379321
 30
0.0
 10
303.0524154100585
 20
-731.352342176895
 30
0.0
 10
303.8439339044453
 20
-732.0068662482299
 30
0.0
 10
305.9749485854154
 20
-732.9429857330124
 30
0.0
 10
308.813751454576
 20
-733.1256449637422
 30
0.0
 10
308.813751454576
 20
-735.5610856474541
 30
0.0
 10
308.813751454576
 20
-737.3343884343049
 30
0.0
 10
307.7558579396118
 20
-738.2781217446063
 30
0.0
 10
307.7558579396118
 20
-740.0590347278885
 30
0.0
 10
307.7558579396118
 20
-742.8597902439742
 30
0.0
 10
309.0725199078097
 20
-745.0212420815842
 30
0.0
 10
311.644947756391
 20
-745.8736457765226
 30
0.0
 10
311.644947756391
 20
-745.8736457765226
 30
0.0
 10
314.8338559523272
 20
-744.7548670610086
 30
0.0
 10
314.8338559523272
 20
-744.7548670610086
 30
0.0
 10
315.3666059934803
 20
-745.4017809359138
 30
0.0
 10
315.7699572916699
 20
-744.9755809029921
 30
0.0
 10
316.0363323122474
 20
-745.7214309606061
 30
0.0
  0
SPLINE
  5
80
330
41
100
AcDbEntity
  8
Layer 1
 62
   156
420
  1785491
370
    35
100
AcDbSpline
210
0.0
220
0.0
230
1.0
 70
     8
 71
     3
 72
    74
 73
    70
 74
     0
 42
0.0000000001
 43
0.0000000001
 12
1.0
 22
0.0
 32
0.0
 13
1.0
 23
0.0
 33
0.0
 40
0.0
 40
0.0
 40
0.0
 40
0.0
 40
1.0
 40
1.0
 40
1.0
 40
2.0
 40
2.0
 40
2.0
 40
3.0
 40
3.0
 40
3.0
 40
4.0
 40
4.0
 40
4.0
 40
5.0
 40
5.0
 40
5.0
 40
6.0
 40
6.0
 40
6.0
 40
7.0
 40
7.0
 40
7.0
 40
8.0
 40
8.0
 40
8.0
 40
9.0
 40
9.0
 40
9.0
 40
10.0
 40
10.0
 40
10.0
 40
11.0
 40
11.0
 40
11.0
 40
12.0
 40
12.0
 40
12.0
 40
13.0
 40
13.0
 40
13.0
 40
14.0
 40
14.0
 40
14.0
 40
15.0
 40
15.0
 40
15.0
 40
16.0
 40
16.0
 40
16.0
 40
17.0
 40
17.0
 40
17.0
 40
18.0
 40
18.0
 40
18.0
 40
19.0
 40
19.0
 40
19.0
 40
20.0
 40
20.0
 40
20.0
 40
21.0
 40
21.0
 40
21.0
 40
22.0
 40
22.0
 40
22.0
 40
23.0
 40
23.0
 40
23.0
 40
23.0
 10
397.463735727837
 20
-677.2627530870395
 30
0.0
 10
397.646409474919
 20
-674.9186456477819
 30
0.0
 10
398.8793411369206
 20
-673.6095975051048
 30
0.0
 10
400.6602650074674
 20
-672.3994855451419
 30
0.0
 10
399.6860727659987
 20
-670.4359097020388
 30
0.0
 10
398.2704673569151
 20
-668.6473865223215
 30
0.0
 10
396.0557368860991
 20
-668.6473865223215
 30
0.0
 10
390.3857377151235
 20
-668.6473865223215
 30
0.0
 10
390.0280258210059
 20
-678.023830795697
 30
0.0
 10
384.3504200826828
 20
-678.023830795697
 30
0.0
 10
381.5953330033699
 20
-678.023830795697
 30
0.0
 10
378.3227090175897
 20
-676.806112268383
 30
0.0
 10
378.3227090175897
 20
-673.8911929185488
 30
0.0
 10
378.3227090175897
 20
-672.3994855451419
 30
0.0
 10
379.7383144266732
 20
-671.752571670233
 30
0.0
 10
379.7383144266732
 20
-670.2532577294824
 30
0.0
 10
379.7383144266732
 20
-670.2532577294824
 30
0.0
 10
379.7383144266732
 20
-667.9015364647039
 30
0.0
 10
379.7383144266732
 20
-667.9015364647039
 30
0.0
 10
379.7383144266732
 20
-667.9015364647039
 30
0.0
 10
377.6149208293973
 20
-667.5286041777217
 30
0.0
 10
377.6149208293973
 20
-667.5286041777217
 30
0.0
 10
375.6741719465062
 20
-668.8376523203988
 30
0.0
 10
373.9845849495014
 20
-669.3019142227477
 30
0.0
 10
372.6603164139578
 20
-671.2730966331947
 30
0.0
 10
370.6054109554898
 20
-671.2730966331947
 30
0.0
 10
369.3724792934881
 20
-671.5546920466386
 30
0.0
 10
367.3251804023657
 20
-670.9077781717315
 30
0.0
 10
362.172689105153
 20
-675.3981206848221
 30
0.0
 10
358.9077007194192
 20
-679.5155381691038
 30
0.0
 10
352.2559027396292
 20
-679.5155381691038
 30
0.0
 10
350.7565670243512
 20
-679.5155381691038
 30
0.0
 10
350.0411722688132
 20
-678.6783512379461
 30
0.0
 10
348.541836553537
 20
-678.3891419989832
 30
0.0
 10
345.8628732130728
 20
-684.7669511326767
 30
0.0
 10
339.5002699558936
 20
-685.5204150158133
 30
0.0
 10
332.9245957149542
 20
-685.5204150158133
 30
0.0
 10
331.1589140117976
 20
-685.5204150158133
 30
0.0
 10
330.0933848967888
 20
-683.6481687880769
 30
0.0
 10
330.0933848967888
 20
-681.7835363858612
 30
0.0
 10
329.1116151206752
 20
-681.5856567622632
 30
0.0
 10
328.5027413406697
 20
-681.4029975315316
 30
0.0
 10
327.5285781319017
 20
-681.4029975315316
 30
0.0
 10
324.3320488522713
 20
-681.4029975315316
 30
0.0
 10
322.6500974553128
 20
-685.1322695941399
 30
0.0
 10
322.6500974553128
 20
-688.5266639810179
 30
0.0
 10
322.6500974553128
 20
-692.0808833802384
 30
0.0
 10
324.0656738316957
 20
-693.9455157824559
 30
0.0
 10
324.0656738316957
 20
-697.5149555745429
 30
0.0
 10
324.0656738316957
 20
-699.204542571546
 30
0.0
 10
322.9925671820401
 20
-700.8865157430337
 30
0.0
 10
321.4095301932666
 20
-700.8865157430337
 30
0.0
 10
319.1947997224506
 20
-700.8865157430337
 30
0.0
 10
318.3043377871782
 20
-699.0142695152936
 30
0.0
 10
316.0743941816727
 20
-699.0142695152936
 30
0.0
 10
312.185318881242
 20
-699.0142695152936
 30
0.0
 10
309.1714633486936
 20
-702.7739823636348
 30
0.0
 10
309.1714633486936
 20
-706.8761721968767
 30
0.0
 10
309.1714633486936
 20
-709.6845415384814
 30
0.0
 10
310.5870542414268
 20
-712.8810563017614
 30
0.0
 10
313.2432123962062
 20
-712.8810563017614
 30
0.0
 10
315.1991744137886
 20
-712.8810563017614
 30
0.0
 10
316.0743941816727
 20
-711.0012035066775
 30
0.0
 10
318.0379627665989
 20
-711.0012035066775
 30
0.0
 10
319.7123366289143
 20
-711.0012035066775
 30
0.0
 10
321.2268854788836
 20
-712.4015812647212
 30
0.0
 10
321.2268854788836
 20
-714.1901044444385
 30
0.0
 10
321.2268854788836
 20
-719.8144496949935
 30
0.0
 10
315.3666059934803
 20
-720.6668497608407
 30
0.0
 10
310.937145051852
 20
-723.7415941230247
 30
0.0
  0
SPLINE
  5
81
330
41
100
AcDbEntity
  8
Layer 1
 62
   156
420
  1785491
370
    35
100
AcDbSpline
210
0.0
220
0.0
230
1.0
 70
     8
 71
     3
 72
    26
 73
    22
 74
     0
 42
0.0000000001
 43
0.0000000001
 12
1.0
 22
0.0
 32
0.0
 13
1.0
 23
0.0
 33
0.0
 40
0.0
 40
0.0
 40
0.0
 40
0.0
 40
1.0
 40
1.0
 40
1.0
 40
2.0
 40
2.0
 40
2.0
 40
3.0
 40
3.0
 40
3.0
 40
4.0
 40
4.0
 40
4.0
 40
5.0
 40
5.0
 40
5.0
 40
6.0
 40
6.0
 40
6.0
 40
7.0
 40
7.0
 40
7.0
 40
7.0
 10
355.6274701662951
 20
-775.8599926369825
 30
0.0
 10
358.7326335396829
 20
-773.3256139560199
 30
0.0
 10
358.8239704132229
 20
-767.9828686552646
 30
0.0
 10
362.7967760198499
 20
-767.9828686552646
 30
0.0
 10
362.7967760198499
 20
-767.9828686552646
 30
0.0
 10
364.8516814783179
 20
-767.9828686552646
 30
0.0
 10
364.8516814783179
 20
-767.9828686552646
 30
0.0
 10
364.8516814783179
 20
-767.9828686552646
 30
0.0
 10
364.8516814783179
 20
-770.9891139913798
 30
0.0
 10
364.8516814783179
 20
-770.9891139913798
 30
0.0
 10
363.6111432489706
 20
-772.305773237762
 30
0.0
 10
363.0783641751168
 20
-773.4245528605443
 30
0.0
 10
363.0783641751168
 20
-775.2967972737406
 30
0.0
 10
363.0783641751168
 20
-778.9423453810541
 30
0.0
 10
366.8837382020502
 20
-780.7308708289511
 30
0.0
 10
370.3390359349123
 20
-780.7308708289511
 30
0.0
 10
373.002786140687
 20
-780.7308708289511
 30
0.0
 10
375.476285064733
 20
-778.7672981612995
 30
0.0
 10
375.476285064733
 20
-775.9361000449408
 30
0.0
 10
375.476285064733
 20
-773.7974797038987
 30
0.0
 10
375.03487189712
 20
-772.4884315612217
 30
0.0
 10
374.0606796556513
 20
-770.6009667551625
 30
0.0
  0
SPLINE
  5
82
330
41
100
AcDbEntity
  8
Layer 1
 62
   156
420
  1785491
370
    35
100
AcDbSpline
210
0.0
220
0.0
230
1.0
 70
     8
 71
     3
 72
    14
 73
    10
 74
     0
 42
0.0000000001
 43
0.0000000001
 12
1.0
 22
0.0
 32
0.0
 13
1.0
 23
0.0
 33
0.0
 40
0.0
 40
0.0
 40
0.0
 40
0.0
 40
1.0
 40
1.0
 40
1.0
 40
2.0
 40
2.0
 40
2.0
 40
3.0
 40
3.0
 40
3.0
 40
3.0
 10
427.975216082119
 20
-740.6222328129479
 30
0.0
 10
422.5563787970295
 20
-743.9937929814387
 30
0.0
 10
427.3587647674685
 20
-755.9883299110825
 30
0.0
 10
421.0494365144059
 20
-755.9883299110825
 30
0.0
 10
417.9366665736725
 20
-755.9883299110825
 30
0.0
 10
416.5438808666258
 20
-752.9973085969195
 30
0.0
 10
413.4310818931917
 20
-752.9973085969195
 30
0.0
 10
406.70318920725
 20
-752.9973085969195
 30
0.0
 10
409.1766881312979
 20
-768.7287223419698
 30
0.0
 10
402.4411598453116
 20
-767.2370149685594
 30
0.0
  0
SPLINE
  5
83
330
41
100
AcDbEntity
  8
Layer 1
 62
   156
420
  1785491
370
    35
100
AcDbSpline
210
0.0
220
0.0
230
1.0
 70
     8
 71
     3
 72
    44
 73
    40
 74
     0
 42
0.0000000001
 43
0.0000000001
 12
1.0
 22
0.0
 32
0.0
 13
1.0
 23
0.0
 33
0.0
 40
0.0
 40
0.0
 40
0.0
 40
0.0
 40
1.0
 40
1.0
 40
1.0
 40
2.0
 40
2.0
 40
2.0
 40
3.0
 40
3.0
 40
3.0
 40
4.0
 40
4.0
 40
4.0
 40
5.0
 40
5.0
 40
5.0
 40
6.0
 40
6.0
 40
6.0
 40
7.0
 40
7.0
 40
7.0
 40
8.0
 40
8.0
 40
8.0
 40
9.0
 40
9.0
 40
9.0
 40
10.0
 40
10.0
 40
10.0
 40
11.0
 40
11.0
 40
11.0
 40
12.0
 40
12.0
 40
12.0
 40
13.0
 40
13.0
 40
13.0
 40
13.0
 10
397.829054189302
 20
-675.0175818304924
 30
0.0
 10
397.463735727837
 20
-676.5245095967693
 30
0.0
 10
396.7635541069922
 20
-677.3769169207899
 30
0.0
 10
396.7635541069922
 20
-678.9523400840462
 30
0.0
 10
396.7635541069922
 20
-680.5582112912034
 30
0.0
 10
398.4379279693076
 20
-681.4029975315316
 30
0.0
 10
399.9524477865743
 20
-681.4029975315316
 30
0.0
 10
402.0758413838503
 20
-681.4029975315316
 30
0.0
 10
403.141370498859
 20
-679.8884631979126
 30
0.0
 10
405.2799772308226
 20
-679.8884631979126
 30
0.0
 10
410.1584579074133
 20
-679.8884631979126
 30
0.0
 10
415.1967926290472
 20
-682.7957687222297
 30
0.0
 10
415.1967926290472
 20
-687.9634658959549
 30
0.0
 10
415.1967926290472
 20
-690.2923529423479
 30
0.0
 10
412.3655818108818
 20
-690.8555510274055
 30
0.0
 10
412.3655818108818
 20
-693.1996584666631
 30
0.0
 10
412.3655818108818
 20
-696.0156343756134
 30
0.0
 10
416.1785624051608
 20
-694.8968592891888
 30
0.0
 10
418.7510047700962
 20
-695.6427093468064
 30
0.0
 10
421.3158115349834
 20
-696.4037870554603
 30
0.0
 10
422.2976103437977
 20
-699.0142695152936
 30
0.0
 10
422.2976103437977
 20
-701.8150250313811
 30
0.0
 10
422.2976103437977
 20
-703.6111620366173
 30
0.0
 10
420.5243220732955
 20
-704.1743601216767
 30
0.0
 10
420.5243220732955
 20
-705.9400490830085
 30
0.0
 10
420.5243220732955
 20
-709.0452342309218
 30
0.0
 10
422.2138800376015
 20
-712.1351989859686
 30
0.0
 10
425.1364277293087
 20
-712.1351989859686
 30
0.0
 10
428.2416201353954
 20
-712.1351989859686
 30
0.0
 10
428.7743701765503
 20
-707.6296360800116
 30
0.0
 10
431.8871691499826
 20
-707.6296360800116
 30
0.0
 10
433.9116193063728
 20
-707.6296360800116
 30
0.0
 10
434.3606390413297
 20
-710.354289631774
 30
0.0
 10
434.3606390413297
 20
-712.5005174474318
 30
0.0
 10
434.3606390413297
 20
-715.7046460362326
 30
0.0
 10
432.2372454440574
 20
-717.0974099687555
 30
0.0
 10
432.2372454440574
 20
-720.278704339169
 30
0.0
 10
432.2372454440574
 20
-720.7505728088618
 30
0.0
 10
432.5873507708293
 20
-721.0397820478229
 30
0.0
 10
432.5873507708293
 20
-721.5040366920002
 30
0.0
  0
SPLINE
  5
84
330
41
100
AcDbEntity
  8
Layer 1
 62
   156
420
  1785491
370
    35
100
AcDbSpline
210
0.0
220
0.0
230
1.0
 70
     8
 71
     3
 72
    47
 73
    43
 74
     0
 42
0.0000000001
 43
0.0000000001
 12
1.0
 22
0.0
 32
0.0
 13
1.0
 23
0.0
 33
0.0
 40
0.0
 40
0.0
 40
0.0
 40
0.0
 40
1.0
 40
1.0
 40
1.0
 40
2.0
 40
2.0
 40
2.0
 40
3.0
 40
3.0
 40
3.0
 40
4.0
 40
4.0
 40
4.0
 40
5.0
 40
5.0
 40
5.0
 40
6.0
 40
6.0
 40
6.0
 40
7.0
 40
7.0
 40
7.0
 40
8.0
 40
8.0
 40
8.0
 40
9.0
 40
9.0
 40
9.0
 40
10.0
 40
10.0
 40
10.0
 40
11.0
 40
11.0
 40
11.0
 40
12.0
 40
12.0
 40
12.0
 40
13.0
 40
13.0
 40
13.0
 40
14.0
 40
14.0
 40
14.0
 40
14.0
 10
355.6274701662951
 20
-776.2405296767683
 30
0.0
 10
355.6274701662951
 20
-776.2405296767683
 30
0.0
 10
351.4491420778522
 20
-776.2405296767683
 30
0.0
 10
351.4491420778522
 20
-776.2405296767683
 30
0.0
 10
349.0593734600006
 20
-776.2405296767683
 30
0.0
 10
347.1110180097639
 20
-774.2617352553425
 30
0.0
 10
347.1110180097639
 20
-771.7273574816518
 30
0.0
 10
347.1110180097639
 20
-768.3634056950505
 30
0.0
 10
352.7886527807841
 20
-768.7287223419698
 30
0.0
 10
352.7886527807841
 20
-765.3647705553667
 30
0.0
 10
352.7886527807841
 20
-763.2946483331216
 30
0.0
 10
350.2923341547012
 20
-762.7314520626041
 30
0.0
 10
348.3591918391539
 20
-762.7314520626041
 30
0.0
 10
343.8231808892942
 20
-762.7314520626041
 30
0.0
 10
343.1229992684457
 20
-769.4821862251065
 30
0.0
 10
338.5945948859298
 20
-769.4821862251065
 30
0.0
 10
335.4894315125421
 20
-769.4821862251065
 30
0.0
 10
332.9245957149542
 20
-766.5824908972209
 30
0.0
 10
332.9245957149542
 20
-763.2946483331216
 30
0.0
 10
332.9245957149542
 20
-760.4101752126462
 30
0.0
 10
337.5367013709656
 20
-760.5776104214274
 30
0.0
 10
337.5367013709656
 20
-757.6779169080855
 30
0.0
 10
337.5367013709656
 20
-755.9883299110825
 30
0.0
 10
336.486414423347
 20
-754.4890123412406
 30
0.0
 10
334.8881642998822
 20
-754.4890123412406
 30
0.0
 10
333.5410760623054
 20
-754.4890123412406
 30
0.0
 10
333.898758923724
 20
-756.642853982421
 30
0.0
 10
332.9245957149542
 20
-757.495257677354
 30
0.0
 10
330.1847217703307
 20
-759.9230863500889
 30
0.0
 10
327.520971564556
 20
-760.4938928170341
 30
0.0
 10
323.8906356846583
 20
-760.4938928170341
 30
0.0
 10
321.2192789115397
 20
-760.4938928170341
 30
0.0
 10
319.0882497142193
 20
-758.0584539478696
 30
0.0
 10
319.0882497142193
 20
-755.2348660279458
 30
0.0
 10
319.0882497142193
 20
-753.7431586545354
 30
0.0
 10
320.503855123301
 20
-753.1875743949931
 30
0.0
 10
320.503855123301
 20
-751.6806466287217
 30
0.0
 10
320.503855123301
 20
-749.9073438418709
 30
0.0
 10
318.3043377871782
 20
-749.618134602908
 30
0.0
 10
316.6147507901715
 20
-749.618134602908
 30
0.0
 10
316.5310495166759
 20
-748.027487417703
 30
0.0
 10
316.348375769594
 20
-747.0761439109665
 30
0.0
 10
316.2646744960985
 20
-745.5007207477138
 30
0.0
  0
ENDBLK
  5
44
330
41
100
AcDbEntity
  8
0
100
AcDbBlockEnd
  0
ENDSEC
  0
SECTION
  2
ENTITIES
  0
INSERT
  5
42
330
1F
100
AcDbEntity
  8
Layer 1
100
AcDbBlockReference
  2
block 2
 10
0.0
 20
0.0
 30
0.0
  0
ENDSEC
  0
SECTION
  2
OBJECTS
  0
DICTIONARY
  5
C
330
0
100
AcDbDictionary
281
     1
  3
ACAD_GROUP
350
D
  3
ACAD_LAYOUT
350
1A
  3
ACAD_MATERIAL
350
3B
  3
ACAD_MLEADERSTYLE
350
86
  3
ACAD_MLINESTYLE
350
17
  3
ACAD_PLOTSETTINGS
350
19
  3
ACAD_PLOTSTYLENAME
350
E
  3
ACAD_TABLESTYLE
350
85
  3
ACAD_VISUALSTYLE
350
2A
  0
SUN
  5
3F
330
29
100
AcDbSun
 90
        1
290
     0
 63
     7
421
 16777215
 40
1.0
291
     1
 91
  2455826
 92
 54000000
292
     0
 70
     2
 71
   256
280
     1
  0
DICTIONARY
  5
D
102
{ACAD_REACTORS
330
C
102
}
330
C
100
AcDbDictionary
281
     1
  0
DICTIONARY
  5
1A
102
{ACAD_REACTORS
330
C
102
}
330
C
100
AcDbDictionary
281
     1
  3
Layout1
350
1E
  3
Layout2
350
26
  3
Model
350
22
  0
DICTIONARY
  5
3B
102
{ACAD_REACTORS
330
C
102
}
330
C
100
AcDbDictionary
281
     1
  3
ByBlock
350
3D
  3
ByLayer
350
3C
  3
Global
350
3E
  0
DICTIONARY
  5
86
102
{ACAD_REACTORS
330
C
102
}
330
C
100
AcDbDictionary
281
     1
  0
DICTIONARY
  5
17
102
{ACAD_REACTORS
330
C
102
}
330
C
100
AcDbDictionary
281
     1
  3
Standard
350
18
  0
DICTIONARY
  5
19
102
{ACAD_REACTORS
330
C
102
}
330
C
100
AcDbDictionary
281
     1
  0
ACDBDICTIONARYWDFLT
  5
E
102
{ACAD_REACTORS
330
C
102
}
330
C
100
AcDbDictionary
281
     1
  3
Normal
350
F
100
AcDbDictionaryWithDefault
340
F
  0
DICTIONARY
  5
85
102
{ACAD_REACTORS
330
C
102
}
330
C
100
AcDbDictionary
281
     1
  0
DICTIONARY
  5
2A
102
{ACAD_REACTORS
330
C
102
}
330
C
100
AcDbDictionary
281
     1
  3
2dWireframe
350
2F
  3
3D Hidden
350
31
  3
3dWireframe
350
30
  3
Basic
350
32
  3
Brighten
350
36
  3
ColorChange
350
3A
  3
Conceptual
350
34
  3
Dim
350
35
  3
Facepattern
350
39
  3
Flat
350
2B
  3
FlatWithEdges
350
2C
  3
Gouraud
350
2D
  3
GouraudWithEdges
350
2E
  3
Linepattern
350
38
  3
Realistic
350
33
  3
Thicken
350
37
  0
LAYOUT
  5
1E
102
{ACAD_REACTORS
330
1A
102
}
330
1A
100
AcDbPlotSettings
  1

  2
none_device
  4

  6

 40
0.0
 41
0.0
 42
0.0
 43
0.0
 44
0.0
 45
0.0
 46
0.0
 47
0.0
 48
0.0
 49
0.0
140
0.0
141
0.0
142
1.0
143
1.0
 70
   688
 72
     0
 73
     0
 74
     5
  7

 75
    16
 76
     0
 77
     2
 78
   300
147
1.0
148
0.0
149
0.0
100
AcDbLayout
  1
Layout1
 70
     1
 71
     1
 10
0.0
 20
0.0
 11
12.0
 21
9.0
 12
0.0
 22
0.0
 32
0.0
 14
1.000000000000000E+20
 24
1.000000000000000E+20
 34
1.000000000000000E+20
 15
-1.000000000000000E+20
 25
-1.000000000000000E+20
 35
-1.000000000000000E+20
146
0.0
 13
0.0
 23
0.0
 33
0.0
 16
1.0
 26
0.0
 36
0.0
 17
0.0
 27
1.0
 37
0.0
 76
     0
330
1B
  0
LAYOUT
  5
26
102
{ACAD_REACTORS
330
1A
102
}
330
1A
100
AcDbPlotSettings
  1

  2
none_device
  4

  6

 40
0.0
 41
0.0
 42
0.0
 43
0.0
 44
0.0
 45
0.0
 46
0.0
 47
0.0
 48
0.0
 49
0.0
140
0.0
141
0.0
142
1.0
143
1.0
 70
   688
 72
     0
 73
     0
 74
     5
  7

 75
    16
 76
     0
 77
     2
 78
   300
147
1.0
148
0.0
149
0.0
100
AcDbLayout
  1
Layout2
 70
     1
 71
     2
 10
0.0
 20
0.0
 11
0.0
 21
0.0
 12
0.0
 22
0.0
 32
0.0
 14
0.0
 24
0.0
 34
0.0
 15
0.0
 25
0.0
 35
0.0
146
0.0
 13
0.0
 23
0.0
 33
0.0
 16
1.0
 26
0.0
 36
0.0
 17
0.0
 27
1.0
 37
0.0
 76
     0
330
23
  0
LAYOUT
  5
22
102
{ACAD_REACTORS
330
1A
102
}
330
1A
100
AcDbPlotSettings
  1

  2
none_device
  4

  6

 40
0.0
 41
0.0
 42
0.0
 43
0.0
 44
0.0
 45
0.0
 46
0.0
 47
0.0
 48
0.0
 49
0.0
140
0.0
141
0.0
142
1.0
143
1.0
 70
  1712
 72
     0
 73
     0
 74
     0
  7

 75
     0
 76
     0
 77
     2
 78
   300
147
1.0
148
0.0
149
0.0
100
AcDbLayout
  1
Model
 70
     1
 71
     0
 10
0.0
 20
0.0
 11
12.0
 21
9.0
 12
0.0
 22
0.0
 32
0.0
 14
1.000000000000000E+20
 24
1.000000000000000E+20
 34
1.000000000000000E+20
 15
-1.000000000000000E+20
 25
-1.000000000000000E+20
 35
-1.000000000000000E+20
146
0.0
 13
0.0
 23
0.0
 33
0.0
 16
1.0
 26
0.0
 36
0.0
 17
0.0
 27
1.0
 37
0.0
 76
     0
330
1F
331
29
  0
MATERIAL
  5
3D
102
{ACAD_REACTORS
330
3B
102
}
330
3B
100
AcDbMaterial
  1
ByBlock
 72
     1
 94
      127
  0
MATERIAL
  5
3C
102
{ACAD_REACTORS
330
3B
102
}
330
3B
100
AcDbMaterial
  1
ByLayer
 72
     1
 94
      127
  0
MATERIAL
  5
3E
102
{ACAD_REACTORS
330
3B
102
}
330
3B
100
AcDbMaterial
  1
Global
 72
     1
 94
      127
  0
MLINESTYLE
  5
18
102
{ACAD_REACTORS
330
17
102
}
330
17
100
AcDbMlineStyle
  2
Standard
 70
     0
  3

 62
   256
 51
90.0
 52
90.0
 71
     2
 49
0.5
 62
   256
  6
BYLAYER
 49
-0.5
 62
   256
  6
BYLAYER
  0
ACDBPLACEHOLDER
  5
F
102
{ACAD_REACTORS
330
E
102
}
330
E
  0
VISUALSTYLE
  5
2F
102
{ACAD_REACTORS
330
2A
102
}
330
2A
100
AcDbVisualStyle
  2
2dWireframe
 70
     4
177
     2
291
     0
 71
     0
176
     1
 72
     2
176
     1
 73
     0
176
     1
 90
        0
176
     1
 40
-0.6
176
     1
 41
-30.0
176
     1
 62
     5
 63
     7
421
 16777215
176
     1
 74
     1
176
     1
 91
        4
176
     1
 64
     7
176
     1
 65
   257
176
     1
 75
     1
176
     1
175
     1
176
     1
 42
1.0
176
     1
 92
        0
176
     1
 66
   257
176
     1
 43
1.0
176
     1
 76
     1
176
     1
 77
     6
176
     1
 78
     2
176
     1
 67
     7
176
     1
 79
     5
176
     1
170
     0
176
     1
171
     0
176
     1
290
     0
176
     1
 93
        1
176
     1
 44
0.0
176
     1
173
     0
176
     1
  0
VISUALSTYLE
  5
31
102
{ACAD_REACTORS
330
2A
102
}
330
2A
100
AcDbVisualStyle
  2
3D Hidden
 70
     6
177
     2
291
     0
 71
     1
176
     1
 72
     2
176
     1
 73
     2
176
     1
 90
        0
176
     1
 40
-0.6
176
     1
 41
-30.0
176
     1
 62
     5
 63
     7
421
 16777215
176
     1
 74
     2
176
     1
 91
        2
176
     1
 64
     7
176
     1
 65
   257
176
     1
 75
     2
176
     1
175
     1
176
     1
 42
40.0
176
     1
 92
        0
176
     1
 66
   257
176
     1
 43
1.0
176
     1
 76
     1
176
     1
 77
     6
176
     1
 78
     2
176
     1
 67
     7
176
     1
 79
     3
176
     1
170
     0
176
     1
171
     0
176
     1
290
     0
176
     1
 93
        1
176
     1
 44
0.0
176
     1
173
     0
176
     1
  0
VISUALSTYLE
  5
30
102
{ACAD_REACTORS
330
2A
102
}
330
2A
100
AcDbVisualStyle
  2
3dWireframe
 70
     5
177
     2
291
     0
 71
     0
176
     1
 72
     2
176
     1
 73
     0
176
     1
 90
        0
176
     1
 40
-0.6
176
     1
 41
-30.0
176
     1
 62
     5
 63
     7
421
 16777215
176
     1
 74
     1
176
     1
 91
        4
176
     1
 64
     7
176
     1
 65
   257
176
     1
 75
     1
176
     1
175
     1
176
     1
 42
1.0
176
     1
 92
        0
176
     1
 66
   257
176
     1
 43
1.0
176
     1
 76
     1
176
     1
 77
     6
176
     1
 78
     2
176
     1
 67
     7
176
     1
 79
     5
176
     1
170
     0
176
     1
171
     0
176
     1
290
     0
176
     1
 93
        1
176
     1
 44
0.0
176
     1
173
     0
176
     1
  0
VISUALSTYLE
  5
32
102
{ACAD_REACTORS
330
2A
102
}
330
2A
100
AcDbVisualStyle
  2
Basic
 70
     7
177
     2
291
     1
 71
     1
176
     1
 72
     0
176
     1
 73
     1
176
     1
 90
        0
176
     1
 40
-0.6
176
     1
 41
-30.0
176
     1
 62
     5
 63
     7
421
 16777215
176
     1
 74
     0
176
     1
 91
        4
176
     1
 64
     7
176
     1
 65
   257
176
     1
 75
     1
176
     1
175
     1
176
     1
 42
1.0
176
     1
 92
        8
176
     1
 66
     7
176
     1
 43
1.0
176
     1
 76
     1
176
     1
 77
     6
176
     1
 78
     2
176
     1
 67
     7
176
     1
 79
     5
176
     1
170
     0
176
     1
171
     0
176
     1
290
     0
176
     1
 93
        1
176
     1
 44
0.0
176
     1
173
     0
176
     1
  0
VISUALSTYLE
  5
36
102
{ACAD_REACTORS
330
2A
102
}
330
2A
100
AcDbVisualStyle
  2
Brighten
 70
    12
177
     2
291
     1
 71
     2
176
     1
 72
     2
176
     1
 73
     0
176
     1
 90
        0
176
     1
 40
-0.6
176
     1
 41
-30.0
176
     1
 62
     5
 63
     7
421
 16777215
176
     1
 74
     1
176
     1
 91
        4
176
     1
 64
     7
176
     1
 65
   257
176
     1
 75
     1
176
     1
175
     1
176
     1
 42
1.0
176
     1
 92
        8
176
     1
 66
     7
176
     1
 43
1.0
176
     1
 76
     1
176
     1
 77
     6
176
     1
 78
     2
176
     1
 67
     7
176
     1
 79
     5
176
     1
170
     0
176
     1
171
     0
176
     1
290
     0
176
     1
 93
        1
176
     1
 44
50.0
176
     1
173
     0
176
     1
  0
VISUALSTYLE
  5
3A
102
{ACAD_REACTORS
330
2A
102
}
330
2A
100
AcDbVisualStyle
  2
ColorChange
 70
    16
177
     2
291
     1
 71
     2
176
     1
 72
     2
176
     1
 73
     3
176
     1
 90
        0
176
     1
 40
-0.6
176
     1
 41
-30.0
176
     1
 62
     5
 63
     8
421
  8421504
176
     1
 74
     1
176
     1
 91
        4
176
     1
 64
     7
176
     1
 65
   257
176
     1
 75
     1
176
     1
175
     1
176
     1
 42
1.0
176
     1
 92
        8
176
     1
 66
     8
424
  8421504
176
     1
 43
1.0
176
     1
 76
     1
176
     1
 77
     6
176
     1
 78
     2
176
     1
 67
     7
176
     1
 79
     5
176
     1
170
     0
176
     1
171
     0
176
     1
290
     0
176
     1
 93
        1
176
     1
 44
0.0
176
     1
173
     0
176
     1
  0
VISUALSTYLE
  5
34
102
{ACAD_REACTORS
330
2A
102
}
330
2A
100
AcDbVisualStyle
  2
Conceptual
 70
     9
177
     2
291
     0
 71
     3
176
     1
 72
     2
176
     1
 73
     0
176
     1
 90
        0
176
     1
 40
-0.6
176
     1
 41
-30.0
176
     1
 62
     5
 63
     7
421
 16777215
176
     1
 74
     2
176
     1
 91
        2
176
     1
 64
     7
176
     1
 65
   257
176
     1
 75
     1
176
     1
175
     1
176
     1
 42
40.0
176
     1
 92
        8
176
     1
 66
     7
176
     1
 43
1.0
176
     1
 76
     1
176
     1
 77
     6
176
     1
 78
     2
176
     1
 67
     7
176
     1
 79
     3
176
     1
170
     0
176
     1
171
     0
176
     1
290
     0
176
     1
 93
        1
176
     1
 44
0.0
176
     1
173
     0
176
     1
  0
VISUALSTYLE
  5
35
102
{ACAD_REACTORS
330
2A
102
}
330
2A
100
AcDbVisualStyle
  2
Dim
 70
    11
177
     2
291
     1
 71
     2
176
     1
 72
     2
176
     1
 73
     0
176
     1
 90
        0
176
     1
 40
-0.6
176
     1
 41
-30.0
176
     1
 62
     5
 63
     7
421
 16777215
176
     1
 74
     1
176
     1
 91
        4
176
     1
 64
     7
176
     1
 65
   257
176
     1
 75
     1
176
     1
175
     1
176
     1
 42
1.0
176
     1
 92
        8
176
     1
 66
     7
176
     1
 43
1.0
176
     1
 76
     1
176
     1
 77
     6
176
     1
 78
     2
176
     1
 67
     7
176
     1
 79
     5
176
     1
170
     0
176
     1
171
     0
176
     1
290
     0
176
     1
 93
        1
176
     1
 44
-50.0
176
     1
173
     0
176
     1
  0
VISUALSTYLE
  5
39
102
{ACAD_REACTORS
330
2A
102
}
330
2A
100
AcDbVisualStyle
  2
Facepattern
 70
    15
177
     2
291
     1
 71
     2
176
     1
 72
     2
176
     1
 73
     0
176
     1
 90
        0
176
     1
 40
-0.6
176
     1
 41
-30.0
176
     1
 62
     5
 63
     7
421
 16777215
176
     1
 74
     1
176
     1
 91
        4
176
     1
 64
     7
176
     1
 65
   257
176
     1
 75
     1
176
     1
175
     1
176
     1
 42
1.0
176
     1
 92
        8
176
     1
 66
     7
176
     1
 43
1.0
176
     1
 76
     1
176
     1
 77
     6
176
     1
 78
     2
176
     1
 67
     7
176
     1
 79
     5
176
     1
170
     0
176
     1
171
     0
176
     1
290
     0
176
     1
 93
        1
176
     1
 44
0.0
176
     1
173
     0
176
     1
  0
VISUALSTYLE
  5
2B
102
{ACAD_REACTORS
330
2A
102
}
330
2A
100
AcDbVisualStyle
  2
Flat
 70
     0
177
     2
291
     1
 71
     2
176
     1
 72
     1
176
     1
 73
     1
176
     1
 90
        2
176
     1
 40
-0.6
176
     1
 41
30.0
176
     1
 62
     5
 63
     7
421
 16777215
176
     1
 74
     0
176
     1
 91
        4
176
     1
 64
     7
176
     1
 65
   257
176
     1
 75
     1
176
     1
175
     1
176
     1
 42
1.0
176
     1
 92
        8
176
     1
 66
     7
176
     1
 43
1.0
176
     1
 76
     1
176
     1
 77
     6
176
     1
 78
     2
176
     1
 67
     7
176
     1
 79
     5
176
     1
170
     0
176
     1
171
     0
176
     1
290
     0
176
     1
 93
       13
176
     1
 44
0.0
176
     1
173
     0
176
     1
  0
VISUALSTYLE
  5
2C
102
{ACAD_REACTORS
330
2A
102
}
330
2A
100
AcDbVisualStyle
  2
FlatWithEdges
 70
     1
177
     2
291
     1
 71
     2
176
     1
 72
     1
176
     1
 73
     1
176
     1
 90
        2
176
     1
 40
-0.6
176
     1
 41
30.0
176
     1
 62
     5
 63
     7
421
 16777215
176
     1
 74
     1
176
     1
 91
        4
176
     1
 64
     7
176
     1
 65
   257
176
     1
 75
     1
176
     1
175
     1
176
     1
 42
1.0
176
     1
 92
        0
176
     1
 66
   257
176
     1
 43
1.0
176
     1
 76
     1
176
     1
 77
     6
176
     1
 78
     2
176
     1
 67
     7
176
     1
 79
     5
176
     1
170
     0
176
     1
171
     0
176
     1
290
     0
176
     1
 93
       13
176
     1
 44
0.0
176
     1
173
     0
176
     1
  0
VISUALSTYLE
  5
2D
102
{ACAD_REACTORS
330
2A
102
}
330
2A
100
AcDbVisualStyle
  2
Gouraud
 70
     2
177
     2
291
     1
 71
     2
176
     1
 72
     2
176
     1
 73
     1
176
     1
 90
        2
176
     1
 40
-0.6
176
     1
 41
30.0
176
     1
 62
     5
 63
     7
421
 16777215
176
     1
 74
     0
176
     1
 91
        4
176
     1
 64
     7
176
     1
 65
   257
176
     1
 75
     1
176
     1
175
     1
176
     1
 42
1.0
176
     1
 92
        0
176
     1
 66
     7
176
     1
 43
1.0
176
     1
 76
     1
176
     1
 77
     6
176
     1
 78
     2
176
     1
 67
     7
176
     1
 79
     5
176
     1
170
     0
176
     1
171
     0
176
     1
290
     0
176
     1
 93
       13
176
     1
 44
0.0
176
     1
173
     0
176
     1
  0
VISUALSTYLE
  5
2E
102
{ACAD_REACTORS
330
2A
102
}
330
2A
100
AcDbVisualStyle
  2
GouraudWithEdges
 70
     3
177
     2
291
     1
 71
     2
176
     1
 72
     2
176
     1
 73
     1
176
     1
 90
        2
176
     1
 40
-0.6
176
     1
 41
30.0
176
     1
 62
     5
 63
     7
421
 16777215
176
     1
 74
     1
176
     1
 91
        4
176
     1
 64
     7
176
     1
 65
   257
176
     1
 75
     1
176
     1
175
     1
176
     1
 42
1.0
176
     1
 92
        0
176
     1
 66
   257
176
     1
 43
1.0
176
     1
 76
     1
176
     1
 77
     6
176
     1
 78
     2
176
     1
 67
     7
176
     1
 79
     5
176
     1
170
     0
176
     1
171
     0
176
     1
290
     0
176
     1
 93
       13
176
     1
 44
0.0
176
     1
173
     0
176
     1
  0
VISUALSTYLE
  5
38
102
{ACAD_REACTORS
330
2A
102
}
330
2A
100
AcDbVisualStyle
  2
Linepattern
 70
    14
177
     2
291
     1
 71
     2
176
     1
 72
     2
176
     1
 73
     0
176
     1
 90
        0
176
     1
 40
-0.6
176
     1
 41
-30.0
176
     1
 62
     5
 63
     7
421
 16777215
176
     1
 74
     1
176
     1
 91
        4
176
     1
 64
     7
176
     1
 65
   257
176
     1
 75
     7
176
     1
175
     7
176
     1
 42
1.0
176
     1
 92
        8
176
     1
 66
     7
176
     1
 43
1.0
176
     1
 76
     1
176
     1
 77
     6
176
     1
 78
     2
176
     1
 67
     7
176
     1
 79
     5
176
     1
170
     0
176
     1
171
     0
176
     1
290
     0
176
     1
 93
        1
176
     1
 44
0.0
176
     1
173
     0
176
     1
  0
VISUALSTYLE
  5
33
102
{ACAD_REACTORS
330
2A
102
}
330
2A
100
AcDbVisualStyle
  2
Realistic
 70
     8
177
     2
291
     0
 71
     2
176
     1
 72
     2
176
     1
 73
     0
176
     1
 90
        0
176
     1
 40
-0.6
176
     1
 41
-30.0
176
     1
 62
     5
 63
     7
421
 16777215
176
     1
 74
     1
176
     1
 91
        0
176
     1
 64
     7
176
     1
 65
   257
176
     1
 75
     1
176
     1
175
     1
176
     1
 42
1.0
176
     1
 92
        8
176
     1
 66
     8
424
  7895160
176
     1
 43
1.0
176
     1
 76
     1
176
     1
 77
     6
176
     1
 78
     2
176
     1
 67
     7
176
     1
 79
     5
176
     1
170
     0
176
     1
171
     0
176
     1
290
     0
176
     1
 93
       13
176
     1
 44
0.0
176
     1
173
     0
176
     1
  0
VISUALSTYLE
  5
37
102
{ACAD_REACTORS
330
2A
102
}
330
2A
100
AcDbVisualStyle
  2
Thicken
 70
    13
177
     2
291
     1
 71
     2
176
     1
 72
     2
176
     1
 73
     0
176
     1
 90
        0
176
     1
 40
-0.6
176
     1
 41
-30.0
176
     1
 62
     5
 63
     7
421
 16777215
176
     1
 74
     1
176
     1
 91
        4
176
     1
 64
     7
176
     1
 65
   257
176
     1
 75
     1
176
     1
175
     1
176
     1
 42
1.0
176
     1
 92
       12
176
     1
 66
     7
176
     1
 43
1.0
176
     1
 76
     1
176
     1
 77
     6
176
     1
 78
     2
176
     1
 67
     7
176
     1
 79
     5
176
     1
170
     0
176
     1
171
     0
176
     1
290
     0
176
     1
 93
        1
176
     1
 44
0.0
176
     1
173
     0
176
     1
  0
ENDSEC
  0
EOF
